  0
SECTION
  2
HEADER
  9
$ACADVER
  1
AC1027
  9
$ACADMAINTVER
 70
   125
  9
$DWGCODEPAGE
  3
ANSI_1252
  9
$LASTSAVEDBY
  1
Peter
  9
$REQUIREDVERSIONS
160
                 0
  9
$INSBASE
 10
0.0
 20
0.0
 30
0.0
  9
$EXTMIN
 10
27.01608311769633
 20
23.44258860439885
 30
0.0
  9
$EXTMAX
 10
280.682749784363
 20
396.942588604399
 30
0.0
  9
$LIMMIN
 10
0.0
 20
0.0
  9
$LIMMAX
 10
12.0
 20
9.0
  9
$ORTHOMODE
 70
     0
  9
$REGENMODE
 70
     1
  9
$FILLMODE
 70
     1
  9
$QTEXTMODE
 70
     0
  9
$MIRRTEXT
 70
     0
  9
$LTSCALE
 40
1.0
  9
$ATTMODE
 70
     1
  9
$TEXTSIZE
 40
0.2
  9
$TRACEWID
 40
0.05
  9
$TEXTSTYLE
  7
Roman
  9
$CLAYER
  8
0
  9
$CELTYPE
  6
CONTINUOUS
  9
$CECOLOR
 62
   256
  9
$CELTSCALE
 40
1.0
  9
$DISPSILH
 70
     0
  9
$DIMSCALE
 40
1.0
  9
$DIMASZ
 40
0.18
  9
$DIMEXO
 40
0.0625
  9
$DIMDLI
 40
0.38
  9
$DIMRND
 40
0.0
  9
$DIMDLE
 40
0.0
  9
$DIMEXE
 40
0.18
  9
$DIMTP
 40
0.0
  9
$DIMTM
 40
0.0
  9
$DIMTXT
 40
0.18
  9
$DIMCEN
 40
0.09
  9
$DIMTSZ
 40
0.0
  9
$DIMTOL
 70
     0
  9
$DIMLIM
 70
     0
  9
$DIMTIH
 70
     1
  9
$DIMTOH
 70
     1
  9
$DIMSE1
 70
     0
  9
$DIMSE2
 70
     0
  9
$DIMTAD
 70
     0
  9
$DIMZIN
 70
     0
  9
$DIMBLK
  1

  9
$DIMASO
 70
     1
  9
$DIMSHO
 70
     1
  9
$DIMPOST
  1

  9
$DIMAPOST
  1

  9
$DIMALT
 70
     0
  9
$DIMALTD
 70
     2
  9
$DIMALTF
 40
25.4
  9
$DIMLFAC
 40
1.0
  9
$DIMTOFL
 70
     0
  9
$DIMTVP
 40
0.0
  9
$DIMTIX
 70
     0
  9
$DIMSOXD
 70
     0
  9
$DIMSAH
 70
     0
  9
$DIMBLK1
  1

  9
$DIMBLK2
  1

  9
$DIMSTYLE
  2
Standard
  9
$DIMCLRD
 70
     0
  9
$DIMCLRE
 70
     0
  9
$DIMCLRT
 70
     0
  9
$DIMTFAC
 40
1.0
  9
$DIMGAP
 40
0.09
  9
$DIMJUST
 70
     0
  9
$DIMSD1
 70
     0
  9
$DIMSD2
 70
     0
  9
$DIMTOLJ
 70
     1
  9
$DIMTZIN
 70
     0
  9
$DIMALTZ
 70
     0
  9
$DIMALTTZ
 70
     0
  9
$DIMUPT
 70
     0
  9
$DIMDEC
 70
     4
  9
$DIMTDEC
 70
     4
  9
$DIMALTU
 70
     2
  9
$DIMALTTD
 70
     2
  9
$DIMTXSTY
  7
Standard
  9
$DIMAUNIT
 70
     0
  9
$DIMADEC
 70
     0
  9
$DIMALTRND
 40
0.0
  9
$DIMAZIN
 70
     0
  9
$DIMDSEP
 70
    46
  9
$DIMATFIT
 70
     3
  9
$DIMFRAC
 70
     0
  9
$DIMLDRBLK
  1

  9
$DIMLUNIT
 70
     2
  9
$DIMLWD
 70
    -2
  9
$DIMLWE
 70
    -2
  9
$DIMTMOVE
 70
     0
  9
$DIMFXL
 40
1.0
  9
$DIMFXLON
 70
     0
  9
$DIMJOGANG
 40
0.7853981633974483
  9
$DIMTFILL
 70
     0
  9
$DIMTFILLCLR
 70
     0
  9
$DIMARCSYM
 70
     0
  9
$DIMLTYPE
  6

  9
$DIMLTEX1
  6

  9
$DIMLTEX2
  6

  9
$DIMTXTDIRECTION
 70
     0
  9
$LUNITS
 70
     2
  9
$LUPREC
 70
     4
  9
$SKETCHINC
 40
0.1
  9
$FILLETRAD
 40
0.0
  9
$AUNITS
 70
     0
  9
$AUPREC
 70
     0
  9
$MENU
  1
.
  9
$ELEVATION
 40
0.0
  9
$PELEVATION
 40
0.0
  9
$THICKNESS
 40
0.0
  9
$LIMCHECK
 70
     0
  9
$CHAMFERA
 40
0.0
  9
$CHAMFERB
 40
0.0
  9
$CHAMFERC
 40
0.0
  9
$CHAMFERD
 40
0.0
  9
$SKPOLY
 70
     0
  9
$TDCREATE
 40
2458354.663275463
  9
$TDUCREATE
 40
2458354.579942130
  9
$TDUPDATE
 40
2458946.700902778
  9
$TDUUPDATE
 40
2458946.617569444
  9
$TDINDWG
 40
0.0081597222
  9
$TDUSRTIMER
 40
0.0081597222
  9
$USRTIMER
 70
     1
  9
$ANGBASE
 50
0.0
  9
$ANGDIR
 70
     0
  9
$PDMODE
 70
     0
  9
$PDSIZE
 40
0.0
  9
$PLINEWID
 40
0.0
  9
$SPLFRAME
 70
     0
  9
$SPLINETYPE
 70
     6
  9
$SPLINESEGS
 70
     8
  9
$HANDSEED
  5
101155C
  9
$SURFTAB1
 70
     6
  9
$SURFTAB2
 70
     6
  9
$SURFTYPE
 70
     6
  9
$SURFU
 70
     6
  9
$SURFV
 70
     6
  9
$UCSBASE
  2

  9
$UCSNAME
  2

  9
$UCSORG
 10
0.0
 20
0.0
 30
0.0
  9
$UCSXDIR
 10
1.0
 20
0.0
 30
0.0
  9
$UCSYDIR
 10
0.0
 20
1.0
 30
0.0
  9
$UCSORTHOREF
  2

  9
$UCSORTHOVIEW
 70
     0
  9
$UCSORGTOP
 10
0.0
 20
0.0
 30
0.0
  9
$UCSORGBOTTOM
 10
0.0
 20
0.0
 30
0.0
  9
$UCSORGLEFT
 10
0.0
 20
0.0
 30
0.0
  9
$UCSORGRIGHT
 10
0.0
 20
0.0
 30
0.0
  9
$UCSORGFRONT
 10
0.0
 20
0.0
 30
0.0
  9
$UCSORGBACK
 10
0.0
 20
0.0
 30
0.0
  9
$PUCSBASE
  2

  9
$PUCSNAME
  2

  9
$PUCSORG
 10
0.0
 20
0.0
 30
0.0
  9
$PUCSXDIR
 10
1.0
 20
0.0
 30
0.0
  9
$PUCSYDIR
 10
0.0
 20
1.0
 30
0.0
  9
$PUCSORTHOREF
  2

  9
$PUCSORTHOVIEW
 70
     0
  9
$PUCSORGTOP
 10
0.0
 20
0.0
 30
0.0
  9
$PUCSORGBOTTOM
 10
0.0
 20
0.0
 30
0.0
  9
$PUCSORGLEFT
 10
0.0
 20
0.0
 30
0.0
  9
$PUCSORGRIGHT
 10
0.0
 20
0.0
 30
0.0
  9
$PUCSORGFRONT
 10
0.0
 20
0.0
 30
0.0
  9
$PUCSORGBACK
 10
0.0
 20
0.0
 30
0.0
  9
$USERI1
 70
     0
  9
$USERI2
 70
     0
  9
$USERI3
 70
     0
  9
$USERI4
 70
     0
  9
$USERI5
 70
     0
  9
$USERR1
 40
0.0
  9
$USERR2
 40
0.0
  9
$USERR3
 40
0.0
  9
$USERR4
 40
0.0
  9
$USERR5
 40
0.0
  9
$WORLDVIEW
 70
     1
  9
$SHADEDGE
 70
     3
  9
$SHADEDIF
 70
    70
  9
$TILEMODE
 70
     1
  9
$MAXACTVP
 70
    64
  9
$PINSBASE
 10
0.0
 20
0.0
 30
0.0
  9
$PLIMCHECK
 70
     0
  9
$PEXTMIN
 10
1.000000000000000E+20
 20
1.000000000000000E+20
 30
1.000000000000000E+20
  9
$PEXTMAX
 10
-1.000000000000000E+20
 20
-1.000000000000000E+20
 30
-1.000000000000000E+20
  9
$PLIMMIN
 10
0.0
 20
0.0
  9
$PLIMMAX
 10
12.0
 20
9.0
  9
$UNITMODE
 70
     0
  9
$VISRETAIN
 70
     1
  9
$PLINEGEN
 70
     0
  9
$PSLTSCALE
 70
     1
  9
$TREEDEPTH
 70
  3020
  9
$CMLSTYLE
  2
Standard
  9
$CMLJUST
 70
     0
  9
$CMLSCALE
 40
1.0
  9
$PROXYGRAPHICS
 70
     1
  9
$MEASUREMENT
 70
     0
  9
$CELWEIGHT
370
    -1
  9
$ENDCAPS
280
     0
  9
$JOINSTYLE
280
     0
  9
$LWDISPLAY
290
     0
  9
$INSUNITS
 70
     1
  9
$HYPERLINKBASE
  1

  9
$STYLESHEET
  1

  9
$XEDIT
290
     1
  9
$CEPSNTYPE
380
     0
  9
$PSTYLEMODE
290
     1
  9
$FINGERPRINTGUID
  2
{1DB9D1DE-789F-E248-BE97-F7CD108A34F9}
  9
$VERSIONGUID
  2
{45187EE8-49BE-A84C-AC99-9F22ACA39FAD}
  9
$EXTNAMES
290
     1
  9
$PSVPSCALE
 40
0.0
  9
$OLESTARTUP
290
     0
  9
$SORTENTS
280
   127
  9
$INDEXCTL
280
     0
  9
$HIDETEXT
280
     0
  9
$XCLIPFRAME
280
     2
  9
$HALOGAP
280
     0
  9
$OBSCOLOR
 70
   257
  9
$OBSLTYPE
280
     0
  9
$INTERSECTIONDISPLAY
280
     0
  9
$INTERSECTIONCOLOR
 70
   257
  9
$DIMASSOC
280
     1
  9
$PROJECTNAME
  1

  9
$CAMERADISPLAY
290
     0
  9
$LENSLENGTH
 40
50.0
  9
$CAMERAHEIGHT
 40
0.0
  9
$STEPSPERSEC
 40
2.0
  9
$STEPSIZE
 40
6.0
  9
$3DDWFPREC
 40
2.0
  9
$PSOLWIDTH
 40
0.25
  9
$PSOLHEIGHT
 40
4.0
  9
$LOFTANG1
 40
1.570796326794896
  9
$LOFTANG2
 40
1.570796326794896
  9
$LOFTMAG1
 40
0.0
  9
$LOFTMAG2
 40
0.0
  9
$LOFTPARAM
 70
     7
  9
$LOFTNORMALS
280
     1
  9
$LATITUDE
 40
37.795
  9
$LONGITUDE
 40
-122.394
  9
$NORTHDIRECTION
 40
0.0
  9
$TIMEZONE
 70
 -8000
  9
$LIGHTGLYPHDISPLAY
280
     1
  9
$TILEMODELIGHTSYNCH
280
     1
  9
$CMATERIAL
347
10003
  9
$SOLIDHIST
280
     0
  9
$SHOWHIST
280
     1
  9
$DWFFRAME
280
     2
  9
$DGNFRAME
280
     0
  9
$REALWORLDSCALE
290
     1
  9
$INTERFERECOLOR
 62
     1
  9
$INTERFEREOBJVS
345
10025
  9
$INTERFEREVPVS
346
10022
  9
$CSHADOW
280
     0
  9
$SHADOWPLANELOCATION
 40
0.0
  0
ENDSEC
  0
SECTION
  2
CLASSES
  0
CLASS
  1
ACDBDICTIONARYWDFLT
  2
AcDbDictionaryWithDefault
  3
ObjectDBX Classes
 90
        0
 91
        1
280
     0
281
     0
  0
CLASS
  1
DICTIONARYVAR
  2
AcDbDictionaryVar
  3
ObjectDBX Classes
 90
        0
 91
       13
280
     0
281
     0
  0
CLASS
  1
MATERIAL
  2
AcDbMaterial
  3
ObjectDBX Classes
 90
     1153
 91
        3
280
     0
281
     0
  0
CLASS
  1
VISUALSTYLE
  2
AcDbVisualStyle
  3
ObjectDBX Classes
 90
     4095
 91
       24
280
     0
281
     0
  0
CLASS
  1
TABLESTYLE
  2
AcDbTableStyle
  3
ObjectDBX Classes
 90
     4095
 91
        1
280
     0
281
     0
  0
CLASS
  1
SCALE
  2
AcDbScale
  3
ObjectDBX Classes
 90
     1153
 91
       17
280
     0
281
     0
  0
CLASS
  1
MLEADERSTYLE
  2
AcDbMLeaderStyle
  3
ACDB_MLEADERSTYLE_CLASS
 90
     4095
 91
        1
280
     0
281
     0
  0
CLASS
  1
ACDBSECTIONVIEWSTYLE
  2
AcDbSectionViewStyle
  3
ObjectDBX Classes
 90
     1025
 91
        1
280
     0
281
     0
  0
CLASS
  1
ACDBDETAILVIEWSTYLE
  2
AcDbDetailViewStyle
  3
ObjectDBX Classes
 90
     1025
 91
        1
280
     0
281
     0
  0
CLASS
  1
CELLSTYLEMAP
  2
AcDbCellStyleMap
  3
ObjectDBX Classes
 90
     1152
 91
        1
280
     0
281
     0
  0
ENDSEC
  0
SECTION
  2
TABLES
  0
TABLE
  2
VPORT
  5
8
102
{ACAD_XDICTIONARY
360
100FC
102
}
330
0
100
AcDbSymbolTable
 70
     1
1001
ACAD
1000
DbSaveVer
1071
        5
  0
VPORT
  5
30
330
8
100
AcDbSymbolTableRecord
100
AcDbViewportTableRecord
  2
*Active
 70
     0
 10
0.0
 20
0.0
 11
1.0
 21
1.0
 12
153.8494164510297
 22
216.7093463737935
 13
0.0
 23
0.0
 14
0.0
 24
0.0
 15
10.0
 25
10.0
 16
0.0
 26
0.0
 36
1.0
 17
0.0
 27
0.0
 37
0.0
 40
376.1892572335702
 41
2.283154121863799
 42
50.0
 43
0.0
 44
0.0
 50
0.0
 51
0.0
 71
     0
 72
   100
 73
     1
 74
     3
 75
     1
 76
     1
 77
     0
 78
     0
281
     0
 65
     1
110
0.0
120
0.0
130
0.0
111
1.0
121
0.0
131
0.0
112
0.0
122
1.0
132
0.0
 79
     0
146
0.0
348
10021
 60
     3
 61
     5
292
     1
282
     1
141
0.0
142
0.0
 63
   250
421
  3355443
1001
ACAD_NAV_VCDISPLAY
1070
     3
  0
ENDTAB
  0
TABLE
  2
LTYPE
  5
5
330
0
100
AcDbSymbolTable
 70
    23
  0
LTYPE
  5
14
330
5
100
AcDbSymbolTableRecord
100
AcDbLinetypeTableRecord
  2
BYBLOCK
 70
     0
  3

 72
    65
 73
     0
 40
0.0
  0
LTYPE
  5
15
330
5
100
AcDbSymbolTableRecord
100
AcDbLinetypeTableRecord
  2
BYLAYER
 70
     0
  3

 72
    65
 73
     0
 40
0.0
  0
LTYPE
  5
16
330
5
100
AcDbSymbolTableRecord
100
AcDbLinetypeTableRecord
  2
CONTINUOUS
 70
     0
  3
Solid line
 72
    65
 73
     0
 40
0.0
  0
LTYPE
  5
31
330
5
100
AcDbSymbolTableRecord
100
AcDbLinetypeTableRecord
  2
ACAD_ISO02W100
 70
     0
  3
ISO Dashed __ __ __ __ __ __ __ __ __ __ _
 72
    65
 73
     2
 40
15.0
 49
12.0
 74
     0
 49
-3.0
 74
     0
  0
LTYPE
  5
32
330
5
100
AcDbSymbolTableRecord
100
AcDbLinetypeTableRecord
  2
ACAD_ISO03W100
 70
     0
  3
ISO Dashed with Distance __    __    __    _
 72
    65
 73
     2
 40
30.0
 49
12.0
 74
     0
 49
-18.0
 74
     0
  0
LTYPE
  5
33
330
5
100
AcDbSymbolTableRecord
100
AcDbLinetypeTableRecord
  2
ACAD_ISO04W100
 70
     0
  3
ISO Long Dashed Dotted ____ . ____ . __
 72
    65
 73
     4
 40
30.0
 49
24.0
 74
     0
 49
-3.0
 74
     0
 49
0.0
 74
     0
 49
-3.0
 74
     0
  0
LTYPE
  5
34
330
5
100
AcDbSymbolTableRecord
100
AcDbLinetypeTableRecord
  2
ACAD_ISO05W100
 70
     0
  3
ISO Long Dashed Double Dotted ____ .. __
 72
    65
 73
     6
 40
33.0
 49
24.0
 74
     0
 49
-3.0
 74
     0
 49
0.0
 74
     0
 49
-3.0
 74
     0
 49
0.0
 74
     0
 49
-3.0
 74
     0
  0
LTYPE
  5
35
330
5
100
AcDbSymbolTableRecord
100
AcDbLinetypeTableRecord
  2
BORDER
 70
     0
  3
Border __ __ . __ __ . __ __ . __ __ . __ __ .
 72
    65
 73
     6
 40
44.45
 49
12.7
 74
     0
 49
-6.349999999999998
 74
     0
 49
12.7
 74
     0
 49
-6.349999999999998
 74
     0
 49
0.0
 74
     0
 49
-6.349999999999998
 74
     0
  0
LTYPE
  5
36
330
5
100
AcDbSymbolTableRecord
100
AcDbLinetypeTableRecord
  2
BORDER2
 70
     0
  3
Border (.5x) __.__.__.__.__.__.__.__.__.__.__.
 72
    65
 73
     6
 40
22.225
 49
6.349999999999998
 74
     0
 49
-3.174999999999998
 74
     0
 49
6.349999999999998
 74
     0
 49
-3.174999999999998
 74
     0
 49
0.0
 74
     0
 49
-3.174999999999998
 74
     0
  0
LTYPE
  5
37
330
5
100
AcDbSymbolTableRecord
100
AcDbLinetypeTableRecord
  2
BORDERX2
 70
     0
  3
Border (2x) ____  ____  .  ____  ____  .  ___
 72
    65
 73
     6
 40
88.9
 49
25.4
 74
     0
 49
-12.7
 74
     0
 49
25.4
 74
     0
 49
-12.7
 74
     0
 49
0.0
 74
     0
 49
-12.7
 74
     0
  0
LTYPE
  5
38
330
5
100
AcDbSymbolTableRecord
100
AcDbLinetypeTableRecord
  2
CENTER
 70
     0
  3
Center ____ _ ____ _ ____ _ ____ _ ____ _ ____
 72
    65
 73
     4
 40
50.8
 49
31.75
 74
     0
 49
-6.349999999999998
 74
     0
 49
6.349999999999998
 74
     0
 49
-6.349999999999998
 74
     0
  0
LTYPE
  5
39
330
5
100
AcDbSymbolTableRecord
100
AcDbLinetypeTableRecord
  2
CENTER2
 70
     0
  3
Center (.5x) ___ _ ___ _ ___ _ ___ _ ___ _ ___
 72
    65
 73
     4
 40
28.575
 49
19.05
 74
     0
 49
-3.174999999999998
 74
     0
 49
3.174999999999998
 74
     0
 49
-3.174999999999998
 74
     0
  0
LTYPE
  5
3A
330
5
100
AcDbSymbolTableRecord
100
AcDbLinetypeTableRecord
  2
CENTERX2
 70
     0
  3
Center (2x) ________  __  ________  __  _____
 72
    65
 73
     4
 40
101.6
 49
63.5
 74
     0
 49
-12.7
 74
     0
 49
12.7
 74
     0
 49
-12.7
 74
     0
  0
LTYPE
  5
3B
330
5
100
AcDbSymbolTableRecord
100
AcDbLinetypeTableRecord
  2
DASHDOT
 70
     0
  3
Dash dot __ . __ . __ . __ . __ . __ . __ . __
 72
    65
 73
     4
 40
25.4
 49
12.7
 74
     0
 49
-6.349999999999998
 74
     0
 49
0.0
 74
     0
 49
-6.349999999999998
 74
     0
  0
LTYPE
  5
3C
330
5
100
AcDbSymbolTableRecord
100
AcDbLinetypeTableRecord
  2
DASHDOT2
 70
     0
  3
Dash dot (.5x) _._._._._._._._._._._._._._._.
 72
    65
 73
     4
 40
12.7
 49
6.349999999999998
 74
     0
 49
-3.174999999999998
 74
     0
 49
0.0
 74
     0
 49
-3.174999999999998
 74
     0
  0
LTYPE
  5
3D
330
5
100
AcDbSymbolTableRecord
100
AcDbLinetypeTableRecord
  2
DASHDOTX2
 70
     0
  3
Dash dot (2x) ____  .  ____  .  ____  .  ___
 72
    65
 73
     4
 40
50.8
 49
25.4
 74
     0
 49
-12.7
 74
     0
 49
0.0
 74
     0
 49
-12.7
 74
     0
  0
LTYPE
  5
3E
330
5
100
AcDbSymbolTableRecord
100
AcDbLinetypeTableRecord
  2
DASHED
 70
     0
  3
Dashed __ __ __ __ __ __ __ __ __ __ __ __ __ _
 72
    65
 73
     2
 40
19.05
 49
12.7
 74
     0
 49
-6.349999999999998
 74
     0
  0
LTYPE
  5
3F
330
5
100
AcDbSymbolTableRecord
100
AcDbLinetypeTableRecord
  2
DASHED2
 70
     0
  3
Dashed (.5x) _ _ _ _ _ _ _ _ _ _ _ _ _ _ _ _ _
 72
    65
 73
     2
 40
9.525
 49
6.349999999999998
 74
     0
 49
-3.174999999999998
 74
     0
  0
LTYPE
  5
40
330
5
100
AcDbSymbolTableRecord
100
AcDbLinetypeTableRecord
  2
DASHEDX2
 70
     0
  3
Dashed (2x) ____  ____  ____  ____  ____  ___
 72
    65
 73
     2
 40
38.1
 49
25.4
 74
     0
 49
-12.7
 74
     0
  0
LTYPE
  5
41
330
5
100
AcDbSymbolTableRecord
100
AcDbLinetypeTableRecord
  2
DIVIDE
 70
     0
  3
Divide ____ . . ____ . . ____ . . ____ . . ____
 72
    65
 73
     6
 40
31.75
 49
12.7
 74
     0
 49
-6.349999999999998
 74
     0
 49
0.0
 74
     0
 49
-6.349999999999998
 74
     0
 49
0.0
 74
     0
 49
-6.349999999999998
 74
     0
  0
LTYPE
  5
42
330
5
100
AcDbSymbolTableRecord
100
AcDbLinetypeTableRecord
  2
DIVIDE2
 70
     0
  3
Divide (.5x) __..__..__..__..__..__..__..__.._
 72
    65
 73
     6
 40
15.875
 49
6.349999999999998
 74
     0
 49
-3.174999999999998
 74
     0
 49
0.0
 74
     0
 49
-3.174999999999998
 74
     0
 49
0.0
 74
     0
 49
-3.174999999999998
 74
     0
  0
LTYPE
  5
43
330
5
100
AcDbSymbolTableRecord
100
AcDbLinetypeTableRecord
  2
DIVIDEX2
 70
     0
  3
Divide (2x) ________  .  .  ________  .  .  _
 72
    65
 73
     6
 40
63.5
 49
25.4
 74
     0
 49
-12.7
 74
     0
 49
0.0
 74
     0
 49
-12.7
 74
     0
 49
0.0
 74
     0
 49
-12.7
 74
     0
  0
LTYPE
  5
44
330
5
100
AcDbSymbolTableRecord
100
AcDbLinetypeTableRecord
  2
DOT
 70
     0
  3
Dot . . . . . . . . . . . . . . . . . . . . . .
 72
    65
 73
     2
 40
6.349999999999998
 49
0.0
 74
     0
 49
-6.349999999999998
 74
     0
  0
LTYPE
  5
45
330
5
100
AcDbSymbolTableRecord
100
AcDbLinetypeTableRecord
  2
DOT2
 70
     0
  3
Dot (.5x) .....................................
 72
    65
 73
     2
 40
3.174999999999998
 49
0.0
 74
     0
 49
-3.174999999999998
 74
     0
  0
LTYPE
  5
46
330
5
100
AcDbSymbolTableRecord
100
AcDbLinetypeTableRecord
  2
DOTX2
 70
     0
  3
Dot (2x) .  .  .  .  .  .  .  .  .  .  .  .  .
 72
    65
 73
     2
 40
12.7
 49
0.0
 74
     0
 49
-12.7
 74
     0
  0
ENDTAB
  0
TABLE
  2
LAYER
  5
2
102
{ACAD_XDICTIONARY
360
101018B
102
}
330
0
100
AcDbSymbolTable
 70
     5
  0
LAYER
  5
10
102
{ACAD_XDICTIONARY
360
10059
102
}
330
2
100
AcDbSymbolTableRecord
100
AcDbLayerTableRecord
  2
0
 70
     0
 62
   250
  6
CONTINUOUS
370
   100
390
F
347
10013
348
0
  0
LAYER
  5
47
102
{ACAD_XDICTIONARY
360
1005B
102
}
330
2
100
AcDbSymbolTableRecord
100
AcDbLayerTableRecord
  2
H
 70
     0
 62
     7
  6
CONTINUOUS
370
   100
390
F
347
10013
348
0
  0
LAYER
  5
48
102
{ACAD_XDICTIONARY
360
1005D
102
}
330
2
100
AcDbSymbolTableRecord
100
AcDbLayerTableRecord
  2
P
 70
     0
 62
   250
  6
CONTINUOUS
370
   100
390
F
347
10013
348
0
  0
LAYER
  5
49
102
{ACAD_XDICTIONARY
360
1005F
102
}
330
2
100
AcDbSymbolTableRecord
100
AcDbLayerTableRecord
  2
Text
 70
     0
 62
   250
  6
CONTINUOUS
370
   100
390
F
347
10013
348
0
  0
LAYER
  5
4A
102
{ACAD_XDICTIONARY
360
10061
102
}
330
2
100
AcDbSymbolTableRecord
100
AcDbLayerTableRecord
  2
Images
 70
     0
 62
   250
  6
CONTINUOUS
370
   100
390
F
347
10013
348
0
  0
ENDTAB
  0
TABLE
  2
STYLE
  5
3
330
0
100
AcDbSymbolTable
 70
     2
  0
STYLE
  5
11
330
3
100
AcDbSymbolTableRecord
100
AcDbTextStyleTableRecord
  2
Standard
 70
     0
 40
0.0
 41
0.75
 50
0.0
 71
     0
 42
2.5
  3
txt
  4

  0
STYLE
  5
10001
330
3
100
AcDbSymbolTableRecord
100
AcDbTextStyleTableRecord
  2
Roman
 70
     0
 40
0.0
 41
1.0
 50
0.0
 71
     0
 42
0.2
  3

  4

  0
ENDTAB
  0
TABLE
  2
VIEW
  5
6
330
0
100
AcDbSymbolTable
 70
     0
  0
ENDTAB
  0
TABLE
  2
UCS
  5
7
330
0
100
AcDbSymbolTable
 70
     0
  0
ENDTAB
  0
TABLE
  2
APPID
  5
9
330
0
100
AcDbSymbolTable
 70
     4
  0
APPID
  5
12
330
9
100
AcDbSymbolTableRecord
100
AcDbRegAppTableRecord
  2
ACAD
 70
     0
  0
APPID
  5
10052
330
9
100
AcDbSymbolTableRecord
100
AcDbRegAppTableRecord
  2
ACAD_EXEMPT_FROM_CAD_STANDARDS
 70
     0
  0
APPID
  5
1006B
330
9
100
AcDbSymbolTableRecord
100
AcDbRegAppTableRecord
  2
ACAD_NAV_VCDISPLAY
 70
     0
  0
APPID
  5
100AA
330
9
100
AcDbSymbolTableRecord
100
AcDbRegAppTableRecord
  2
ACAD_MLEADERVER
 70
     0
  0
ENDTAB
  0
TABLE
  2
DIMSTYLE
  5
A
330
0
100
AcDbSymbolTable
 70
     1
100
AcDbDimStyleTable
 71
     1
340
27
  0
DIMSTYLE
105
27
330
A
100
AcDbSymbolTableRecord
100
AcDbDimStyleTableRecord
  2
Standard
 70
     0
 41
1.0
 42
1.0
 43
3.75
 44
1.0
 73
     0
 74
     0
 77
     1
 78
     8
140
1.0
141
2.5
143
0.03937007874016
147
1.0
171
     3
172
     1
271
     2
272
     2
274
     3
278
    44
283
     0
284
     8
340
11
  0
ENDTAB
  0
TABLE
  2
BLOCK_RECORD
  5
1
330
0
100
AcDbSymbolTable
 70
     1
  0
BLOCK_RECORD
  5
1F
330
1
100
AcDbSymbolTableRecord
100
AcDbBlockTableRecord
  2
*Model_Space
340
22
 70
     0
280
     1
281
     0
  0
BLOCK_RECORD
  5
1B
330
1
100
AcDbSymbolTableRecord
100
AcDbBlockTableRecord
  2
*Paper_Space
340
1E
 70
     0
280
     1
281
     0
  0
BLOCK_RECORD
  5
23
330
1
100
AcDbSymbolTableRecord
100
AcDbBlockTableRecord
  2
*Paper_Space0
340
26
 70
     0
280
     1
281
     0
  0
ENDTAB
  0
ENDSEC
  0
SECTION
  2
BLOCKS
  0
BLOCK
  5
20
330
1F
100
AcDbEntity
  8
0
100
AcDbBlockBegin
  2
*Model_Space
 70
     0
 10
0.0
 20
0.0
 30
0.0
  3
*Model_Space
  1

  0
ENDBLK
  5
21
330
1F
100
AcDbEntity
  8
0
100
AcDbBlockEnd
  0
BLOCK
  5
1C
330
1B
100
AcDbEntity
 67
     1
  8
0
100
AcDbBlockBegin
  2
*Paper_Space
 70
     0
 10
0.0
 20
0.0
 30
0.0
  3
*Paper_Space
  1

  0
ENDBLK
  5
1D
330
1B
100
AcDbEntity
 67
     1
  8
0
100
AcDbBlockEnd
  0
BLOCK
  5
24
330
23
100
AcDbEntity
 67
     1
  8
0
100
AcDbBlockBegin
  2
*Paper_Space0
 70
     0
 10
0.0
 20
0.0
 30
0.0
  3
*Paper_Space0
  1

  0
ENDBLK
  5
25
330
23
100
AcDbEntity
 67
     1
  8
0
100
AcDbBlockEnd
  0
ENDSEC
  0
SECTION
  2
ENTITIES
  0
MTEXT
  5
52
330
1F
100
AcDbEntity
  8
Text
  6
Continuous
 62
     0
100
AcDbMText
 10
170.5
 20
36.58333333333331
 30
0.0
 40
3.25
 41
3.5
 46
0.0
 71
     4
 72
     5
  1
{\fHelveticaNeueLTPro|b0|i0|c1|p15; }
 73
     2
 44
1.0
  0
MTEXT
  5
64
330
1F
100
AcDbEntity
  8
Text
  6
Continuous
 62
     0
100
AcDbMText
 10
55.16666666666665
 20
52.16666666666668
 30
0.0
 40
3.0
 41
3.25
 46
0.0
 71
     4
 72
     5
  1
{\fHelveticaNeueLTPro|b0|i0|c1|p15; }
 73
     2
 44
1.0
  0
MTEXT
  5
6A
330
1F
100
AcDbEntity
  8
Text
  6
Continuous
 62
     0
100
AcDbMText
 10
65.33333333333333
 20
52.16666666666668
 30
0.0
 40
3.0
 41
3.25
 46
0.0
 71
     4
 72
     5
  1
{\fHelveticaNeueLTPro|b0|i0|c1|p15; }
 73
     2
 44
1.0
  0
MTEXT
  5
6E
330
1F
100
AcDbEntity
  8
Text
  6
Continuous
 62
     0
100
AcDbMText
 10
71.08333333333333
 20
52.16666666666668
 30
0.0
 40
3.0
 41
3.25
 46
0.0
 71
     4
 72
     5
  1
{\fHelveticaNeueLTPro|b0|i0|c1|p15; }
 73
     2
 44
1.0
  0
MTEXT
  5
7B
330
1F
100
AcDbEntity
  8
Text
  6
Continuous
 62
     0
100
AcDbMText
 10
93.16666666666668
 20
52.16666666666668
 30
0.0
 40
3.0
 41
3.25
 46
0.0
 71
     4
 72
     5
  1
{\fHelveticaNeueLTPro|b0|i0|c1|p15; }
 73
     2
 44
1.0
  0
MTEXT
  5
85
330
1F
100
AcDbEntity
  8
Text
  6
Continuous
 62
     0
100
AcDbMText
 10
108.75
 20
52.16666666666668
 30
0.0
 40
3.0
 41
3.25
 46
0.0
 71
     4
 72
     5
  1
{\fHelveticaNeueLTPro|b0|i0|c1|p15; }
 73
     2
 44
1.0
  0
MTEXT
  5
89
330
1F
100
AcDbEntity
  8
Text
  6
Continuous
 62
     0
100
AcDbMText
 10
115.3333333333333
 20
52.16666666666668
 30
0.0
 40
3.0
 41
3.25
 46
0.0
 71
     4
 72
     5
  1
{\fHelveticaNeueLTPro|b0|i0|c1|p15; }
 73
     2
 44
1.0
  0
MTEXT
  5
92
330
1F
100
AcDbEntity
  8
Text
  6
Continuous
 62
     0
100
AcDbMText
 10
128.9166666666666
 20
52.16666666666668
 30
0.0
 40
3.0
 41
3.25
 46
0.0
 71
     4
 72
     5
  1
{\fHelveticaNeueLTPro|b0|i0|c1|p15; }
 73
     2
 44
1.0
  0
MTEXT
  5
98
330
1F
100
AcDbEntity
  8
Text
  6
Continuous
 62
     0
100
AcDbMText
 10
137.75
 20
52.16666666666668
 30
0.0
 40
3.0
 41
3.25
 46
0.0
 71
     4
 72
     5
  1
{\fHelveticaNeueLTPro|b0|i0|c1|p15; }
 73
     2
 44
1.0
  0
MTEXT
  5
E3
330
1F
100
AcDbEntity
  8
Text
  6
Continuous
 62
     7
100
AcDbMText
 10
66.16666666666667
 20
36.41666666666669
 30
0.0
 40
3.75
 41
4.0
 46
0.0
 71
     4
 72
     5
  1
{\fHelveticaNeueLTPro|b0|i0|c1|p15; }
 73
     2
 44
1.0
  0
MTEXT
  5
E7
330
1F
100
AcDbEntity
  8
Text
  6
Continuous
 62
     7
100
AcDbMText
 10
74.33333333333333
 20
36.41666666666669
 30
0.0
 40
3.75
 41
4.0
 46
0.0
 71
     4
 72
     5
  1
{\fHelveticaNeueLTPro|b0|i0|c1|p15; }
 73
     2
 44
1.0
  0
MTEXT
  5
EB
330
1F
100
AcDbEntity
  8
Text
  6
Continuous
 62
     7
100
AcDbMText
 10
82.33333333333332
 20
36.41666666666669
 30
0.0
 40
3.75
 41
4.0
 46
0.0
 71
     4
 72
     5
  1
{\fHelveticaNeueLTPro|b0|i0|c1|p15; }
 73
     2
 44
1.0
  0
MTEXT
  5
F9
330
1F
100
AcDbEntity
  8
Text
  6
Continuous
 62
     0
100
AcDbMText
 10
273.25
 20
389.1666666666666
 30
0.0
 40
3.75
 41
4.0
 46
0.0
 71
     4
 72
     5
  1
{\fHelveticaNeueLTPro|b0|i0|c1|p15; }
 73
     2
 44
1.0
  0
MTEXT
  5
FA
330
1F
100
AcDbEntity
  8
Text
  6
Continuous
 62
     0
100
AcDbMText
 10
177.1666666666666
 20
389.4166666666666
 30
0.0
 40
3.75
 41
4.0
 46
0.0
 71
     4
 72
     5
  1
{\fHelveticaNeueLTPro|b0|i0|c1|p15; }
 73
     2
 44
1.0
  0
MTEXT
  5
10112F0
330
1F
100
AcDbEntity
  8
Text
  6
Continuous
 62
     0
370
     0
100
AcDbMText
 10
27.76608311769633
 20
370.8592552710655
 30
0.0
 40
7.75
 41
144.0
 46
0.0
 71
     4
 72
     5
  1
{\fHelveticaNeueLTPro|b0|i0|c1|p15;Detailskizze 1.201}
 73
     2
 44
1.0
  0
MTEXT
  5
10112F1
330
1F
100
AcDbEntity
  8
Text
  6
Continuous
 62
     0
370
     0
100
AcDbMText
 10
27.76608311769633
 20
361.8592552710655
 30
0.0
 40
7.75
 41
160.0
 46
0.0
 71
     4
 72
     5
  1
{\fStandardCTStencil|b1|i0|c1|p15;Boden-Wand-Anschluss}
 73
     2
 44
1.0
  0
MTEXT
  5
10112F2
330
1F
100
AcDbEntity
  8
Text
  6
Continuous
 62
     0
370
     0
100
AcDbMText
 10
27.84941645102966
 20
52.19258860439885
 30
0.0
 40
3.0
 41
3.25
 46
0.0
 71
     4
 72
     5
  1
{\fHelveticaNeueLTPro|b0|i0|c1|p15;D}
 73
     2
 44
1.0
  0
MTEXT
  5
10112F3
330
1F
100
AcDbEntity
  8
Text
  6
Continuous
 62
     0
370
     0
100
AcDbMText
 10
30.18274978436299
 20
52.19258860439885
 30
0.0
 40
3.0
 41
3.25
 46
0.0
 71
     4
 72
     5
  1
{\fHelveticaNeueLTPro|b0|i0|c1|p15;e}
 73
     2
 44
1.0
  0
MTEXT
  5
10112F4
330
1F
100
AcDbEntity
  8
Text
  6
Continuous
 62
     0
370
     0
100
AcDbMText
 10
31.932749784363
 20
52.19258860439885
 30
0.0
 40
3.0
 41
3.25
 46
0.0
 71
     4
 72
     5
  1
{\fHelveticaNeueLTPro|b0|i0|c1|p15;t}
 73
     2
 44
1.0
  0
MTEXT
  5
10112F5
330
1F
100
AcDbEntity
  8
Text
  6
Continuous
 62
     0
370
     0
100
AcDbMText
 10
33.01608311769633
 20
52.19258860439885
 30
0.0
 40
3.0
 41
3.25
 46
0.0
 71
     4
 72
     5
  1
{\fHelveticaNeueLTPro|b0|i0|c1|p15;a}
 73
     2
 44
1.0
  0
MTEXT
  5
10112F6
330
1F
100
AcDbEntity
  8
Text
  6
Continuous
 62
     0
370
     0
100
AcDbMText
 10
34.84941645102966
 20
52.19258860439885
 30
0.0
 40
3.0
 41
3.25
 46
0.0
 71
     4
 72
     5
  1
{\fHelveticaNeueLTPro|b0|i0|c1|p15;i}
 73
     2
 44
1.0
  0
MTEXT
  5
10112F7
330
1F
100
AcDbEntity
  8
Text
  6
Continuous
 62
     0
370
     0
100
AcDbMText
 10
35.59941645102966
 20
52.19258860439885
 30
0.0
 40
3.0
 41
3.25
 46
0.0
 71
     4
 72
     5
  1
{\fHelveticaNeueLTPro|b0|i0|c1|p15;l}
 73
     2
 44
1.0
  0
MTEXT
  5
10112F8
330
1F
100
AcDbEntity
  8
Text
  6
Continuous
 62
     0
370
     0
100
AcDbMText
 10
36.34941645102966
 20
52.19258860439885
 30
0.0
 40
3.0
 41
3.25
 46
0.0
 71
     4
 72
     5
  1
{\fHelveticaNeueLTPro|b0|i0|c1|p15;z}
 73
     2
 44
1.0
  0
MTEXT
  5
10112F9
330
1F
100
AcDbEntity
  8
Text
  6
Continuous
 62
     0
370
     0
100
AcDbMText
 10
37.93274978436299
 20
52.19258860439885
 30
0.0
 40
3.0
 41
3.25
 46
0.0
 71
     4
 72
     5
  1
{\fHelveticaNeueLTPro|b0|i0|c1|p15;e}
 73
     2
 44
1.0
  0
MTEXT
  5
10112FA
330
1F
100
AcDbEntity
  8
Text
  6
Continuous
 62
     0
370
     0
100
AcDbMText
 10
39.68274978436299
 20
52.19258860439885
 30
0.0
 40
3.0
 41
3.25
 46
0.0
 71
     4
 72
     5
  1
{\fHelveticaNeueLTPro|b0|i0|c1|p15;i}
 73
     2
 44
1.0
  0
MTEXT
  5
10112FB
330
1F
100
AcDbEntity
  8
Text
  6
Continuous
 62
     0
370
     0
100
AcDbMText
 10
40.51608311769633
 20
52.19258860439885
 30
0.0
 40
3.0
 41
3.25
 46
0.0
 71
     4
 72
     5
  1
{\fHelveticaNeueLTPro|b0|i0|c1|p15;c}
 73
     2
 44
1.0
  0
MTEXT
  5
10112FC
330
1F
100
AcDbEntity
  8
Text
  6
Continuous
 62
     0
370
     0
100
AcDbMText
 10
42.26608311769632
 20
52.19258860439885
 30
0.0
 40
3.0
 41
3.25
 46
0.0
 71
     4
 72
     5
  1
{\fHelveticaNeueLTPro|b0|i0|c1|p15;h}
 73
     2
 44
1.0
  0
MTEXT
  5
10112FD
330
1F
100
AcDbEntity
  8
Text
  6
Continuous
 62
     0
370
     0
100
AcDbMText
 10
44.09941645102966
 20
52.19258860439885
 30
0.0
 40
3.0
 41
3.25
 46
0.0
 71
     4
 72
     5
  1
{\fHelveticaNeueLTPro|b0|i0|c1|p15;n}
 73
     2
 44
1.0
  0
MTEXT
  5
10112FE
330
1F
100
AcDbEntity
  8
Text
  6
Continuous
 62
     0
370
     0
100
AcDbMText
 10
45.93274978436299
 20
52.19258860439885
 30
0.0
 40
3.0
 41
3.25
 46
0.0
 71
     4
 72
     5
  1
{\fHelveticaNeueLTPro|b0|i0|c1|p15;u}
 73
     2
 44
1.0
  0
MTEXT
  5
10112FF
330
1F
100
AcDbEntity
  8
Text
  6
Continuous
 62
     0
370
     0
100
AcDbMText
 10
47.76608311769632
 20
52.19258860439885
 30
0.0
 40
3.0
 41
3.25
 46
0.0
 71
     4
 72
     5
  1
{\fHelveticaNeueLTPro|b0|i0|c1|p15;n}
 73
     2
 44
1.0
  0
MTEXT
  5
1011300
330
1F
100
AcDbEntity
  8
Text
  6
Continuous
 62
     0
370
     0
100
AcDbMText
 10
49.68274978436299
 20
52.19258860439885
 30
0.0
 40
3.0
 41
3.25
 46
0.0
 71
     4
 72
     5
  1
{\fHelveticaNeueLTPro|b0|i0|c1|p15;g}
 73
     2
 44
1.0
  0
MTEXT
  5
1011301
330
1F
100
AcDbEntity
  8
Text
  6
Continuous
 62
     0
370
     0
100
AcDbMText
 10
51.51608311769632
 20
52.19258860439885
 30
0.0
 40
3.0
 41
3.25
 46
0.0
 71
     4
 72
     5
  1
{\fHelveticaNeueLTPro|b0|i0|c1|p15;e}
 73
     2
 44
1.0
  0
MTEXT
  5
1011302
330
1F
100
AcDbEntity
  8
Text
  6
Continuous
 62
     0
370
     0
100
AcDbMText
 10
53.34941645102966
 20
52.19258860439885
 30
0.0
 40
3.0
 41
3.25
 46
0.0
 71
     4
 72
     5
  1
{\fHelveticaNeueLTPro|b0|i0|c1|p15;n}
 73
     2
 44
1.0
  0
MTEXT
  5
1011303
330
1F
100
AcDbEntity
  8
Text
  6
Continuous
 62
     0
370
     0
100
AcDbMText
 10
56.09941645102966
 20
52.19258860439885
 30
0.0
 40
3.0
 41
3.25
 46
0.0
 71
     4
 72
     5
  1
{\fHelveticaNeueLTPro|b0|i0|c1|p15;h}
 73
     2
 44
1.0
  0
MTEXT
  5
1011304
330
1F
100
AcDbEntity
  8
Text
  6
Continuous
 62
     0
370
     0
100
AcDbMText
 10
57.93274978436299
 20
52.19258860439885
 30
0.0
 40
3.0
 41
3.25
 46
0.0
 71
     4
 72
     5
  1
{\fHelveticaNeueLTPro|b0|i0|c1|p15;a}
 73
     2
 44
1.0
  0
MTEXT
  5
1011305
330
1F
100
AcDbEntity
  8
Text
  6
Continuous
 62
     0
370
     0
100
AcDbMText
 10
59.76608311769632
 20
52.19258860439885
 30
0.0
 40
3.0
 41
3.25
 46
0.0
 71
     4
 72
     5
  1
{\fHelveticaNeueLTPro|b0|i0|c1|p15;b}
 73
     2
 44
1.0
  0
MTEXT
  5
1011306
330
1F
100
AcDbEntity
  8
Text
  6
Continuous
 62
     0
370
     0
100
AcDbMText
 10
61.68274978436299
 20
52.19258860439885
 30
0.0
 40
3.0
 41
3.25
 46
0.0
 71
     4
 72
     5
  1
{\fHelveticaNeueLTPro|b0|i0|c1|p15;e}
 73
     2
 44
1.0
  0
MTEXT
  5
1011307
330
1F
100
AcDbEntity
  8
Text
  6
Continuous
 62
     0
370
     0
100
AcDbMText
 10
63.51608311769632
 20
52.19258860439885
 30
0.0
 40
3.0
 41
3.25
 46
0.0
 71
     4
 72
     5
  1
{\fHelveticaNeueLTPro|b0|i0|c1|p15;n}
 73
     2
 44
1.0
  0
MTEXT
  5
1011308
330
1F
100
AcDbEntity
  8
Text
  6
Continuous
 62
     0
370
     0
100
AcDbMText
 10
66.26608311769633
 20
52.19258860439885
 30
0.0
 40
3.0
 41
3.25
 46
0.0
 71
     4
 72
     5
  1
{\fHelveticaNeueLTPro|b0|i0|c1|p15;n}
 73
     2
 44
1.0
  0
MTEXT
  5
1011309
330
1F
100
AcDbEntity
  8
Text
  6
Continuous
 62
     0
370
     0
100
AcDbMText
 10
68.09941645102965
 20
52.19258860439885
 30
0.0
 40
3.0
 41
3.25
 46
0.0
 71
     4
 72
     5
  1
{\fHelveticaNeueLTPro|b0|i0|c1|p15;u}
 73
     2
 44
1.0
  0
MTEXT
  5
101130A
330
1F
100
AcDbEntity
  8
Text
  6
Continuous
 62
     0
370
     0
100
AcDbMText
 10
69.932749784363
 20
52.19258860439885
 30
0.0
 40
3.0
 41
3.25
 46
0.0
 71
     4
 72
     5
  1
{\fHelveticaNeueLTPro|b0|i0|c1|p15;r}
 73
     2
 44
1.0
  0
MTEXT
  5
101130B
330
1F
100
AcDbEntity
  8
Text
  6
Continuous
 62
     0
370
     0
100
AcDbMText
 10
72.01608311769632
 20
52.19258860439885
 30
0.0
 40
3.0
 41
3.25
 46
0.0
 71
     4
 72
     5
  1
{\fHelveticaNeueLTPro|b0|i0|c1|p15;e}
 73
     2
 44
1.0
  0
MTEXT
  5
101130C
330
1F
100
AcDbEntity
  8
Text
  6
Continuous
 62
     0
370
     0
100
AcDbMText
 10
73.84941645102966
 20
52.19258860439885
 30
0.0
 40
3.0
 41
3.25
 46
0.0
 71
     4
 72
     5
  1
{\fHelveticaNeueLTPro|b0|i0|c1|p15;m}
 73
     2
 44
1.0
  0
MTEXT
  5
101130D
330
1F
100
AcDbEntity
  8
Text
  6
Continuous
 62
     0
370
     0
100
AcDbMText
 10
76.59941645102965
 20
52.19258860439885
 30
0.0
 40
3.0
 41
3.25
 46
0.0
 71
     4
 72
     5
  1
{\fHelveticaNeueLTPro|b0|i0|c1|p15;p}
 73
     2
 44
1.0
  0
MTEXT
  5
101130E
330
1F
100
AcDbEntity
  8
Text
  6
Continuous
 62
     0
370
     0
100
AcDbMText
 10
78.59941645102965
 20
52.19258860439885
 30
0.0
 40
3.0
 41
3.25
 46
0.0
 71
     4
 72
     5
  1
{\fHelveticaNeueLTPro|b0|i0|c1|p15;f}
 73
     2
 44
1.0
  0
MTEXT
  5
101130F
330
1F
100
AcDbEntity
  8
Text
  6
Continuous
 62
     0
370
     0
100
AcDbMText
 10
79.59941645102965
 20
52.19258860439885
 30
0.0
 40
3.0
 41
3.25
 46
0.0
 71
     4
 72
     5
  1
{\fHelveticaNeueLTPro|b0|i0|c1|p15;e}
 73
     2
 44
1.0
  0
MTEXT
  5
1011310
330
1F
100
AcDbEntity
  8
Text
  6
Continuous
 62
     0
370
     0
100
AcDbMText
 10
81.34941645102966
 20
52.19258860439885
 30
0.0
 40
3.0
 41
3.25
 46
0.0
 71
     4
 72
     5
  1
{\fHelveticaNeueLTPro|b0|i0|c1|p15;h}
 73
     2
 44
1.0
  0
MTEXT
  5
1011311
330
1F
100
AcDbEntity
  8
Text
  6
Continuous
 62
     0
370
     0
100
AcDbMText
 10
83.26608311769632
 20
52.19258860439885
 30
0.0
 40
3.0
 41
3.25
 46
0.0
 71
     4
 72
     5
  1
{\fHelveticaNeueLTPro|b0|i0|c1|p15;l}
 73
     2
 44
1.0
  0
MTEXT
  5
1011312
330
1F
100
AcDbEntity
  8
Text
  6
Continuous
 62
     0
370
     0
100
AcDbMText
 10
84.01608311769633
 20
52.19258860439885
 30
0.0
 40
3.0
 41
3.25
 46
0.0
 71
     4
 72
     5
  1
{\fHelveticaNeueLTPro|b0|i0|c1|p15;e}
 73
     2
 44
1.0
  0
MTEXT
  5
1011313
330
1F
100
AcDbEntity
  8
Text
  6
Continuous
 62
     0
370
     0
100
AcDbMText
 10
85.76608311769632
 20
52.19258860439885
 30
0.0
 40
3.0
 41
3.25
 46
0.0
 71
     4
 72
     5
  1
{\fHelveticaNeueLTPro|b0|i0|c1|p15;n}
 73
     2
 44
1.0
  0
MTEXT
  5
1011314
330
1F
100
AcDbEntity
  8
Text
  6
Continuous
 62
     0
370
     0
100
AcDbMText
 10
87.59941645102966
 20
52.19258860439885
 30
0.0
 40
3.0
 41
3.25
 46
0.0
 71
     4
 72
     5
  1
{\fHelveticaNeueLTPro|b0|i0|c1|p15;d}
 73
     2
 44
1.0
  0
MTEXT
  5
1011315
330
1F
100
AcDbEntity
  8
Text
  6
Continuous
 62
     0
370
     0
100
AcDbMText
 10
89.59941645102965
 20
52.19258860439885
 30
0.0
 40
3.0
 41
3.25
 46
0.0
 71
     4
 72
     5
  1
{\fHelveticaNeueLTPro|b0|i0|c1|p15;e}
 73
     2
 44
1.0
  0
MTEXT
  5
1011316
330
1F
100
AcDbEntity
  8
Text
  6
Continuous
 62
     0
370
     0
100
AcDbMText
 10
91.34941645102966
 20
52.19258860439885
 30
0.0
 40
3.0
 41
3.25
 46
0.0
 71
     4
 72
     5
  1
{\fHelveticaNeueLTPro|b0|i0|c1|p15;n}
 73
     2
 44
1.0
  0
MTEXT
  5
1011317
330
1F
100
AcDbEntity
  8
Text
  6
Continuous
 62
     0
370
     0
100
AcDbMText
 10
94.18274978436299
 20
52.19258860439885
 30
0.0
 40
3.0
 41
3.25
 46
0.0
 71
     4
 72
     5
  1
{\fHelveticaNeueLTPro|b0|i0|c1|p15;C}
 73
     2
 44
1.0
  0
MTEXT
  5
1011318
330
1F
100
AcDbEntity
  8
Text
  6
Continuous
 62
     0
370
     0
100
AcDbMText
 10
96.51608311769633
 20
52.19258860439885
 30
0.0
 40
3.0
 41
3.25
 46
0.0
 71
     4
 72
     5
  1
{\fHelveticaNeueLTPro|b0|i0|c1|p15;h}
 73
     2
 44
1.0
  0
MTEXT
  5
1011319
330
1F
100
AcDbEntity
  8
Text
  6
Continuous
 62
     0
370
     0
100
AcDbMText
 10
98.34941645102965
 20
52.19258860439885
 30
0.0
 40
3.0
 41
3.25
 46
0.0
 71
     4
 72
     5
  1
{\fHelveticaNeueLTPro|b0|i0|c1|p15;a}
 73
     2
 44
1.0
  0
MTEXT
  5
101131A
330
1F
100
AcDbEntity
  8
Text
  6
Continuous
 62
     0
370
     0
100
AcDbMText
 10
100.182749784363
 20
52.19258860439885
 30
0.0
 40
3.0
 41
3.25
 46
0.0
 71
     4
 72
     5
  1
{\fHelveticaNeueLTPro|b0|i0|c1|p15;r}
 73
     2
 44
1.0
  0
MTEXT
  5
101131B
330
1F
100
AcDbEntity
  8
Text
  6
Continuous
 62
     0
370
     0
100
AcDbMText
 10
101.2660831176963
 20
52.19258860439885
 30
0.0
 40
3.0
 41
3.25
 46
0.0
 71
     4
 72
     5
  1
{\fHelveticaNeueLTPro|b0|i0|c1|p15;a}
 73
     2
 44
1.0
  0
MTEXT
  5
101131C
330
1F
100
AcDbEntity
  8
Text
  6
Continuous
 62
     0
370
     0
100
AcDbMText
 10
103.0994164510296
 20
52.19258860439885
 30
0.0
 40
3.0
 41
3.25
 46
0.0
 71
     4
 72
     5
  1
{\fHelveticaNeueLTPro|b0|i0|c1|p15;k}
 73
     2
 44
1.0
  0
MTEXT
  5
101131D
330
1F
100
AcDbEntity
  8
Text
  6
Continuous
 62
     0
370
     0
100
AcDbMText
 10
104.7660831176963
 20
52.19258860439885
 30
0.0
 40
3.0
 41
3.25
 46
0.0
 71
     4
 72
     5
  1
{\fHelveticaNeueLTPro|b0|i0|c1|p15;t}
 73
     2
 44
1.0
  0
MTEXT
  5
101131E
330
1F
100
AcDbEntity
  8
Text
  6
Continuous
 62
     0
370
     0
100
AcDbMText
 10
105.8494164510296
 20
52.19258860439885
 30
0.0
 40
3.0
 41
3.25
 46
0.0
 71
     4
 72
     5
  1
{\fHelveticaNeueLTPro|b0|i0|c1|p15;e}
 73
     2
 44
1.0
  0
MTEXT
  5
101131F
330
1F
100
AcDbEntity
  8
Text
  6
Continuous
 62
     0
370
     0
100
AcDbMText
 10
107.5994164510296
 20
52.19258860439885
 30
0.0
 40
3.0
 41
3.25
 46
0.0
 71
     4
 72
     5
  1
{\fHelveticaNeueLTPro|b0|i0|c1|p15;r}
 73
     2
 44
1.0
  0
MTEXT
  5
1011320
330
1F
100
AcDbEntity
  8
Text
  6
Continuous
 62
     0
370
     0
100
AcDbMText
 10
109.682749784363
 20
52.19258860439885
 30
0.0
 40
3.0
 41
3.25
 46
0.0
 71
     4
 72
     5
  1
{\fHelveticaNeueLTPro|b0|i0|c1|p15;u}
 73
     2
 44
1.0
  0
MTEXT
  5
1011321
330
1F
100
AcDbEntity
  8
Text
  6
Continuous
 62
     0
370
     0
100
AcDbMText
 10
111.5160831176963
 20
52.19258860439885
 30
0.0
 40
3.0
 41
3.25
 46
0.0
 71
     4
 72
     5
  1
{\fHelveticaNeueLTPro|b0|i0|c1|p15;n}
 73
     2
 44
1.0
  0
MTEXT
  5
1011322
330
1F
100
AcDbEntity
  8
Text
  6
Continuous
 62
     0
370
     0
100
AcDbMText
 10
113.3494164510296
 20
52.19258860439885
 30
0.0
 40
3.0
 41
3.25
 46
0.0
 71
     4
 72
     5
  1
{\fHelveticaNeueLTPro|b0|i0|c1|p15;d}
 73
     2
 44
1.0
  0
MTEXT
  5
1011323
330
1F
100
AcDbEntity
  8
Text
  6
Continuous
 62
     0
370
     0
100
AcDbMText
 10
116.2660831176963
 20
52.19258860439885
 30
0.0
 40
3.0
 41
3.25
 46
0.0
 71
     4
 72
     5
  1
{\fHelveticaNeueLTPro|b0|i0|c1|p15;e}
 73
     2
 44
1.0
  0
MTEXT
  5
1011324
330
1F
100
AcDbEntity
  8
Text
  6
Continuous
 62
     0
370
     0
100
AcDbMText
 10
118.0994164510296
 20
52.19258860439885
 30
0.0
 40
3.0
 41
3.25
 46
0.0
 71
     4
 72
     5
  1
{\fHelveticaNeueLTPro|b0|i0|c1|p15;r}
 73
     2
 44
1.0
  0
MTEXT
  5
1011325
330
1F
100
AcDbEntity
  8
Text
  6
Continuous
 62
     0
370
     0
100
AcDbMText
 10
119.182749784363
 20
52.19258860439885
 30
0.0
 40
3.0
 41
3.25
 46
0.0
 71
     4
 72
     5
  1
{\fHelveticaNeueLTPro|b0|i0|c1|p15;s}
 73
     2
 44
1.0
  0
MTEXT
  5
1011326
330
1F
100
AcDbEntity
  8
Text
  6
Continuous
 62
     0
370
     0
100
AcDbMText
 10
120.8494164510296
 20
52.19258860439885
 30
0.0
 40
3.0
 41
3.25
 46
0.0
 71
     4
 72
     5
  1
{\fHelveticaNeueLTPro|b0|i0|c1|p15;e}
 73
     2
 44
1.0
  0
MTEXT
  5
1011327
330
1F
100
AcDbEntity
  8
Text
  6
Continuous
 62
     0
370
     0
100
AcDbMText
 10
122.682749784363
 20
52.19258860439885
 30
0.0
 40
3.0
 41
3.25
 46
0.0
 71
     4
 72
     5
  1
{\fHelveticaNeueLTPro|b0|i0|c1|p15;t}
 73
     2
 44
1.0
  0
MTEXT
  5
1011328
330
1F
100
AcDbEntity
  8
Text
  6
Continuous
 62
     0
370
     0
100
AcDbMText
 10
123.682749784363
 20
52.19258860439885
 30
0.0
 40
3.0
 41
3.25
 46
0.0
 71
     4
 72
     5
  1
{\fHelveticaNeueLTPro|b0|i0|c1|p15;z}
 73
     2
 44
1.0
  0
MTEXT
  5
1011329
330
1F
100
AcDbEntity
  8
Text
  6
Continuous
 62
     0
370
     0
100
AcDbMText
 10
125.2660831176963
 20
52.19258860439885
 30
0.0
 40
3.0
 41
3.25
 46
0.0
 71
     4
 72
     5
  1
{\fHelveticaNeueLTPro|b0|i0|c1|p15;e}
 73
     2
 44
1.0
  0
MTEXT
  5
101132A
330
1F
100
AcDbEntity
  8
Text
  6
Continuous
 62
     0
370
     0
100
AcDbMText
 10
127.0994164510296
 20
52.19258860439885
 30
0.0
 40
3.0
 41
3.25
 46
0.0
 71
     4
 72
     5
  1
{\fHelveticaNeueLTPro|b0|i0|c1|p15;n}
 73
     2
 44
1.0
  0
MTEXT
  5
101132B
330
1F
100
AcDbEntity
  8
Text
  6
Continuous
 62
     0
370
     0
100
AcDbMText
 10
129.8494164510296
 20
52.19258860439885
 30
0.0
 40
3.0
 41
3.25
 46
0.0
 71
     4
 72
     5
  1
{\fHelveticaNeueLTPro|b0|i0|c1|p15;k}
 73
     2
 44
1.0
  0
MTEXT
  5
101132C
330
1F
100
AcDbEntity
  8
Text
  6
Continuous
 62
     0
370
     0
100
AcDbMText
 10
131.5994164510296
 20
52.19258860439885
 30
0.0
 40
3.0
 41
3.25
 46
0.0
 71
     4
 72
     5
  1
{\fHelveticaNeueLTPro|b0|i0|c1|p15;e}
 73
     2
 44
1.0
  0
MTEXT
  5
101132D
330
1F
100
AcDbEntity
  8
Text
  6
Continuous
 62
     0
370
     0
100
AcDbMText
 10
133.3494164510296
 20
52.19258860439885
 30
0.0
 40
3.0
 41
3.25
 46
0.0
 71
     4
 72
     5
  1
{\fHelveticaNeueLTPro|b0|i0|c1|p15;i}
 73
     2
 44
1.0
  0
MTEXT
  5
101132E
330
1F
100
AcDbEntity
  8
Text
  6
Continuous
 62
     0
370
     0
100
AcDbMText
 10
134.1827497843629
 20
52.19258860439885
 30
0.0
 40
3.0
 41
3.25
 46
0.0
 71
     4
 72
     5
  1
{\fHelveticaNeueLTPro|b0|i0|c1|p15;n}
 73
     2
 44
1.0
  0
MTEXT
  5
101132F
330
1F
100
AcDbEntity
  8
Text
  6
Continuous
 62
     0
370
     0
100
AcDbMText
 10
136.0160831176963
 20
52.19258860439885
 30
0.0
 40
3.0
 41
3.25
 46
0.0
 71
     4
 72
     5
  1
{\fHelveticaNeueLTPro|b0|i0|c1|p15;e}
 73
     2
 44
1.0
  0
MTEXT
  5
1011330
330
1F
100
AcDbEntity
  8
Text
  6
Continuous
 62
     0
370
     0
100
AcDbMText
 10
138.682749784363
 20
52.19258860439885
 30
0.0
 40
3.0
 41
3.25
 46
0.0
 71
     4
 72
     5
  1
{\fHelveticaNeueLTPro|b0|i0|c1|p15;F}
 73
     2
 44
1.0
  0
MTEXT
  5
1011331
330
1F
100
AcDbEntity
  8
Text
  6
Continuous
 62
     0
370
     0
100
AcDbMText
 10
140.5994164510296
 20
52.19258860439885
 30
0.0
 40
3.0
 41
3.25
 46
0.0
 71
     4
 72
     5
  1
{\fHelveticaNeueLTPro|b0|i0|c1|p15;a}
 73
     2
 44
1.0
  0
MTEXT
  5
1011332
330
1F
100
AcDbEntity
  8
Text
  6
Continuous
 62
     0
370
     0
100
AcDbMText
 10
142.432749784363
 20
52.19258860439885
 30
0.0
 40
3.0
 41
3.25
 46
0.0
 71
     4
 72
     5
  1
{\fHelveticaNeueLTPro|b0|i0|c1|p15;c}
 73
     2
 44
1.0
  0
MTEXT
  5
1011333
330
1F
100
AcDbEntity
  8
Text
  6
Continuous
 62
     0
370
     0
100
AcDbMText
 10
144.182749784363
 20
52.19258860439885
 30
0.0
 40
3.0
 41
3.25
 46
0.0
 71
     4
 72
     5
  1
{\fHelveticaNeueLTPro|b0|i0|c1|p15;h}
 73
     2
 44
1.0
  0
MTEXT
  5
1011334
330
1F
100
AcDbEntity
  8
Text
  6
Continuous
 62
     0
370
     0
100
AcDbMText
 10
146.0160831176963
 20
52.19258860439885
 30
0.0
 40
3.0
 41
3.25
 46
0.0
 71
     4
 72
     5
  1
{\fHelveticaNeueLTPro|b0|i0|c1|p15;p}
 73
     2
 44
1.0
  0
MTEXT
  5
1011335
330
1F
100
AcDbEntity
  8
Text
  6
Continuous
 62
     0
370
     0
100
AcDbMText
 10
148.0160831176963
 20
52.19258860439885
 30
0.0
 40
3.0
 41
3.25
 46
0.0
 71
     4
 72
     5
  1
{\fHelveticaNeueLTPro|b0|i0|c1|p15;l}
 73
     2
 44
1.0
  0
MTEXT
  5
1011336
330
1F
100
AcDbEntity
  8
Text
  6
Continuous
 62
     0
370
     0
100
AcDbMText
 10
148.7660831176963
 20
52.19258860439885
 30
0.0
 40
3.0
 41
3.25
 46
0.0
 71
     4
 72
     5
  1
{\fHelveticaNeueLTPro|b0|i0|c1|p15;a}
 73
     2
 44
1.0
  0
MTEXT
  5
1011337
330
1F
100
AcDbEntity
  8
Text
  6
Continuous
 62
     0
370
     0
100
AcDbMText
 10
150.5160831176963
 20
52.19258860439885
 30
0.0
 40
3.0
 41
3.25
 46
0.0
 71
     4
 72
     5
  1
{\fHelveticaNeueLTPro|b0|i0|c1|p15;n}
 73
     2
 44
1.0
  0
MTEXT
  5
1011338
330
1F
100
AcDbEntity
  8
Text
  6
Continuous
 62
     0
370
     0
100
AcDbMText
 10
152.3494164510296
 20
52.19258860439885
 30
0.0
 40
3.0
 41
3.25
 46
0.0
 71
     4
 72
     5
  1
{\fHelveticaNeueLTPro|b0|i0|c1|p15;u}
 73
     2
 44
1.0
  0
MTEXT
  5
1011339
330
1F
100
AcDbEntity
  8
Text
  6
Continuous
 62
     0
370
     0
100
AcDbMText
 10
154.2660831176963
 20
52.19258860439885
 30
0.0
 40
3.0
 41
3.25
 46
0.0
 71
     4
 72
     5
  1
{\fHelveticaNeueLTPro|b0|i0|c1|p15;n}
 73
     2
 44
1.0
  0
MTEXT
  5
101133A
330
1F
100
AcDbEntity
  8
Text
  6
Continuous
 62
     0
370
     0
100
AcDbMText
 10
156.0994164510296
 20
52.19258860439885
 30
0.0
 40
3.0
 41
3.25
 46
0.0
 71
     4
 72
     5
  1
{\fHelveticaNeueLTPro|b0|i0|c1|p15;g}
 73
     2
 44
1.0
  0
MTEXT
  5
101133B
330
1F
100
AcDbEntity
  8
Text
  6
Continuous
 62
     0
370
     0
100
AcDbMText
 10
158.0160831176963
 20
52.19258860439885
 30
0.0
 40
3.0
 41
3.25
 46
0.0
 71
     4
 72
     5
  1
{\fHelveticaNeueLTPro|b0|i0|c1|p15;!}
 73
     2
 44
1.0
  0
MTEXT
  5
101133C
330
1F
100
AcDbEntity
  8
Text
  6
Continuous
 62
     7
370
     0
100
AcDbMText
 10
36.51608311769633
 20
29.44258860439885
 30
0.0
 40
3.0
 41
3.25
 46
0.0
 71
     4
 72
     5
  1
{\fHelveticaNeueLTPro|b0|i0|c1|p15;w}
 73
     2
 44
1.0
  0
MTEXT
  5
101133D
330
1F
100
AcDbEntity
  8
Text
  6
Continuous
 62
     7
370
     0
100
AcDbMText
 10
39.01608311769633
 20
29.44258860439885
 30
0.0
 40
3.0
 41
3.25
 46
0.0
 71
     4
 72
     5
  1
{\fHelveticaNeueLTPro|b0|i0|c1|p15;w}
 73
     2
 44
1.0
  0
MTEXT
  5
101133E
330
1F
100
AcDbEntity
  8
Text
  6
Continuous
 62
     7
370
     0
100
AcDbMText
 10
41.51608311769632
 20
29.44258860439885
 30
0.0
 40
3.0
 41
3.25
 46
0.0
 71
     4
 72
     5
  1
{\fHelveticaNeueLTPro|b0|i0|c1|p15;w}
 73
     2
 44
1.0
  0
MTEXT
  5
101133F
330
1F
100
AcDbEntity
  8
Text
  6
Continuous
 62
     7
370
     0
100
AcDbMText
 10
44.01608311769632
 20
29.44258860439885
 30
0.0
 40
3.0
 41
3.25
 46
0.0
 71
     4
 72
     5
  1
{\fHelveticaNeueLTPro|b0|i0|c1|p15;.}
 73
     2
 44
1.0
  0
MTEXT
  5
1011340
330
1F
100
AcDbEntity
  8
Text
  6
Continuous
 62
     7
370
     0
100
AcDbMText
 10
44.93274978436299
 20
29.44258860439885
 30
0.0
 40
3.0
 41
3.25
 46
0.0
 71
     4
 72
     5
  1
{\fHelveticaNeueLTPro|b0|i0|c1|p15;s}
 73
     2
 44
1.0
  0
MTEXT
  5
1011341
330
1F
100
AcDbEntity
  8
Text
  6
Continuous
 62
     7
370
     0
100
AcDbMText
 10
46.59941645102966
 20
29.44258860439885
 30
0.0
 40
3.0
 41
3.25
 46
0.0
 71
     4
 72
     5
  1
{\fHelveticaNeueLTPro|b0|i0|c1|p15;t}
 73
     2
 44
1.0
  0
MTEXT
  5
1011342
330
1F
100
AcDbEntity
  8
Text
  6
Continuous
 62
     7
370
     0
100
AcDbMText
 10
47.68274978436298
 20
29.44258860439885
 30
0.0
 40
3.0
 41
3.25
 46
0.0
 71
     4
 72
     5
  1
{\fHelveticaNeueLTPro|b0|i0|c1|p15;r}
 73
     2
 44
1.0
  0
MTEXT
  5
1011343
330
1F
100
AcDbEntity
  8
Text
  6
Continuous
 62
     7
370
     0
100
AcDbMText
 10
48.76608311769633
 20
29.44258860439885
 30
0.0
 40
3.0
 41
3.25
 46
0.0
 71
     4
 72
     5
  1
{\fHelveticaNeueLTPro|b0|i0|c1|p15;a}
 73
     2
 44
1.0
  0
MTEXT
  5
1011344
330
1F
100
AcDbEntity
  8
Text
  6
Continuous
 62
     7
370
     0
100
AcDbMText
 10
50.59941645102966
 20
29.44258860439885
 30
0.0
 40
3.0
 41
3.25
 46
0.0
 71
     4
 72
     5
  1
{\fHelveticaNeueLTPro|b0|i0|c1|p15;s}
 73
     2
 44
1.0
  0
MTEXT
  5
1011345
330
1F
100
AcDbEntity
  8
Text
  6
Continuous
 62
     7
370
     0
100
AcDbMText
 10
52.26608311769632
 20
29.44258860439885
 30
0.0
 40
3.0
 41
3.25
 46
0.0
 71
     4
 72
     5
  1
{\fHelveticaNeueLTPro|b0|i0|c1|p15;s}
 73
     2
 44
1.0
  0
MTEXT
  5
1011346
330
1F
100
AcDbEntity
  8
Text
  6
Continuous
 62
     7
370
     0
100
AcDbMText
 10
53.93274978436298
 20
29.44258860439885
 30
0.0
 40
3.0
 41
3.25
 46
0.0
 71
     4
 72
     5
  1
{\fHelveticaNeueLTPro|b0|i0|c1|p15;e}
 73
     2
 44
1.0
  0
MTEXT
  5
1011347
330
1F
100
AcDbEntity
  8
Text
  6
Continuous
 62
     7
370
     0
100
AcDbMText
 10
55.68274978436299
 20
29.44258860439885
 30
0.0
 40
3.0
 41
3.25
 46
0.0
 71
     4
 72
     5
  1
{\fHelveticaNeueLTPro|b0|i0|c1|p15;r}
 73
     2
 44
1.0
  0
MTEXT
  5
1011348
330
1F
100
AcDbEntity
  8
Text
  6
Continuous
 62
     7
370
     0
100
AcDbMText
 10
56.76608311769633
 20
29.44258860439885
 30
0.0
 40
3.0
 41
3.25
 46
0.0
 71
     4
 72
     5
  1
{\fHelveticaNeueLTPro|b0|i0|c1|p15;-}
 73
     2
 44
1.0
  0
MTEXT
  5
1011349
330
1F
100
AcDbEntity
  8
Text
  6
Continuous
 62
     7
370
     0
100
AcDbMText
 10
58.09941645102966
 20
29.44258860439885
 30
0.0
 40
3.0
 41
3.25
 46
0.0
 71
     4
 72
     5
  1
{\fHelveticaNeueLTPro|b0|i0|c1|p15;s}
 73
     2
 44
1.0
  0
MTEXT
  5
101134A
330
1F
100
AcDbEntity
  8
Text
  6
Continuous
 62
     7
370
     0
100
AcDbMText
 10
59.76608311769632
 20
29.44258860439885
 30
0.0
 40
3.0
 41
3.25
 46
0.0
 71
     4
 72
     5
  1
{\fHelveticaNeueLTPro|b0|i0|c1|p15;y}
 73
     2
 44
1.0
  0
MTEXT
  5
101134B
330
1F
100
AcDbEntity
  8
Text
  6
Continuous
 62
     7
370
     0
100
AcDbMText
 10
61.43274978436298
 20
29.44258860439885
 30
0.0
 40
3.0
 41
3.25
 46
0.0
 71
     4
 72
     5
  1
{\fHelveticaNeueLTPro|b0|i0|c1|p15;s}
 73
     2
 44
1.0
  0
MTEXT
  5
101134C
330
1F
100
AcDbEntity
  8
Text
  6
Continuous
 62
     7
370
     0
100
AcDbMText
 10
63.09941645102966
 20
29.44258860439885
 30
0.0
 40
3.0
 41
3.25
 46
0.0
 71
     4
 72
     5
  1
{\fHelveticaNeueLTPro|b0|i0|c1|p15;t}
 73
     2
 44
1.0
  0
MTEXT
  5
101134D
330
1F
100
AcDbEntity
  8
Text
  6
Continuous
 62
     7
370
     0
100
AcDbMText
 10
64.182749784363
 20
29.44258860439885
 30
0.0
 40
3.0
 41
3.25
 46
0.0
 71
     4
 72
     5
  1
{\fHelveticaNeueLTPro|b0|i0|c1|p15;e}
 73
     2
 44
1.0
  0
MTEXT
  5
101134E
330
1F
100
AcDbEntity
  8
Text
  6
Continuous
 62
     7
370
     0
100
AcDbMText
 10
65.932749784363
 20
29.44258860439885
 30
0.0
 40
3.0
 41
3.25
 46
0.0
 71
     4
 72
     5
  1
{\fHelveticaNeueLTPro|b0|i0|c1|p15;m}
 73
     2
 44
1.0
  0
MTEXT
  5
101134F
330
1F
100
AcDbEntity
  8
Text
  6
Continuous
 62
     7
370
     0
100
AcDbMText
 10
68.76608311769633
 20
29.44258860439885
 30
0.0
 40
3.0
 41
3.25
 46
0.0
 71
     4
 72
     5
  1
{\fHelveticaNeueLTPro|b0|i0|c1|p15;e}
 73
     2
 44
1.0
  0
MTEXT
  5
1011350
330
1F
100
AcDbEntity
  8
Text
  6
Continuous
 62
     7
370
     0
100
AcDbMText
 10
70.51608311769633
 20
29.44258860439885
 30
0.0
 40
3.0
 41
3.25
 46
0.0
 71
     4
 72
     5
  1
{\fHelveticaNeueLTPro|b0|i0|c1|p15;.}
 73
     2
 44
1.0
  0
MTEXT
  5
1011351
330
1F
100
AcDbEntity
  8
Text
  6
Continuous
 62
     7
370
     0
100
AcDbMText
 10
71.51608311769632
 20
29.44258860439885
 30
0.0
 40
3.0
 41
3.25
 46
0.0
 71
     4
 72
     5
  1
{\fHelveticaNeueLTPro|b0|i0|c1|p15;d}
 73
     2
 44
1.0
  0
MTEXT
  5
1011352
330
1F
100
AcDbEntity
  8
Text
  6
Continuous
 62
     7
370
     0
100
AcDbMText
 10
73.432749784363
 20
29.44258860439885
 30
0.0
 40
3.0
 41
3.25
 46
0.0
 71
     4
 72
     5
  1
{\fHelveticaNeueLTPro|b0|i0|c1|p15;e}
 73
     2
 44
1.0
  0
MTEXT
  5
1011353
330
1F
100
AcDbEntity
  8
Text
  6
Continuous
 62
     7
370
     0
100
AcDbMText
 10
36.51608311769633
 20
25.44258860439885
 30
0.0
 40
3.0
 41
3.25
 46
0.0
 71
     4
 72
     5
  1
{\fHelveticaNeueLTPro|b0|i0|c1|p15;i}
 73
     2
 44
1.0
  0
MTEXT
  5
1011354
330
1F
100
AcDbEntity
  8
Text
  6
Continuous
 62
     7
370
     0
100
AcDbMText
 10
37.26608311769633
 20
25.44258860439885
 30
0.0
 40
3.0
 41
3.25
 46
0.0
 71
     4
 72
     5
  1
{\fHelveticaNeueLTPro|b0|i0|c1|p15;n}
 73
     2
 44
1.0
  0
MTEXT
  5
1011355
330
1F
100
AcDbEntity
  8
Text
  6
Continuous
 62
     7
370
     0
100
AcDbMText
 10
39.09941645102966
 20
25.44258860439885
 30
0.0
 40
3.0
 41
3.25
 46
0.0
 71
     4
 72
     5
  1
{\fHelveticaNeueLTPro|b0|i0|c1|p15;f}
 73
     2
 44
1.0
  0
MTEXT
  5
1011356
330
1F
100
AcDbEntity
  8
Text
  6
Continuous
 62
     7
370
     0
100
AcDbMText
 10
40.09941645102966
 20
25.44258860439885
 30
0.0
 40
3.0
 41
3.25
 46
0.0
 71
     4
 72
     5
  1
{\fHelveticaNeueLTPro|b0|i0|c1|p15;o}
 73
     2
 44
1.0
  0
MTEXT
  5
1011357
330
1F
100
AcDbEntity
  8
Text
  6
Continuous
 62
     7
370
     0
100
AcDbMText
 10
42.01608311769632
 20
25.44258860439885
 30
0.0
 40
3.0
 41
3.25
 46
0.0
 71
     4
 72
     5
  1
{\fHelveticaNeueLTPro|b0|i0|c1|p15;@}
 73
     2
 44
1.0
  0
MTEXT
  5
1011358
330
1F
100
AcDbEntity
  8
Text
  6
Continuous
 62
     7
370
     0
100
AcDbMText
 10
44.68274978436299
 20
25.44258860439885
 30
0.0
 40
3.0
 41
3.25
 46
0.0
 71
     4
 72
     5
  1
{\fHelveticaNeueLTPro|b0|i0|c1|p15;s}
 73
     2
 44
1.0
  0
MTEXT
  5
1011359
330
1F
100
AcDbEntity
  8
Text
  6
Continuous
 62
     7
370
     0
100
AcDbMText
 10
46.34941645102966
 20
25.44258860439885
 30
0.0
 40
3.0
 41
3.25
 46
0.0
 71
     4
 72
     5
  1
{\fHelveticaNeueLTPro|b0|i0|c1|p15;t}
 73
     2
 44
1.0
  0
MTEXT
  5
101135A
330
1F
100
AcDbEntity
  8
Text
  6
Continuous
 62
     7
370
     0
100
AcDbMText
 10
47.34941645102966
 20
25.44258860439885
 30
0.0
 40
3.0
 41
3.25
 46
0.0
 71
     4
 72
     5
  1
{\fHelveticaNeueLTPro|b0|i0|c1|p15;r}
 73
     2
 44
1.0
  0
MTEXT
  5
101135B
330
1F
100
AcDbEntity
  8
Text
  6
Continuous
 62
     7
370
     0
100
AcDbMText
 10
48.51608311769632
 20
25.44258860439885
 30
0.0
 40
3.0
 41
3.25
 46
0.0
 71
     4
 72
     5
  1
{\fHelveticaNeueLTPro|b0|i0|c1|p15;a}
 73
     2
 44
1.0
  0
MTEXT
  5
101135C
330
1F
100
AcDbEntity
  8
Text
  6
Continuous
 62
     7
370
     0
100
AcDbMText
 10
50.26608311769632
 20
25.44258860439885
 30
0.0
 40
3.0
 41
3.25
 46
0.0
 71
     4
 72
     5
  1
{\fHelveticaNeueLTPro|b0|i0|c1|p15;s}
 73
     2
 44
1.0
  0
MTEXT
  5
101135D
330
1F
100
AcDbEntity
  8
Text
  6
Continuous
 62
     7
370
     0
100
AcDbMText
 10
51.93274978436299
 20
25.44258860439885
 30
0.0
 40
3.0
 41
3.25
 46
0.0
 71
     4
 72
     5
  1
{\fHelveticaNeueLTPro|b0|i0|c1|p15;s}
 73
     2
 44
1.0
  0
MTEXT
  5
101135E
330
1F
100
AcDbEntity
  8
Text
  6
Continuous
 62
     7
370
     0
100
AcDbMText
 10
53.59941645102966
 20
25.44258860439885
 30
0.0
 40
3.0
 41
3.25
 46
0.0
 71
     4
 72
     5
  1
{\fHelveticaNeueLTPro|b0|i0|c1|p15;e}
 73
     2
 44
1.0
  0
MTEXT
  5
101135F
330
1F
100
AcDbEntity
  8
Text
  6
Continuous
 62
     7
370
     0
100
AcDbMText
 10
55.34941645102966
 20
25.44258860439885
 30
0.0
 40
3.0
 41
3.25
 46
0.0
 71
     4
 72
     5
  1
{\fHelveticaNeueLTPro|b0|i0|c1|p15;r}
 73
     2
 44
1.0
  0
MTEXT
  5
1011360
330
1F
100
AcDbEntity
  8
Text
  6
Continuous
 62
     7
370
     0
100
AcDbMText
 10
56.51608311769632
 20
25.44258860439885
 30
0.0
 40
3.0
 41
3.25
 46
0.0
 71
     4
 72
     5
  1
{\fHelveticaNeueLTPro|b0|i0|c1|p15;-}
 73
     2
 44
1.0
  0
MTEXT
  5
1011361
330
1F
100
AcDbEntity
  8
Text
  6
Continuous
 62
     7
370
     0
100
AcDbMText
 10
57.84941645102966
 20
25.44258860439885
 30
0.0
 40
3.0
 41
3.25
 46
0.0
 71
     4
 72
     5
  1
{\fHelveticaNeueLTPro|b0|i0|c1|p15;s}
 73
     2
 44
1.0
  0
MTEXT
  5
1011362
330
1F
100
AcDbEntity
  8
Text
  6
Continuous
 62
     7
370
     0
100
AcDbMText
 10
59.43274978436299
 20
25.44258860439885
 30
0.0
 40
3.0
 41
3.25
 46
0.0
 71
     4
 72
     5
  1
{\fHelveticaNeueLTPro|b0|i0|c1|p15;y}
 73
     2
 44
1.0
  0
MTEXT
  5
1011363
330
1F
100
AcDbEntity
  8
Text
  6
Continuous
 62
     7
370
     0
100
AcDbMText
 10
61.09941645102966
 20
25.44258860439885
 30
0.0
 40
3.0
 41
3.25
 46
0.0
 71
     4
 72
     5
  1
{\fHelveticaNeueLTPro|b0|i0|c1|p15;s}
 73
     2
 44
1.0
  0
MTEXT
  5
1011364
330
1F
100
AcDbEntity
  8
Text
  6
Continuous
 62
     7
370
     0
100
AcDbMText
 10
62.76608311769632
 20
25.44258860439885
 30
0.0
 40
3.0
 41
3.25
 46
0.0
 71
     4
 72
     5
  1
{\fHelveticaNeueLTPro|b0|i0|c1|p15;t}
 73
     2
 44
1.0
  0
MTEXT
  5
1011365
330
1F
100
AcDbEntity
  8
Text
  6
Continuous
 62
     7
370
     0
100
AcDbMText
 10
63.84941645102966
 20
25.44258860439885
 30
0.0
 40
3.0
 41
3.25
 46
0.0
 71
     4
 72
     5
  1
{\fHelveticaNeueLTPro|b0|i0|c1|p15;e}
 73
     2
 44
1.0
  0
MTEXT
  5
1011366
330
1F
100
AcDbEntity
  8
Text
  6
Continuous
 62
     7
370
     0
100
AcDbMText
 10
65.68274978436299
 20
25.44258860439885
 30
0.0
 40
3.0
 41
3.25
 46
0.0
 71
     4
 72
     5
  1
{\fHelveticaNeueLTPro|b0|i0|c1|p15;m}
 73
     2
 44
1.0
  0
MTEXT
  5
1011367
330
1F
100
AcDbEntity
  8
Text
  6
Continuous
 62
     7
370
     0
100
AcDbMText
 10
68.432749784363
 20
25.44258860439885
 30
0.0
 40
3.0
 41
3.25
 46
0.0
 71
     4
 72
     5
  1
{\fHelveticaNeueLTPro|b0|i0|c1|p15;e}
 73
     2
 44
1.0
  0
MTEXT
  5
1011368
330
1F
100
AcDbEntity
  8
Text
  6
Continuous
 62
     7
370
     0
100
AcDbMText
 10
70.26608311769632
 20
25.44258860439885
 30
0.0
 40
3.0
 41
3.25
 46
0.0
 71
     4
 72
     5
  1
{\fHelveticaNeueLTPro|b0|i0|c1|p15;.}
 73
     2
 44
1.0
  0
MTEXT
  5
1011369
330
1F
100
AcDbEntity
  8
Text
  6
Continuous
 62
     7
370
     0
100
AcDbMText
 10
71.182749784363
 20
25.44258860439885
 30
0.0
 40
3.0
 41
3.25
 46
0.0
 71
     4
 72
     5
  1
{\fHelveticaNeueLTPro|b0|i0|c1|p15;d}
 73
     2
 44
1.0
  0
MTEXT
  5
101136A
330
1F
100
AcDbEntity
  8
Text
  6
Continuous
 62
     7
370
     0
100
AcDbMText
 10
73.18274978436299
 20
25.44258860439885
 30
0.0
 40
3.0
 41
3.25
 46
0.0
 71
     4
 72
     5
  1
{\fHelveticaNeueLTPro|b0|i0|c1|p15;e}
 73
     2
 44
1.0
  0
MTEXT
  5
101136B
330
1F
100
AcDbEntity
  8
Text
  6
Continuous
 62
     7
370
     0
100
AcDbMText
 10
36.18274978436299
 20
36.44258860439885
 30
0.0
 40
3.75
 41
4.0
 46
0.0
 71
     4
 72
     5
  1
{\fHelveticaNeueLTPro|b0|i0|c1|p15;S}
 73
     2
 44
1.0
  0
MTEXT
  5
101136C
330
1F
100
AcDbEntity
  8
Text
  6
Continuous
 62
     7
370
     0
100
AcDbMText
 10
38.84941645102966
 20
36.44258860439885
 30
0.0
 40
3.75
 41
4.0
 46
0.0
 71
     4
 72
     5
  1
{\fHelveticaNeueLTPro|b0|i0|c1|p15;e}
 73
     2
 44
1.0
  0
MTEXT
  5
101136D
330
1F
100
AcDbEntity
  8
Text
  6
Continuous
 62
     7
370
     0
100
AcDbMText
 10
41.18274978436299
 20
36.44258860439885
 30
0.0
 40
3.75
 41
4.0
 46
0.0
 71
     4
 72
     5
  1
{\fHelveticaNeueLTPro|b0|i0|c1|p15;r}
 73
     2
 44
1.0
  0
MTEXT
  5
101136E
330
1F
100
AcDbEntity
  8
Text
  6
Continuous
 62
     7
370
     0
100
AcDbMText
 10
42.76608311769632
 20
36.44258860439885
 30
0.0
 40
3.75
 41
4.0
 46
0.0
 71
     4
 72
     5
  1
{\fHelveticaNeueLTPro|b0|i0|c1|p15;v}
 73
     2
 44
1.0
  0
MTEXT
  5
101136F
330
1F
100
AcDbEntity
  8
Text
  6
Continuous
 62
     7
370
     0
100
AcDbMText
 10
44.93274978436299
 20
36.44258860439885
 30
0.0
 40
3.75
 41
4.0
 46
0.0
 71
     4
 72
     5
  1
{\fHelveticaNeueLTPro|b0|i0|c1|p15;i}
 73
     2
 44
1.0
  0
MTEXT
  5
1011370
330
1F
100
AcDbEntity
  8
Text
  6
Continuous
 62
     7
370
     0
100
AcDbMText
 10
46.01608311769632
 20
36.44258860439885
 30
0.0
 40
3.75
 41
4.0
 46
0.0
 71
     4
 72
     5
  1
{\fHelveticaNeueLTPro|b0|i0|c1|p15;c}
 73
     2
 44
1.0
  0
MTEXT
  5
1011371
330
1F
100
AcDbEntity
  8
Text
  6
Continuous
 62
     7
370
     0
100
AcDbMText
 10
48.34941645102966
 20
36.44258860439885
 30
0.0
 40
3.75
 41
4.0
 46
0.0
 71
     4
 72
     5
  1
{\fHelveticaNeueLTPro|b0|i0|c1|p15;e}
 73
     2
 44
1.0
  0
MTEXT
  5
1011372
330
1F
100
AcDbEntity
  8
Text
  6
Continuous
 62
     7
370
     0
100
AcDbMText
 10
50.68274978436299
 20
36.44258860439885
 30
0.0
 40
3.75
 41
4.0
 46
0.0
 71
     4
 72
     5
  1
{\fHelveticaNeueLTPro|b0|i0|c1|p15;-}
 73
     2
 44
1.0
  0
MTEXT
  5
1011373
330
1F
100
AcDbEntity
  8
Text
  6
Continuous
 62
     7
370
     0
100
AcDbMText
 10
52.34941645102966
 20
36.44258860439885
 30
0.0
 40
3.75
 41
4.0
 46
0.0
 71
     4
 72
     5
  1
{\fHelveticaNeueLTPro|b0|i0|c1|p15;H}
 73
     2
 44
1.0
  0
MTEXT
  5
1011374
330
1F
100
AcDbEntity
  8
Text
  6
Continuous
 62
     7
370
     0
100
AcDbMText
 10
55.34941645102966
 20
36.44258860439885
 30
0.0
 40
3.75
 41
4.0
 46
0.0
 71
     4
 72
     5
  1
{\fHelveticaNeueLTPro|b0|i0|c1|p15;o}
 73
     2
 44
1.0
  0
MTEXT
  5
1011375
330
1F
100
AcDbEntity
  8
Text
  6
Continuous
 62
     7
370
     0
100
AcDbMText
 10
57.84941645102966
 20
36.44258860439885
 30
0.0
 40
3.75
 41
4.0
 46
0.0
 71
     4
 72
     5
  1
{\fHelveticaNeueLTPro|b0|i0|c1|p15;t}
 73
     2
 44
1.0
  0
MTEXT
  5
1011376
330
1F
100
AcDbEntity
  8
Text
  6
Continuous
 62
     7
370
     0
100
AcDbMText
 10
59.26608311769633
 20
36.44258860439885
 30
0.0
 40
3.75
 41
4.0
 46
0.0
 71
     4
 72
     5
  1
{\fHelveticaNeueLTPro|b0|i0|c1|p15;l}
 73
     2
 44
1.0
  0
MTEXT
  5
1011377
330
1F
100
AcDbEntity
  8
Text
  6
Continuous
 62
     7
370
     0
100
AcDbMText
 10
60.34941645102966
 20
36.44258860439885
 30
0.0
 40
3.75
 41
4.0
 46
0.0
 71
     4
 72
     5
  1
{\fHelveticaNeueLTPro|b0|i0|c1|p15;i}
 73
     2
 44
1.0
  0
MTEXT
  5
1011378
330
1F
100
AcDbEntity
  8
Text
  6
Continuous
 62
     7
370
     0
100
AcDbMText
 10
61.43274978436298
 20
36.44258860439885
 30
0.0
 40
3.75
 41
4.0
 46
0.0
 71
     4
 72
     5
  1
{\fHelveticaNeueLTPro|b0|i0|c1|p15;n}
 73
     2
 44
1.0
  0
MTEXT
  5
1011379
330
1F
100
AcDbEntity
  8
Text
  6
Continuous
 62
     7
370
     0
100
AcDbMText
 10
63.84941645102966
 20
36.44258860439885
 30
0.0
 40
3.75
 41
4.0
 46
0.0
 71
     4
 72
     5
  1
{\fHelveticaNeueLTPro|b0|i0|c1|p15;e}
 73
     2
 44
1.0
  0
MTEXT
  5
101137A
330
1F
100
AcDbEntity
  8
Text
  6
Continuous
 62
     7
370
     0
100
AcDbMText
 10
67.34941645102965
 20
36.44258860439885
 30
0.0
 40
3.75
 41
4.0
 46
0.0
 71
     4
 72
     5
  1
{\fHelveticaNeueLTPro|b0|i0|c1|p15;+}
 73
     2
 44
1.0
  0
MTEXT
  5
101137B
330
1F
100
AcDbEntity
  8
Text
  6
Continuous
 62
     7
370
     0
100
AcDbMText
 10
69.84941645102965
 20
36.44258860439885
 30
0.0
 40
3.75
 41
4.0
 46
0.0
 71
     4
 72
     5
  1
{\fHelveticaNeueLTPro|b0|i0|c1|p15;4}
 73
     2
 44
1.0
  0
MTEXT
  5
101137C
330
1F
100
AcDbEntity
  8
Text
  6
Continuous
 62
     7
370
     0
100
AcDbMText
 10
72.09941645102965
 20
36.44258860439885
 30
0.0
 40
3.75
 41
4.0
 46
0.0
 71
     4
 72
     5
  1
{\fHelveticaNeueLTPro|b0|i0|c1|p15;9}
 73
     2
 44
1.0
  0
MTEXT
  5
101137D
330
1F
100
AcDbEntity
  8
Text
  6
Continuous
 62
     7
370
     0
100
AcDbMText
 10
75.51608311769633
 20
36.44258860439885
 30
0.0
 40
3.75
 41
4.0
 46
0.0
 71
     4
 72
     5
  1
{\fHelveticaNeueLTPro|b0|i0|c1|p15;5}
 73
     2
 44
1.0
  0
MTEXT
  5
101137E
330
1F
100
AcDbEntity
  8
Text
  6
Continuous
 62
     7
370
     0
100
AcDbMText
 10
77.76608311769632
 20
36.44258860439885
 30
0.0
 40
3.75
 41
4.0
 46
0.0
 71
     4
 72
     5
  1
{\fHelveticaNeueLTPro|b0|i0|c1|p15;4}
 73
     2
 44
1.0
  0
MTEXT
  5
101137F
330
1F
100
AcDbEntity
  8
Text
  6
Continuous
 62
     7
370
     0
100
AcDbMText
 10
80.09941645102966
 20
36.44258860439885
 30
0.0
 40
3.75
 41
4.0
 46
0.0
 71
     4
 72
     5
  1
{\fHelveticaNeueLTPro|b0|i0|c1|p15;1}
 73
     2
 44
1.0
  0
MTEXT
  5
1011380
330
1F
100
AcDbEntity
  8
Text
  6
Continuous
 62
     7
370
     0
100
AcDbMText
 10
83.51608311769632
 20
36.44258860439885
 30
0.0
 40
3.75
 41
4.0
 46
0.0
 71
     4
 72
     5
  1
{\fHelveticaNeueLTPro|b0|i0|c1|p15;6}
 73
     2
 44
1.0
  0
MTEXT
  5
1011381
330
1F
100
AcDbEntity
  8
Text
  6
Continuous
 62
     7
370
     0
100
AcDbMText
 10
85.76608311769632
 20
36.44258860439885
 30
0.0
 40
3.75
 41
4.0
 46
0.0
 71
     4
 72
     5
  1
{\fHelveticaNeueLTPro|b0|i0|c1|p15;0}
 73
     2
 44
1.0
  0
MTEXT
  5
1011382
330
1F
100
AcDbEntity
  8
Text
  6
Continuous
 62
     7
370
     0
100
AcDbMText
 10
88.01608311769632
 20
36.44258860439885
 30
0.0
 40
3.75
 41
4.0
 46
0.0
 71
     4
 72
     5
  1
{\fHelveticaNeueLTPro|b0|i0|c1|p15;1}
 73
     2
 44
1.0
  0
MTEXT
  5
1011383
330
1F
100
AcDbEntity
  8
Text
  6
Continuous
 62
     7
370
     0
100
AcDbMText
 10
90.26608311769633
 20
36.44258860439885
 30
0.0
 40
3.75
 41
4.0
 46
0.0
 71
     4
 72
     5
  1
{\fHelveticaNeueLTPro|b0|i0|c1|p15;-}
 73
     2
 44
1.0
  0
MTEXT
  5
1011384
330
1F
100
AcDbEntity
  8
Text
  6
Continuous
 62
     7
370
     0
100
AcDbMText
 10
91.93274978436299
 20
36.44258860439885
 30
0.0
 40
3.75
 41
4.0
 46
0.0
 71
     4
 72
     5
  1
{\fHelveticaNeueLTPro|b0|i0|c1|p15;2}
 73
     2
 44
1.0
  0
MTEXT
  5
1011385
330
1F
100
AcDbEntity
  8
Text
  6
Continuous
 62
     7
370
     0
100
AcDbMText
 10
94.26608311769632
 20
36.44258860439885
 30
0.0
 40
3.75
 41
4.0
 46
0.0
 71
     4
 72
     5
  1
{\fHelveticaNeueLTPro|b0|i0|c1|p15;3}
 73
     2
 44
1.0
  0
MTEXT
  5
1011386
330
1F
100
AcDbEntity
  8
Text
  6
Continuous
 62
     7
370
     0
100
AcDbMText
 10
96.51608311769633
 20
36.44258860439885
 30
0.0
 40
3.75
 41
4.0
 46
0.0
 71
     4
 72
     5
  1
{\fHelveticaNeueLTPro|b0|i0|c1|p15;5}
 73
     2
 44
1.0
  0
LWPOLYLINE
  5
1011387
330
1F
100
AcDbEntity
  8
P
  6
Continuous
 62
     0
370
     0
100
AcDbPolyline
 90
        2
 70
     0
 43
0.0
 10
28.34941645102966
 20
43.44258860439885
 10
280.5994164510297
 20
43.44258860439885
  0
LWPOLYLINE
  5
1011388
330
1F
100
AcDbEntity
  8
P
  6
Continuous
 62
     0
370
     0
100
AcDbPolyline
 90
        2
 70
     0
 43
0.0
 10
102.5160831176963
 20
380.3592552710655
 10
243.7660831176963
 20
380.3592552710655
  0
MTEXT
  5
1011389
330
1F
100
AcDbEntity
  8
Text
  6
Continuous
 62
     0
370
     0
100
AcDbMText
 10
102.3494164510296
 20
394.4425886043989
 30
0.0
 40
3.75
 41
32.0
 46
0.0
 71
     4
 72
     5
  1
{\fHelveticaNeueLTPro|b0|i0|c1|p15;Variante}
 73
     2
 44
1.0
  0
MTEXT
  5
101138A
330
1F
100
AcDbEntity
  8
Text
  6
Continuous
 62
     0
370
     0
100
AcDbMText
 10
102.3494164510296
 20
389.1925886043988
 30
0.0
 40
3.75
 41
56.0
 46
0.0
 71
     4
 72
     5
  1
{\fHelveticaNeueLTPro|b0|i0|c1|p15;Naturwerkstein}
 73
     2
 44
1.0
  0
LWPOLYLINE
  5
101138B
330
1F
100
AcDbEntity
  8
P
  6
Continuous
 62
     0
370
     0
100
AcDbPolyline
 90
        2
 70
     0
 43
0.0
 10
245.5160831176963
 20
380.3592552710655
 10
280.682749784363
 20
380.3592552710655
  0
MTEXT
  5
101138C
330
1F
100
AcDbEntity
  8
Text
  6
Continuous
 62
     0
370
     0
100
AcDbMText
 10
245.5160831176963
 20
389.1925886043988
 30
0.0
 40
3.75
 41
56.0
 46
0.0
 71
     4
 72
     5
  1
{\fHelveticaNeueLTPro|b0|i0|c1|p15;Stand 06.2018 }
 73
     2
 44
1.0
  0
LWPOLYLINE
  5
101138D
330
1F
100
AcDbEntity
  8
P
  6
Continuous
 62
     0
370
     0
100
AcDbPolyline
 90
        2
 70
     0
 43
0.0
 10
28.34941645102966
 20
380.3592552710655
 10
100.432749784363
 20
380.3592552710655
  0
MTEXT
  5
101138E
330
1F
100
AcDbEntity
  8
Text
  6
Continuous
 62
     0
370
     0
100
AcDbMText
 10
27.01608311769633
 20
394.4425886043989
 30
0.0
 40
3.75
 41
40.0
 46
0.0
 71
     4
 72
     5
  1
{\fHelveticaNeueLTPro|b0|i0|c1|p15;System 1  }
 73
     2
 44
1.0
  0
MTEXT
  5
101138F
330
1F
100
AcDbEntity
  8
Text
  6
Continuous
 62
     0
370
     0
100
AcDbMText
 10
27.01608311769633
 20
389.1925886043988
 30
0.0
 40
3.75
 41
36.0
 46
0.0
 71
     4
 72
     5
  1
{\fHelveticaNeueLTPro|b0|i0|c1|p15;Universal}
 73
     2
 44
1.0
  0
MTEXT
  5
1011390
330
1F
100
AcDbEntity
  8
Text
  6
Continuous
 62
     0
370
     0
100
AcDbMText
 10
37.18274978436299
 20
109.7759219377321
 30
0.0
 40
3.75
 41
28.0
 46
0.0
 71
     4
 72
     5
  1
{\fHelveticaNeueLTPro|b0|i0|c1|p15;Kleber }
 73
     2
 44
1.0
  0
MTEXT
  5
1011391
330
1F
100
AcDbEntity
  8
Text
  6
Continuous
 62
     0
370
     0
100
AcDbMText
 10
37.18274978436299
 20
104.5259219377321
 30
0.0
 40
3.0
 41
130.0
 46
0.0
 71
     4
 72
     5
  1
{\fHelveticaNeueLTPro|b0|i0|c1|p15;z.B. FLEX FKN Flexkleber Naturstein oder}
 73
     2
 44
1.0
  0
MTEXT
  5
1011392
330
1F
100
AcDbEntity
  8
Text
  6
Continuous
 62
     0
370
     0
100
AcDbMText
 10
37.18274978436299
 20
100.6092552710655
 30
0.0
 40
3.0
 41
130.0
 46
0.0
 71
     4
 72
     5
  1
{\fHelveticaNeueLTPro|b0|i0|c1|p15;FLEX FKN-S Flexkleber Naturstein schnell}
 73
     2
 44
1.0
  0
MTEXT
  5
1011393
330
1F
100
AcDbEntity
  8
Text
  6
Continuous
 62
     7
370
     0
100
AcDbMText
 10
30.18274978436299
 20
109.8592552710655
 30
0.0
 40
3.25
 41
3.5
 46
0.0
 71
     4
 72
     5
  1
{\fHelveticaNeueLTPro|b0|i0|c1|p15;3}
 73
     2
 44
1.0
  0
MTEXT
  5
1011394
102
{ACAD_XDICTIONARY
360
1011395
102
}
330
1F
100
AcDbEntity
  8
Text
  6
Continuous
 62
     0
370
     0
100
AcDbMText
 10
37.18274978436299
 20
143.4425886043988
 30
0.0
 40
3.75
 41
124.0
 46
0.0
 71
     4
 72
     5
  1
{\fHelveticaNeueLTPro|b0|i0|c0|p15;Untergrund (fest und tragfähig)}
 73
     2
 44
1.0
  0
MTEXT
  5
1011396
330
1F
100
AcDbEntity
  8
Text
  6
Continuous
 62
     0
370
     0
100
AcDbMText
 10
37.09941645102966
 20
137.6925886043988
 30
0.0
 40
3.0
 41
22.75
 46
0.0
 71
     4
 72
     5
  1
{\fHelveticaNeueLTPro|b0|i0|c1|p15;Wand:  }
 73
     2
 44
1.0
  0
MTEXT
  5
1011397
330
1F
100
AcDbEntity
  8
Text
  6
Continuous
 62
     0
370
     0
100
AcDbMText
 10
49.84941645102966
 20
137.6925886043988
 30
0.0
 40
3.0
 41
78.0
 46
0.0
 71
     4
 72
     5
  1
{\fHelveticaNeueLTPro|b0|i0|c1|p15;Beton/ Mauerwerk m. Putz}
 73
     2
 44
1.0
  0
MTEXT
  5
1011398
330
1F
100
AcDbEntity
  8
Text
  6
Continuous
 62
     0
370
     0
100
AcDbMText
 10
37.09941645102966
 20
133.7759219377321
 30
0.0
 40
3.0
 41
22.75
 46
0.0
 71
     4
 72
     5
  1
{\fHelveticaNeueLTPro|b0|i0|c1|p15;Boden: }
 73
     2
 44
1.0
  0
MTEXT
  5
1011399
330
1F
100
AcDbEntity
  8
Text
  6
Continuous
 62
     0
370
     0
100
AcDbMText
 10
49.84941645102966
 20
133.7759219377321
 30
0.0
 40
3.0
 41
45.49999999999999
 46
0.0
 71
     4
 72
     5
  1
{\fHelveticaNeueLTPro|b0|i0|c1|p15;Beton/ Estrich}
 73
     2
 44
1.0
  0
MTEXT
  5
101139A
330
1F
100
AcDbEntity
  8
Text
  6
Continuous
 62
     7
370
     0
100
AcDbMText
 10
30.18274978436299
 20
143.4425886043988
 30
0.0
 40
3.25
 41
3.5
 46
0.0
 71
     4
 72
     5
  1
{\fHelveticaNeueLTPro|b0|i0|c1|p15;1}
 73
     2
 44
1.0
  0
MTEXT
  5
101139B
330
1F
100
AcDbEntity
  8
Text
  6
Continuous
 62
     0
370
     0
100
AcDbMText
 10
37.18274978436299
 20
87.94258860439885
 30
0.0
 40
3.75
 41
92.0
 46
0.0
 71
     4
 72
     5
  1
{\fHelveticaNeueLTPro|b0|i0|c1|p15;Naturwerksteinbelag neu}
 73
     2
 44
1.0
  0
MTEXT
  5
101139C
330
1F
100
AcDbEntity
  8
Text
  6
Continuous
 62
     7
370
     0
100
AcDbMText
 10
30.18274978436299
 20
87.77592193773216
 30
0.0
 40
3.25
 41
3.5
 46
0.0
 71
     4
 72
     5
  1
{\fHelveticaNeueLTPro|b0|i0|c1|p15;4}
 73
     2
 44
1.0
  0
LWPOLYLINE
  5
101139D
330
1F
100
AcDbEntity
  8
P
  6
Continuous
 62
     0
370
     0
100
AcDbPolyline
 90
        2
 70
     0
 43
0.0
 10
81.26608311769633
 20
329.6092552710655
 10
81.26608311769633
 20
259.4425886043988
  0
LWPOLYLINE
  5
101139E
330
1F
100
AcDbEntity
  8
P
  6
Continuous
 62
     0
370
     0
100
AcDbPolyline
 90
        2
 70
     0
 43
0.0
 10
81.26608311769633
 20
329.6092552710655
 10
81.26608311769633
 20
259.4425886043988
  0
LWPOLYLINE
  5
101139F
330
1F
100
AcDbEntity
  8
P
  6
Continuous
 62
     0
370
     0
100
AcDbPolyline
 90
        2
 70
     0
 43
0.0
 10
81.26608311769633
 20
329.6092552710655
 10
81.26608311769633
 20
329.6092552710655
  0
LWPOLYLINE
  5
10113A0
330
1F
100
AcDbEntity
  8
P
  6
Continuous
 62
     0
370
     0
100
AcDbPolyline
 90
        2
 70
     0
 43
0.0
 10
81.26608311769633
 20
259.4425886043988
 10
81.26608311769633
 20
259.4425886043988
  0
LWPOLYLINE
  5
10113A1
330
1F
100
AcDbEntity
  8
P
  6
Continuous
 62
     0
370
     0
100
AcDbPolyline
 90
        2
 70
     0
 43
0.0
 10
29.84941645102966
 20
231.0259219377321
 10
191.8494164510296
 20
231.0259219377321
  0
LWPOLYLINE
  5
10113A2
330
1F
100
AcDbEntity
  8
P
  6
Continuous
 62
     0
370
     0
100
AcDbPolyline
 90
        2
 70
     0
 43
0.0
 10
29.84941645102966
 20
231.0259219377321
 10
191.8494164510296
 20
231.0259219377321
  0
LWPOLYLINE
  5
10113A3
330
1F
100
AcDbEntity
  8
P
  6
Continuous
 62
     0
370
     0
100
AcDbPolyline
 90
        2
 70
     0
 43
0.0
 10
29.84941645102966
 20
231.0259219377321
 10
29.84941645102966
 20
231.0259219377321
  0
LWPOLYLINE
  5
10113A4
330
1F
100
AcDbEntity
  8
P
  6
Continuous
 62
     0
370
     0
100
AcDbPolyline
 90
        2
 70
     0
 43
0.0
 10
191.8494164510296
 20
231.0259219377321
 10
191.8494164510296
 20
231.0259219377321
  0
LWPOLYLINE
  5
10113A5
330
1F
100
AcDbEntity
  8
P
  6
DASHDOT
 62
     0
370
     0
100
AcDbPolyline
 90
        2
 70
     0
 43
0.0
 10
29.84941645102966
 20
329.6092552710655
 10
29.84941645102966
 20
173.6092552710655
  0
LWPOLYLINE
  5
10113A6
330
1F
100
AcDbEntity
  8
P
  6
DASHDOT
 62
     0
370
     0
100
AcDbPolyline
 90
        2
 70
     0
 43
0.0
 10
29.84941645102966
 20
329.6092552710655
 10
29.84941645102966
 20
173.6092552710655
  0
LWPOLYLINE
  5
10113A7
330
1F
100
AcDbEntity
  8
P
  6
DASHDOT
 62
     0
370
     0
100
AcDbPolyline
 90
        2
 70
     0
 43
0.0
 10
29.84941645102966
 20
329.6092552710655
 10
29.84941645102966
 20
329.6092552710655
  0
LWPOLYLINE
  5
10113A8
330
1F
100
AcDbEntity
  8
P
  6
DASHDOT
 62
     0
370
     0
100
AcDbPolyline
 90
        2
 70
     0
 43
0.0
 10
29.84941645102966
 20
173.6092552710655
 10
29.84941645102966
 20
173.6092552710655
  0
LWPOLYLINE
  5
10113A9
330
1F
100
AcDbEntity
  8
P
  6
DASHDOT
 62
     0
370
     0
100
AcDbPolyline
 90
        2
 70
     0
 43
0.0
 10
29.84941645102966
 20
173.6092552710655
 10
191.8494164510296
 20
173.6092552710655
  0
LWPOLYLINE
  5
10113AA
330
1F
100
AcDbEntity
  8
P
  6
DASHDOT
 62
     0
370
     0
100
AcDbPolyline
 90
        2
 70
     0
 43
0.0
 10
29.84941645102966
 20
173.6092552710655
 10
191.8494164510296
 20
173.6092552710655
  0
LWPOLYLINE
  5
10113AB
330
1F
100
AcDbEntity
  8
P
  6
DASHDOT
 62
     0
370
     0
100
AcDbPolyline
 90
        2
 70
     0
 43
0.0
 10
29.84941645102966
 20
173.6092552710655
 10
29.84941645102966
 20
173.6092552710655
  0
LWPOLYLINE
  5
10113AC
330
1F
100
AcDbEntity
  8
P
  6
DASHDOT
 62
     0
370
     0
100
AcDbPolyline
 90
        2
 70
     0
 43
0.0
 10
191.8494164510296
 20
173.6092552710655
 10
191.8494164510296
 20
173.6092552710655
  0
LWPOLYLINE
  5
10113AD
330
1F
100
AcDbEntity
  8
P
  6
Continuous
 62
     0
370
     0
100
AcDbPolyline
 90
        2
 70
     0
 43
0.0
 10
80.43274978436299
 20
241.3592552710655
 10
191.8494164510296
 20
241.3592552710655
  0
LWPOLYLINE
  5
10113AE
330
1F
100
AcDbEntity
  8
P
  6
Continuous
 62
     0
370
     0
100
AcDbPolyline
 90
        2
 70
     0
 43
0.0
 10
80.43274978436299
 20
241.3592552710655
 10
191.8494164510296
 20
241.3592552710655
  0
LWPOLYLINE
  5
10113AF
330
1F
100
AcDbEntity
  8
P
  6
Continuous
 62
     0
370
     0
100
AcDbPolyline
 90
        2
 70
     0
 43
0.0
 10
80.43274978436299
 20
241.3592552710655
 10
80.43274978436299
 20
241.3592552710655
  0
LWPOLYLINE
  5
10113B0
330
1F
100
AcDbEntity
  8
P
  6
Continuous
 62
     0
370
     0
100
AcDbPolyline
 90
        2
 70
     0
 43
0.0
 10
191.8494164510296
 20
241.3592552710655
 10
191.8494164510296
 20
241.3592552710655
  0
LWPOLYLINE
  5
10113B1
330
1F
100
AcDbEntity
  8
P
  6
Continuous
 62
     0
370
     0
100
AcDbPolyline
 90
        2
 70
     0
 43
0.0
 10
80.43274978436299
 20
241.9425886043988
 10
191.8494164510296
 20
241.9425886043988
  0
LWPOLYLINE
  5
10113B2
330
1F
100
AcDbEntity
  8
P
  6
Continuous
 62
     0
370
     0
100
AcDbPolyline
 90
        2
 70
     0
 43
0.0
 10
80.43274978436299
 20
241.9425886043988
 10
191.8494164510296
 20
241.9425886043988
  0
LWPOLYLINE
  5
10113B3
330
1F
100
AcDbEntity
  8
P
  6
Continuous
 62
     0
370
     0
100
AcDbPolyline
 90
        2
 70
     0
 43
0.0
 10
80.43274978436299
 20
241.9425886043988
 10
80.43274978436299
 20
241.9425886043988
  0
LWPOLYLINE
  5
10113B4
330
1F
100
AcDbEntity
  8
P
  6
Continuous
 62
     0
370
     0
100
AcDbPolyline
 90
        2
 70
     0
 43
0.0
 10
191.8494164510296
 20
241.9425886043988
 10
191.8494164510296
 20
241.9425886043988
  0
LWPOLYLINE
  5
10113B5
330
1F
100
AcDbEntity
  8
P
  6
Continuous
 62
     0
370
     0
100
AcDbPolyline
 90
        2
 70
     0
 43
0.0
 10
81.26608311769633
 20
259.4425886043988
 10
191.8494164510296
 20
259.4425886043988
  0
LWPOLYLINE
  5
10113B6
330
1F
100
AcDbEntity
  8
P
  6
Continuous
 62
     0
370
     0
100
AcDbPolyline
 90
        2
 70
     0
 43
0.0
 10
81.26608311769633
 20
259.4425886043988
 10
191.8494164510296
 20
259.4425886043988
  0
LWPOLYLINE
  5
10113B7
330
1F
100
AcDbEntity
  8
P
  6
Continuous
 62
     0
370
     0
100
AcDbPolyline
 90
        2
 70
     0
 43
0.0
 10
81.26608311769633
 20
259.4425886043988
 10
81.26608311769633
 20
259.4425886043988
  0
LWPOLYLINE
  5
10113B8
330
1F
100
AcDbEntity
  8
P
  6
Continuous
 62
     0
370
     0
100
AcDbPolyline
 90
        2
 70
     0
 43
0.0
 10
191.8494164510296
 20
259.4425886043988
 10
191.8494164510296
 20
259.4425886043988
  0
LWPOLYLINE
  5
10113B9
330
1F
100
AcDbEntity
  8
P
  6
Continuous
 62
     0
370
     0
100
AcDbPolyline
 90
        2
 70
     0
 43
0.0
 10
86.59941645102966
 20
259.4425886043988
 10
86.59941645102966
 20
241.9425886043988
  0
LWPOLYLINE
  5
10113BA
330
1F
100
AcDbEntity
  8
P
  6
Continuous
 62
     0
370
     0
100
AcDbPolyline
 90
        2
 70
     0
 43
0.0
 10
86.59941645102966
 20
259.4425886043988
 10
86.59941645102966
 20
241.9425886043988
  0
LWPOLYLINE
  5
10113BB
330
1F
100
AcDbEntity
  8
P
  6
Continuous
 62
     0
370
     0
100
AcDbPolyline
 90
        2
 70
     0
 43
0.0
 10
86.59941645102966
 20
259.4425886043988
 10
86.59941645102966
 20
259.4425886043988
  0
LWPOLYLINE
  5
10113BC
330
1F
100
AcDbEntity
  8
P
  6
Continuous
 62
     0
370
     0
100
AcDbPolyline
 90
        2
 70
     0
 43
0.0
 10
86.59941645102966
 20
241.9425886043988
 10
86.59941645102966
 20
241.9425886043988
  0
LWPOLYLINE
  5
10113BD
330
1F
100
AcDbEntity
  8
P
  6
Continuous
 62
     0
370
     0
100
AcDbPolyline
 90
        2
 70
     0
 43
0.0
 10
86.59941645102966
 20
259.4425886043988
 10
80.43274978436299
 20
257.7759219377321
  0
LWPOLYLINE
  5
10113BE
330
1F
100
AcDbEntity
  8
P
  6
Continuous
 62
     0
370
     0
100
AcDbPolyline
 90
        2
 70
     0
 43
0.0
 10
86.59941645102966
 20
259.4425886043988
 10
80.43274978436299
 20
257.7759219377321
  0
LWPOLYLINE
  5
10113BF
330
1F
100
AcDbEntity
  8
P
  6
Continuous
 62
     0
370
     0
100
AcDbPolyline
 90
        2
 70
     0
 43
0.0
 10
86.59941645102966
 20
259.4425886043988
 10
86.59941645102966
 20
259.4425886043988
  0
LWPOLYLINE
  5
10113C0
330
1F
100
AcDbEntity
  8
P
  6
Continuous
 62
     0
370
     0
100
AcDbPolyline
 90
        2
 70
     0
 43
0.0
 10
80.43274978436299
 20
257.7759219377321
 10
80.43274978436299
 20
257.7759219377321
  0
LWPOLYLINE
  5
10113C1
330
1F
100
AcDbEntity
  8
P
  6
Continuous
 62
     0
370
     0
100
AcDbPolyline
 90
        2
 70
     0
 43
0.0
 10
80.43274978436299
 20
257.7759219377321
 10
86.59941645102966
 20
256.1092552710655
  0
LWPOLYLINE
  5
10113C2
330
1F
100
AcDbEntity
  8
P
  6
Continuous
 62
     0
370
     0
100
AcDbPolyline
 90
        2
 70
     0
 43
0.0
 10
80.43274978436299
 20
257.7759219377321
 10
86.59941645102966
 20
256.1092552710655
  0
LWPOLYLINE
  5
10113C3
330
1F
100
AcDbEntity
  8
P
  6
Continuous
 62
     0
370
     0
100
AcDbPolyline
 90
        2
 70
     0
 43
0.0
 10
80.43274978436299
 20
257.7759219377321
 10
80.43274978436299
 20
257.7759219377321
  0
LWPOLYLINE
  5
10113C4
330
1F
100
AcDbEntity
  8
P
  6
Continuous
 62
     0
370
     0
100
AcDbPolyline
 90
        2
 70
     0
 43
0.0
 10
86.59941645102966
 20
256.1092552710655
 10
86.59941645102966
 20
256.1092552710655
  0
LWPOLYLINE
  5
10113C5
330
1F
100
AcDbEntity
  8
P
  6
Continuous
 62
     0
370
     0
100
AcDbPolyline
 90
        2
 70
     0
 43
0.0
 10
86.59941645102966
 20
256.1092552710655
 10
80.43274978436299
 20
254.4425886043988
  0
LWPOLYLINE
  5
10113C6
330
1F
100
AcDbEntity
  8
P
  6
Continuous
 62
     0
370
     0
100
AcDbPolyline
 90
        2
 70
     0
 43
0.0
 10
86.59941645102966
 20
256.1092552710655
 10
80.43274978436299
 20
254.4425886043988
  0
LWPOLYLINE
  5
10113C7
330
1F
100
AcDbEntity
  8
P
  6
Continuous
 62
     0
370
     0
100
AcDbPolyline
 90
        2
 70
     0
 43
0.0
 10
86.59941645102966
 20
256.1092552710655
 10
86.59941645102966
 20
256.1092552710655
  0
LWPOLYLINE
  5
10113C8
330
1F
100
AcDbEntity
  8
P
  6
Continuous
 62
     0
370
     0
100
AcDbPolyline
 90
        2
 70
     0
 43
0.0
 10
80.43274978436299
 20
254.4425886043988
 10
80.43274978436299
 20
254.4425886043988
  0
LWPOLYLINE
  5
10113C9
330
1F
100
AcDbEntity
  8
P
  6
Continuous
 62
     0
370
     0
100
AcDbPolyline
 90
        2
 70
     0
 43
0.0
 10
80.43274978436299
 20
254.4425886043988
 10
86.51608311769633
 20
252.7759219377322
  0
LWPOLYLINE
  5
10113CA
330
1F
100
AcDbEntity
  8
P
  6
Continuous
 62
     0
370
     0
100
AcDbPolyline
 90
        2
 70
     0
 43
0.0
 10
80.43274978436299
 20
254.4425886043988
 10
86.51608311769633
 20
252.7759219377322
  0
LWPOLYLINE
  5
10113CB
330
1F
100
AcDbEntity
  8
P
  6
Continuous
 62
     0
370
     0
100
AcDbPolyline
 90
        2
 70
     0
 43
0.0
 10
80.43274978436299
 20
254.4425886043988
 10
80.43274978436299
 20
254.4425886043988
  0
LWPOLYLINE
  5
10113CC
330
1F
100
AcDbEntity
  8
P
  6
Continuous
 62
     0
370
     0
100
AcDbPolyline
 90
        2
 70
     0
 43
0.0
 10
86.51608311769633
 20
252.7759219377322
 10
86.51608311769633
 20
252.7759219377322
  0
LWPOLYLINE
  5
10113CD
330
1F
100
AcDbEntity
  8
P
  6
Continuous
 62
     0
370
     0
100
AcDbPolyline
 90
        2
 70
     0
 43
0.0
 10
86.51608311769633
 20
252.7759219377322
 10
80.34941645102966
 20
251.1092552710655
  0
LWPOLYLINE
  5
10113CE
330
1F
100
AcDbEntity
  8
P
  6
Continuous
 62
     0
370
     0
100
AcDbPolyline
 90
        2
 70
     0
 43
0.0
 10
86.51608311769633
 20
252.7759219377322
 10
80.34941645102966
 20
251.1092552710655
  0
LWPOLYLINE
  5
10113CF
330
1F
100
AcDbEntity
  8
P
  6
Continuous
 62
     0
370
     0
100
AcDbPolyline
 90
        2
 70
     0
 43
0.0
 10
86.51608311769633
 20
252.7759219377322
 10
86.51608311769633
 20
252.7759219377322
  0
LWPOLYLINE
  5
10113D0
330
1F
100
AcDbEntity
  8
P
  6
Continuous
 62
     0
370
     0
100
AcDbPolyline
 90
        2
 70
     0
 43
0.0
 10
80.34941645102966
 20
251.1092552710655
 10
80.34941645102966
 20
251.1092552710655
  0
LWPOLYLINE
  5
10113D1
330
1F
100
AcDbEntity
  8
P
  6
Continuous
 62
     0
370
     0
100
AcDbPolyline
 90
        2
 70
     0
 43
0.0
 10
80.34941645102966
 20
251.1092552710655
 10
86.51608311769633
 20
249.5259219377321
  0
LWPOLYLINE
  5
10113D2
330
1F
100
AcDbEntity
  8
P
  6
Continuous
 62
     0
370
     0
100
AcDbPolyline
 90
        2
 70
     0
 43
0.0
 10
80.34941645102966
 20
251.1092552710655
 10
86.51608311769633
 20
249.5259219377321
  0
LWPOLYLINE
  5
10113D3
330
1F
100
AcDbEntity
  8
P
  6
Continuous
 62
     0
370
     0
100
AcDbPolyline
 90
        2
 70
     0
 43
0.0
 10
80.34941645102966
 20
251.1092552710655
 10
80.34941645102966
 20
251.1092552710655
  0
LWPOLYLINE
  5
10113D4
330
1F
100
AcDbEntity
  8
P
  6
Continuous
 62
     0
370
     0
100
AcDbPolyline
 90
        2
 70
     0
 43
0.0
 10
86.51608311769633
 20
249.5259219377321
 10
86.51608311769633
 20
249.5259219377321
  0
LWPOLYLINE
  5
10113D5
330
1F
100
AcDbEntity
  8
P
  6
Continuous
 62
     0
370
     0
100
AcDbPolyline
 90
        2
 70
     0
 43
0.0
 10
86.51608311769633
 20
249.5259219377321
 10
80.34941645102966
 20
247.8592552710655
  0
LWPOLYLINE
  5
10113D6
330
1F
100
AcDbEntity
  8
P
  6
Continuous
 62
     0
370
     0
100
AcDbPolyline
 90
        2
 70
     0
 43
0.0
 10
86.51608311769633
 20
249.5259219377321
 10
80.34941645102966
 20
247.8592552710655
  0
LWPOLYLINE
  5
10113D7
330
1F
100
AcDbEntity
  8
P
  6
Continuous
 62
     0
370
     0
100
AcDbPolyline
 90
        2
 70
     0
 43
0.0
 10
86.51608311769633
 20
249.5259219377321
 10
86.51608311769633
 20
249.5259219377321
  0
LWPOLYLINE
  5
10113D8
330
1F
100
AcDbEntity
  8
P
  6
Continuous
 62
     0
370
     0
100
AcDbPolyline
 90
        2
 70
     0
 43
0.0
 10
80.34941645102966
 20
247.8592552710655
 10
80.34941645102966
 20
247.8592552710655
  0
LWPOLYLINE
  5
10113D9
330
1F
100
AcDbEntity
  8
P
  6
Continuous
 62
     0
370
     0
100
AcDbPolyline
 90
        2
 70
     0
 43
0.0
 10
80.34941645102966
 20
247.8592552710655
 10
86.432749784363
 20
246.1925886043988
  0
LWPOLYLINE
  5
10113DA
330
1F
100
AcDbEntity
  8
P
  6
Continuous
 62
     0
370
     0
100
AcDbPolyline
 90
        2
 70
     0
 43
0.0
 10
80.34941645102966
 20
247.8592552710655
 10
86.432749784363
 20
246.1925886043988
  0
LWPOLYLINE
  5
10113DB
330
1F
100
AcDbEntity
  8
P
  6
Continuous
 62
     0
370
     0
100
AcDbPolyline
 90
        2
 70
     0
 43
0.0
 10
80.34941645102966
 20
247.8592552710655
 10
80.34941645102966
 20
247.8592552710655
  0
LWPOLYLINE
  5
10113DC
330
1F
100
AcDbEntity
  8
P
  6
Continuous
 62
     0
370
     0
100
AcDbPolyline
 90
        2
 70
     0
 43
0.0
 10
86.432749784363
 20
246.1925886043988
 10
86.432749784363
 20
246.1925886043988
  0
LWPOLYLINE
  5
10113DD
330
1F
100
AcDbEntity
  8
P
  6
Continuous
 62
     0
370
     0
100
AcDbPolyline
 90
        2
 70
     0
 43
0.0
 10
86.432749784363
 20
246.1925886043988
 10
80.26608311769633
 20
244.5259219377322
  0
LWPOLYLINE
  5
10113DE
330
1F
100
AcDbEntity
  8
P
  6
Continuous
 62
     0
370
     0
100
AcDbPolyline
 90
        2
 70
     0
 43
0.0
 10
86.432749784363
 20
246.1925886043988
 10
80.26608311769633
 20
244.5259219377322
  0
LWPOLYLINE
  5
10113DF
330
1F
100
AcDbEntity
  8
P
  6
Continuous
 62
     0
370
     0
100
AcDbPolyline
 90
        2
 70
     0
 43
0.0
 10
86.432749784363
 20
246.1925886043988
 10
86.432749784363
 20
246.1925886043988
  0
LWPOLYLINE
  5
10113E0
330
1F
100
AcDbEntity
  8
P
  6
Continuous
 62
     0
370
     0
100
AcDbPolyline
 90
        2
 70
     0
 43
0.0
 10
80.26608311769633
 20
244.5259219377322
 10
80.26608311769633
 20
244.5259219377322
  0
LWPOLYLINE
  5
10113E1
330
1F
100
AcDbEntity
  8
P
  6
Continuous
 62
     0
370
     0
100
AcDbPolyline
 90
        2
 70
     0
 43
0.0
 10
80.26608311769633
 20
244.5259219377322
 10
86.432749784363
 20
242.8592552710655
  0
LWPOLYLINE
  5
10113E2
330
1F
100
AcDbEntity
  8
P
  6
Continuous
 62
     0
370
     0
100
AcDbPolyline
 90
        2
 70
     0
 43
0.0
 10
80.26608311769633
 20
244.5259219377322
 10
86.432749784363
 20
242.8592552710655
  0
LWPOLYLINE
  5
10113E3
330
1F
100
AcDbEntity
  8
P
  6
Continuous
 62
     0
370
     0
100
AcDbPolyline
 90
        2
 70
     0
 43
0.0
 10
80.26608311769633
 20
244.5259219377322
 10
80.26608311769633
 20
244.5259219377322
  0
LWPOLYLINE
  5
10113E4
330
1F
100
AcDbEntity
  8
P
  6
Continuous
 62
     0
370
     0
100
AcDbPolyline
 90
        2
 70
     0
 43
0.0
 10
86.432749784363
 20
242.8592552710655
 10
86.432749784363
 20
242.8592552710655
  0
LWPOLYLINE
  5
10113E5
330
1F
100
AcDbEntity
  8
P
  6
Continuous
 62
     0
370
     0
100
AcDbPolyline
 90
        2
 70
     0
 43
0.0
 10
86.432749784363
 20
242.8592552710655
 10
83.01608311769632
 20
241.9425886043988
  0
LWPOLYLINE
  5
10113E6
330
1F
100
AcDbEntity
  8
P
  6
Continuous
 62
     0
370
     0
100
AcDbPolyline
 90
        2
 70
     0
 43
0.0
 10
86.432749784363
 20
242.8592552710655
 10
83.01608311769632
 20
241.9425886043988
  0
LWPOLYLINE
  5
10113E7
330
1F
100
AcDbEntity
  8
P
  6
Continuous
 62
     0
370
     0
100
AcDbPolyline
 90
        2
 70
     0
 43
0.0
 10
86.432749784363
 20
242.8592552710655
 10
86.432749784363
 20
242.8592552710655
  0
LWPOLYLINE
  5
10113E8
330
1F
100
AcDbEntity
  8
P
  6
Continuous
 62
     0
370
     0
100
AcDbPolyline
 90
        2
 70
     0
 43
0.0
 10
83.01608311769632
 20
241.9425886043988
 10
83.01608311769632
 20
241.9425886043988
  0
LWPOLYLINE
  5
10113E9
330
1F
100
AcDbEntity
  8
P
  6
Continuous
 62
     0
370
     0
100
AcDbPolyline
 90
        2
 70
     0
 43
0.0
 10
86.51608311769633
 20
253.5259219377322
 10
91.59941645102966
 20
258.4425886043988
  0
LWPOLYLINE
  5
10113EA
330
1F
100
AcDbEntity
  8
P
  6
Continuous
 62
     0
370
     0
100
AcDbPolyline
 90
        2
 70
     0
 43
0.0
 10
86.51608311769633
 20
246.6925886043988
 10
98.26608311769632
 20
258.4425886043988
  0
LWPOLYLINE
  5
10113EB
330
1F
100
AcDbEntity
  8
P
  6
Continuous
 62
     0
370
     0
100
AcDbPolyline
 90
        2
 70
     0
 43
0.0
 10
88.432749784363
 20
241.9425886043988
 10
105.0994164510296
 20
258.4425886043988
  0
LWPOLYLINE
  5
10113EC
330
1F
100
AcDbEntity
  8
P
  6
Continuous
 62
     0
370
     0
100
AcDbPolyline
 90
        2
 70
     0
 43
0.0
 10
95.09941645102966
 20
241.9425886043988
 10
111.7660831176963
 20
258.4425886043988
  0
LWPOLYLINE
  5
10113ED
330
1F
100
AcDbEntity
  8
P
  6
Continuous
 62
     0
370
     0
100
AcDbPolyline
 90
        2
 70
     0
 43
0.0
 10
101.932749784363
 20
241.9425886043988
 10
118.5160831176963
 20
258.4425886043988
  0
LWPOLYLINE
  5
10113EE
330
1F
100
AcDbEntity
  8
P
  6
Continuous
 62
     0
370
     0
100
AcDbPolyline
 90
        2
 70
     0
 43
0.0
 10
108.5994164510296
 20
241.9425886043988
 10
125.2660831176963
 20
258.4425886043988
  0
LWPOLYLINE
  5
10113EF
330
1F
100
AcDbEntity
  8
P
  6
Continuous
 62
     0
370
     0
100
AcDbPolyline
 90
        2
 70
     0
 43
0.0
 10
115.5160831176963
 20
241.9425886043988
 10
132.0160831176963
 20
258.4425886043988
  0
LWPOLYLINE
  5
10113F0
330
1F
100
AcDbEntity
  8
P
  6
Continuous
 62
     0
370
     0
100
AcDbPolyline
 90
        2
 70
     0
 43
0.0
 10
122.182749784363
 20
241.9425886043988
 10
138.8494164510296
 20
258.4425886043988
  0
LWPOLYLINE
  5
10113F1
330
1F
100
AcDbEntity
  8
P
  6
Continuous
 62
     0
370
     0
100
AcDbPolyline
 90
        2
 70
     0
 43
0.0
 10
129.0160831176963
 20
241.9425886043988
 10
145.5994164510296
 20
258.5259219377322
  0
LWPOLYLINE
  5
10113F2
330
1F
100
AcDbEntity
  8
P
  6
Continuous
 62
     0
370
     0
100
AcDbPolyline
 90
        2
 70
     0
 43
0.0
 10
135.682749784363
 20
241.9425886043988
 10
152.432749784363
 20
258.5259219377322
  0
LWPOLYLINE
  5
10113F3
330
1F
100
AcDbEntity
  8
P
  6
Continuous
 62
     0
370
     0
100
AcDbPolyline
 90
        2
 70
     0
 43
0.0
 10
142.3494164510296
 20
241.8592552710655
 10
159.0160831176963
 20
258.4425886043988
  0
LWPOLYLINE
  5
10113F4
330
1F
100
AcDbEntity
  8
P
  6
Continuous
 62
     0
370
     0
100
AcDbPolyline
 90
        2
 70
     0
 43
0.0
 10
149.182749784363
 20
241.9425886043988
 10
165.8494164510296
 20
258.4425886043988
  0
LWPOLYLINE
  5
10113F5
330
1F
100
AcDbEntity
  8
P
  6
Continuous
 62
     0
370
     0
100
AcDbPolyline
 90
        2
 70
     0
 43
0.0
 10
155.932749784363
 20
241.9425886043988
 10
172.5994164510296
 20
258.4425886043988
  0
LWPOLYLINE
  5
10113F6
330
1F
100
AcDbEntity
  8
P
  6
Continuous
 62
     0
370
     0
100
AcDbPolyline
 90
        2
 70
     0
 43
0.0
 10
162.682749784363
 20
241.8592552710655
 10
179.2660831176963
 20
258.4425886043988
  0
LWPOLYLINE
  5
10113F7
330
1F
100
AcDbEntity
  8
P
  6
Continuous
 62
     0
370
     0
100
AcDbPolyline
 90
        2
 70
     0
 43
0.0
 10
169.4327497843629
 20
241.9425886043988
 10
185.3494164510296
 20
257.7759219377321
  0
LWPOLYLINE
  5
10113F8
330
1F
100
AcDbEntity
  8
P
  6
Continuous
 62
     0
370
     0
100
AcDbPolyline
 90
        2
 70
     0
 43
0.0
 10
176.2660831176963
 20
241.9425886043988
 10
191.8494164510296
 20
257.5259219377322
  0
LWPOLYLINE
  5
10113F9
330
1F
100
AcDbEntity
  8
P
  6
Continuous
 62
     0
370
     0
100
AcDbPolyline
 90
        2
 70
     0
 43
0.0
 10
182.932749784363
 20
241.9425886043988
 10
191.8494164510296
 20
250.6925886043988
  0
LWPOLYLINE
  5
10113FA
330
1F
100
AcDbEntity
  8
P
  6
Continuous
 62
     0
370
     0
100
AcDbPolyline
 90
        2
 70
     0
 43
0.0
 10
189.682749784363
 20
241.9425886043988
 10
191.8494164510296
 20
243.8592552710655
  0
LWPOLYLINE
  5
10113FB
330
1F
100
AcDbEntity
  8
P
  6
Continuous
 62
     0
370
     0
100
AcDbPolyline
 90
        2
 70
     0
 43
0.0
 10
187.182749784363
 20
173.6092552710655
 10
191.8494164510296
 20
178.2759219377321
  0
LWPOLYLINE
  5
10113FC
330
1F
100
AcDbEntity
  8
P
  6
Continuous
 62
     0
370
     0
100
AcDbPolyline
 90
        2
 70
     0
 43
0.0
 10
186.7660831176963
 20
198.5259219377321
 10
191.8494164510296
 20
203.4425886043988
  0
LWPOLYLINE
  5
10113FD
330
1F
100
AcDbEntity
  8
P
  6
Continuous
 62
     0
370
     0
100
AcDbPolyline
 90
        2
 70
     0
 43
0.0
 10
174.182749784363
 20
185.7759219377321
 10
183.682749784363
 20
195.3592552710655
  0
LWPOLYLINE
  5
10113FE
330
1F
100
AcDbEntity
  8
P
  6
Continuous
 62
     0
370
     0
100
AcDbPolyline
 90
        2
 70
     0
 43
0.0
 10
162.0160831176963
 20
173.6092552710655
 10
171.0994164510296
 20
182.6092552710655
  0
LWPOLYLINE
  5
10113FF
330
1F
100
AcDbEntity
  8
P
  6
Continuous
 62
     0
370
     0
100
AcDbPolyline
 90
        2
 70
     0
 43
0.0
 10
186.7660831176963
 20
223.6925886043988
 10
191.8494164510296
 20
228.6925886043988
  0
LWPOLYLINE
  5
1011400
330
1F
100
AcDbEntity
  8
P
  6
Continuous
 62
     0
370
     0
100
AcDbPolyline
 90
        2
 70
     0
 43
0.0
 10
174.182749784363
 20
210.9425886043988
 10
183.682749784363
 20
220.6092552710655
  0
LWPOLYLINE
  5
1011401
330
1F
100
AcDbEntity
  8
P
  6
Continuous
 62
     0
370
     0
100
AcDbPolyline
 90
        2
 70
     0
 43
0.0
 10
161.5994164510296
 20
198.5259219377321
 10
171.0994164510296
 20
207.8592552710655
  0
LWPOLYLINE
  5
1011402
330
1F
100
AcDbEntity
  8
P
  6
Continuous
 62
     0
370
     0
100
AcDbPolyline
 90
        2
 70
     0
 43
0.0
 10
149.0160831176963
 20
185.7759219377321
 10
158.432749784363
 20
195.3592552710655
  0
LWPOLYLINE
  5
1011403
330
1F
100
AcDbEntity
  8
P
  6
Continuous
 62
     0
370
     0
100
AcDbPolyline
 90
        2
 70
     0
 43
0.0
 10
136.8494164510297
 20
173.6092552710655
 10
145.8494164510296
 20
182.6092552710655
  0
LWPOLYLINE
  5
1011404
330
1F
100
AcDbEntity
  8
P
  6
Continuous
 62
     0
370
     0
100
AcDbPolyline
 90
        2
 70
     0
 43
0.0
 10
161.5994164510296
 20
223.6925886043988
 10
169.0160831176963
 20
231.1092552710655
  0
LWPOLYLINE
  5
1011405
330
1F
100
AcDbEntity
  8
P
  6
Continuous
 62
     0
370
     0
100
AcDbPolyline
 90
        2
 70
     0
 43
0.0
 10
149.0160831176963
 20
210.9425886043988
 10
158.432749784363
 20
220.6092552710655
  0
LWPOLYLINE
  5
1011406
330
1F
100
AcDbEntity
  8
P
  6
Continuous
 62
     0
370
     0
100
AcDbPolyline
 90
        2
 70
     0
 43
0.0
 10
136.432749784363
 20
198.5259219377321
 10
145.8494164510296
 20
207.8592552710655
  0
LWPOLYLINE
  5
1011407
330
1F
100
AcDbEntity
  8
P
  6
Continuous
 62
     0
370
     0
100
AcDbPolyline
 90
        2
 70
     0
 43
0.0
 10
123.8494164510296
 20
185.7759219377321
 10
133.2660831176963
 20
195.3592552710655
  0
LWPOLYLINE
  5
1011408
330
1F
100
AcDbEntity
  8
P
  6
Continuous
 62
     0
370
     0
100
AcDbPolyline
 90
        2
 70
     0
 43
0.0
 10
111.682749784363
 20
173.6092552710655
 10
120.682749784363
 20
182.6092552710655
  0
LWPOLYLINE
  5
1011409
330
1F
100
AcDbEntity
  8
P
  6
Continuous
 62
     0
370
     0
100
AcDbPolyline
 90
        2
 70
     0
 43
0.0
 10
136.432749784363
 20
223.6925886043988
 10
143.8494164510296
 20
231.1092552710655
  0
LWPOLYLINE
  5
101140A
330
1F
100
AcDbEntity
  8
P
  6
Continuous
 62
     0
370
     0
100
AcDbPolyline
 90
        2
 70
     0
 43
0.0
 10
123.8494164510296
 20
210.9425886043988
 10
133.2660831176963
 20
220.6092552710655
  0
LWPOLYLINE
  5
101140B
330
1F
100
AcDbEntity
  8
P
  6
Continuous
 62
     0
370
     0
100
AcDbPolyline
 90
        2
 70
     0
 43
0.0
 10
111.182749784363
 20
198.5259219377321
 10
120.682749784363
 20
207.8592552710655
  0
LWPOLYLINE
  5
101140C
330
1F
100
AcDbEntity
  8
P
  6
Continuous
 62
     0
370
     0
100
AcDbPolyline
 90
        2
 70
     0
 43
0.0
 10
98.59941645102965
 20
185.7759219377321
 10
108.0994164510296
 20
195.3592552710655
  0
LWPOLYLINE
  5
101140D
330
1F
100
AcDbEntity
  8
P
  6
Continuous
 62
     0
370
     0
100
AcDbPolyline
 90
        2
 70
     0
 43
0.0
 10
86.34941645102966
 20
173.6092552710655
 10
95.34941645102966
 20
182.6092552710655
  0
LWPOLYLINE
  5
101140E
330
1F
100
AcDbEntity
  8
P
  6
Continuous
 62
     0
370
     0
100
AcDbPolyline
 90
        2
 70
     0
 43
0.0
 10
111.182749784363
 20
223.6925886043988
 10
118.682749784363
 20
231.1092552710655
  0
LWPOLYLINE
  5
101140F
330
1F
100
AcDbEntity
  8
P
  6
Continuous
 62
     0
370
     0
100
AcDbPolyline
 90
        2
 70
     0
 43
0.0
 10
98.59941645102965
 20
210.9425886043988
 10
108.0994164510296
 20
220.6092552710655
  0
LWPOLYLINE
  5
1011410
330
1F
100
AcDbEntity
  8
P
  6
Continuous
 62
     0
370
     0
100
AcDbPolyline
 90
        2
 70
     0
 43
0.0
 10
86.01608311769632
 20
198.5259219377321
 10
95.34941645102966
 20
207.8592552710655
  0
LWPOLYLINE
  5
1011411
330
1F
100
AcDbEntity
  8
P
  6
Continuous
 62
     0
370
     0
100
AcDbPolyline
 90
        2
 70
     0
 43
0.0
 10
73.432749784363
 20
185.7759219377321
 10
82.76608311769633
 20
195.3592552710655
  0
LWPOLYLINE
  5
1011412
330
1F
100
AcDbEntity
  8
P
  6
Continuous
 62
     0
370
     0
100
AcDbPolyline
 90
        2
 70
     0
 43
0.0
 10
61.18274978436299
 20
173.6092552710655
 10
70.18274978436299
 20
182.6092552710655
  0
LWPOLYLINE
  5
1011413
330
1F
100
AcDbEntity
  8
P
  6
Continuous
 62
     0
370
     0
100
AcDbPolyline
 90
        2
 70
     0
 43
0.0
 10
86.01608311769632
 20
223.6925886043988
 10
93.34941645102965
 20
231.1092552710655
  0
LWPOLYLINE
  5
1011414
330
1F
100
AcDbEntity
  8
P
  6
Continuous
 62
     0
370
     0
100
AcDbPolyline
 90
        2
 70
     0
 43
0.0
 10
73.432749784363
 20
210.9425886043988
 10
82.76608311769633
 20
220.6092552710655
  0
LWPOLYLINE
  5
1011415
330
1F
100
AcDbEntity
  8
P
  6
Continuous
 62
     0
370
     0
100
AcDbPolyline
 90
        2
 70
     0
 43
0.0
 10
60.68274978436299
 20
198.5259219377321
 10
70.18274978436299
 20
207.8592552710655
  0
LWPOLYLINE
  5
1011416
330
1F
100
AcDbEntity
  8
P
  6
Continuous
 62
     0
370
     0
100
AcDbPolyline
 90
        2
 70
     0
 43
0.0
 10
48.09941645102966
 20
185.7759219377321
 10
57.59941645102966
 20
195.3592552710655
  0
LWPOLYLINE
  5
1011417
330
1F
100
AcDbEntity
  8
P
  6
Continuous
 62
     0
370
     0
100
AcDbPolyline
 90
        2
 70
     0
 43
0.0
 10
36.01608311769633
 20
173.6092552710655
 10
45.01608311769632
 20
182.6092552710655
  0
LWPOLYLINE
  5
1011418
330
1F
100
AcDbEntity
  8
P
  6
Continuous
 62
     0
370
     0
100
AcDbPolyline
 90
        2
 70
     0
 43
0.0
 10
60.68274978436299
 20
223.6925886043988
 10
68.18274978436299
 20
231.1092552710655
  0
LWPOLYLINE
  5
1011419
330
1F
100
AcDbEntity
  8
P
  6
Continuous
 62
     0
370
     0
100
AcDbPolyline
 90
        2
 70
     0
 43
0.0
 10
48.09941645102966
 20
210.9425886043988
 10
57.59941645102966
 20
220.6092552710655
  0
LWPOLYLINE
  5
101141A
330
1F
100
AcDbEntity
  8
P
  6
Continuous
 62
     0
370
     0
100
AcDbPolyline
 90
        2
 70
     0
 43
0.0
 10
35.51608311769633
 20
198.5259219377321
 10
45.01608311769632
 20
207.8592552710655
  0
LWPOLYLINE
  5
101141B
330
1F
100
AcDbEntity
  8
P
  6
Continuous
 62
     0
370
     0
100
AcDbPolyline
 90
        2
 70
     0
 43
0.0
 10
29.932749784363
 20
192.6092552710655
 10
32.43274978436299
 20
195.3592552710655
  0
LWPOLYLINE
  5
101141C
330
1F
100
AcDbEntity
  8
P
  6
Continuous
 62
     0
370
     0
100
AcDbPolyline
 90
        2
 70
     0
 43
0.0
 10
35.51608311769633
 20
223.6925886043988
 10
43.01608311769633
 20
231.1092552710655
  0
LWPOLYLINE
  5
101141D
330
1F
100
AcDbEntity
  8
P
  6
Continuous
 62
     0
370
     0
100
AcDbPolyline
 90
        2
 70
     0
 43
0.0
 10
29.932749784363
 20
218.1092552710655
 10
32.43274978436299
 20
220.6092552710655
  0
LWPOLYLINE
  5
101141E
330
1F
100
AcDbEntity
  8
P
  6
Continuous
 62
     0
370
     0
100
AcDbPolyline
 90
        2
 70
     0
 43
0.0
 10
174.5994164510296
 20
173.6092552710655
 10
191.8494164510296
 20
190.6925886043988
  0
LWPOLYLINE
  5
101141F
330
1F
100
AcDbEntity
  8
P
  6
Continuous
 62
     0
370
     0
100
AcDbPolyline
 90
        2
 70
     0
 43
0.0
 10
149.432749784363
 20
173.6092552710655
 10
191.8494164510296
 20
215.9425886043988
  0
LWPOLYLINE
  5
1011420
330
1F
100
AcDbEntity
  8
P
  6
Continuous
 62
     0
370
     0
100
AcDbPolyline
 90
        2
 70
     0
 43
0.0
 10
124.2660831176963
 20
173.6092552710655
 10
181.5994164510297
 20
231.1092552710655
  0
LWPOLYLINE
  5
1011421
330
1F
100
AcDbEntity
  8
P
  6
Continuous
 62
     0
370
     0
100
AcDbPolyline
 90
        2
 70
     0
 43
0.0
 10
99.09941645102966
 20
173.6092552710655
 10
156.432749784363
 20
231.1092552710655
  0
LWPOLYLINE
  5
1011422
330
1F
100
AcDbEntity
  8
P
  6
Continuous
 62
     0
370
     0
100
AcDbPolyline
 90
        2
 70
     0
 43
0.0
 10
73.76608311769633
 20
173.6092552710655
 10
131.2660831176963
 20
231.1092552710655
  0
LWPOLYLINE
  5
1011423
330
1F
100
AcDbEntity
  8
P
  6
Continuous
 62
     0
370
     0
100
AcDbPolyline
 90
        2
 70
     0
 43
0.0
 10
48.59941645102966
 20
173.6092552710655
 10
106.0994164510296
 20
231.1092552710655
  0
LWPOLYLINE
  5
1011424
330
1F
100
AcDbEntity
  8
P
  6
Continuous
 62
     0
370
     0
100
AcDbPolyline
 90
        2
 70
     0
 43
0.0
 10
29.932749784363
 20
180.1925886043988
 10
80.76608311769632
 20
231.1092552710655
  0
LWPOLYLINE
  5
1011425
330
1F
100
AcDbEntity
  8
P
  6
Continuous
 62
     0
370
     0
100
AcDbPolyline
 90
        2
 70
     0
 43
0.0
 10
29.932749784363
 20
205.3592552710655
 10
55.59941645102966
 20
231.1092552710655
  0
LWPOLYLINE
  5
1011426
330
1F
100
AcDbEntity
  8
P
  6
Continuous
 62
     0
370
     0
100
AcDbPolyline
 90
        2
 70
     0
 43
0.0
 10
29.932749784363
 20
230.5259219377322
 10
30.43274978436299
 20
231.1092552710655
  0
LWPOLYLINE
  5
1011427
330
1F
100
AcDbEntity
  8
P
  6
Continuous
 62
     0
370
     0
100
AcDbPolyline
 90
        2
 70
     0
 43
0.0
 10
29.932749784363
 20
329.6925886043989
 10
29.932749784363
 20
329.6925886043989
  0
LWPOLYLINE
  5
1011428
330
1F
100
AcDbEntity
  8
P
  6
Continuous
 62
     0
370
     0
100
AcDbPolyline
 90
        2
 70
     0
 43
0.0
 10
29.932749784363
 20
320.6925886043988
 10
38.93274978436299
 20
329.6925886043989
  0
LWPOLYLINE
  5
1011429
330
1F
100
AcDbEntity
  8
P
  6
Continuous
 62
     0
370
     0
100
AcDbPolyline
 90
        2
 70
     0
 43
0.0
 10
29.932749784363
 20
311.6092552710655
 10
47.93274978436299
 20
329.6925886043989
  0
LWPOLYLINE
  5
101142A
330
1F
100
AcDbEntity
  8
P
  6
Continuous
 62
     0
370
     0
100
AcDbPolyline
 90
        2
 70
     0
 43
0.0
 10
29.932749784363
 20
302.6092552710655
 10
56.93274978436299
 20
329.6925886043989
  0
LWPOLYLINE
  5
101142B
330
1F
100
AcDbEntity
  8
P
  6
Continuous
 62
     0
370
     0
100
AcDbPolyline
 90
        2
 70
     0
 43
0.0
 10
29.932749784363
 20
293.6092552710655
 10
66.01608311769632
 20
329.6925886043989
  0
LWPOLYLINE
  5
101142C
330
1F
100
AcDbEntity
  8
P
  6
Continuous
 62
     0
370
     0
100
AcDbPolyline
 90
        2
 70
     0
 43
0.0
 10
29.932749784363
 20
284.6092552710656
 10
75.01608311769633
 20
329.6925886043989
  0
LWPOLYLINE
  5
101142D
330
1F
100
AcDbEntity
  8
P
  6
Continuous
 62
     0
370
     0
100
AcDbPolyline
 90
        2
 70
     0
 43
0.0
 10
29.932749784363
 20
275.6092552710655
 10
80.34941645102966
 20
325.8592552710655
  0
LWPOLYLINE
  5
101142E
330
1F
100
AcDbEntity
  8
P
  6
Continuous
 62
     0
370
     0
100
AcDbPolyline
 90
        2
 70
     0
 43
0.0
 10
29.932749784363
 20
266.6092552710655
 10
80.34941645102966
 20
316.7759219377322
  0
LWPOLYLINE
  5
101142F
330
1F
100
AcDbEntity
  8
P
  6
Continuous
 62
     0
370
     0
100
AcDbPolyline
 90
        2
 70
     0
 43
0.0
 10
29.932749784363
 20
257.5259219377322
 10
80.34941645102966
 20
307.7759219377321
  0
LWPOLYLINE
  5
1011430
330
1F
100
AcDbEntity
  8
P
  6
Continuous
 62
     0
370
     0
100
AcDbPolyline
 90
        2
 70
     0
 43
0.0
 10
29.932749784363
 20
248.5259219377322
 10
80.34941645102966
 20
298.7759219377322
  0
LWPOLYLINE
  5
1011431
330
1F
100
AcDbEntity
  8
P
  6
Continuous
 62
     0
370
     0
100
AcDbPolyline
 90
        2
 70
     0
 43
0.0
 10
29.932749784363
 20
239.5259219377322
 10
80.34941645102966
 20
289.7759219377322
  0
LWPOLYLINE
  5
1011432
330
1F
100
AcDbEntity
  8
P
  6
Continuous
 62
     0
370
     0
100
AcDbPolyline
 90
        2
 70
     0
 43
0.0
 10
30.43274978436299
 20
231.1092552710655
 10
80.34941645102966
 20
281.0259219377321
  0
LWPOLYLINE
  5
1011433
330
1F
100
AcDbEntity
  8
P
  6
Continuous
 62
     0
370
     0
100
AcDbPolyline
 90
        2
 70
     0
 43
0.0
 10
39.43274978436299
 20
231.1092552710655
 10
80.34941645102966
 20
272.0259219377322
  0
LWPOLYLINE
  5
1011434
330
1F
100
AcDbEntity
  8
P
  6
Continuous
 62
     0
370
     0
100
AcDbPolyline
 90
        2
 70
     0
 43
0.0
 10
48.43274978436299
 20
231.1092552710655
 10
80.34941645102966
 20
263.0259219377322
  0
LWPOLYLINE
  5
1011435
330
1F
100
AcDbEntity
  8
P
  6
Continuous
 62
     0
370
     0
100
AcDbPolyline
 90
        2
 70
     0
 43
0.0
 10
57.43274978436299
 20
231.1092552710655
 10
80.34941645102966
 20
254.0259219377322
  0
LWPOLYLINE
  5
1011436
330
1F
100
AcDbEntity
  8
P
  6
Continuous
 62
     0
370
     0
100
AcDbPolyline
 90
        2
 70
     0
 43
0.0
 10
66.43274978436299
 20
231.1092552710655
 10
80.34941645102966
 20
245.0259219377322
  0
LWPOLYLINE
  5
1011437
330
1F
100
AcDbEntity
  8
P
  6
Continuous
 62
     0
370
     0
100
AcDbPolyline
 90
        2
 70
     0
 43
0.0
 10
75.432749784363
 20
231.1092552710655
 10
80.26608311769633
 20
235.9425886043988
  0
LWPOLYLINE
  5
1011438
330
1F
100
AcDbEntity
  8
P
  6
Continuous
 62
     0
370
     0
100
AcDbPolyline
 90
        2
 70
     0
 43
0.0
 10
86.26608311769633
 20
259.4425886043988
 10
80.34941645102966
 20
259.4425886043988
  0
LWPOLYLINE
  5
1011439
330
1F
100
AcDbEntity
  8
P
  6
Continuous
 62
     0
370
     0
100
AcDbPolyline
 90
        2
 70
     0
 43
0.0
 10
86.26608311769633
 20
259.4425886043988
 10
80.34941645102966
 20
259.4425886043988
  0
LWPOLYLINE
  5
101143A
330
1F
100
AcDbEntity
  8
P
  6
Continuous
 62
     0
370
     0
100
AcDbPolyline
 90
        2
 70
     0
 43
0.0
 10
86.26608311769633
 20
259.4425886043988
 10
86.26608311769633
 20
259.4425886043988
  0
LWPOLYLINE
  5
101143B
330
1F
100
AcDbEntity
  8
P
  6
Continuous
 62
     0
370
     0
100
AcDbPolyline
 90
        2
 70
     0
 43
0.0
 10
80.34941645102966
 20
259.4425886043988
 10
80.34941645102966
 20
259.4425886043988
  0
LWPOLYLINE
  5
101143C
330
1F
100
AcDbEntity
  8
P
  6
Continuous
 62
     0
370
     0
100
AcDbPolyline
 90
        2
 70
     0
 43
0.0
 10
85.51608311769632
 20
259.4425886043988
 10
191.8494164510296
 20
259.4425886043988
  0
LWPOLYLINE
  5
101143D
330
1F
100
AcDbEntity
  8
P
  6
Continuous
 62
     0
370
     0
100
AcDbPolyline
 90
        2
 70
     0
 43
0.0
 10
85.51608311769632
 20
259.4425886043988
 10
191.8494164510296
 20
259.4425886043988
  0
LWPOLYLINE
  5
101143E
330
1F
100
AcDbEntity
  8
P
  6
Continuous
 62
     0
370
     0
100
AcDbPolyline
 90
        2
 70
     0
 43
0.0
 10
85.51608311769632
 20
259.4425886043988
 10
85.51608311769632
 20
259.4425886043988
  0
LWPOLYLINE
  5
101143F
330
1F
100
AcDbEntity
  8
P
  6
Continuous
 62
     0
370
     0
100
AcDbPolyline
 90
        2
 70
     0
 43
0.0
 10
191.8494164510296
 20
259.4425886043988
 10
191.8494164510296
 20
259.4425886043988
  0
MTEXT
  5
1011440
102
{ACAD_XDICTIONARY
360
1011441
102
}
330
1F
100
AcDbEntity
  8
Text
  6
Continuous
 62
     0
370
     0
100
AcDbMText
 10
131.682749784363
 20
143.6092552710654
 30
0.0
 40
3.75
 41
44.0
 46
0.0
 71
     4
 72
     5
  1
{\fHelveticaNeueLTPro|b0|i0|c0|p15;Fugenmörtel}
 73
     2
 44
1.0
  0
MTEXT
  5
1011442
330
1F
100
AcDbEntity
  8
Text
  6
Continuous
 62
     0
370
     0
100
AcDbMText
 10
131.682749784363
 20
138.3592552710654
 30
0.0
 40
3.0
 41
120.25
 46
0.0
 71
     4
 72
     5
  1
{\fHelveticaNeueLTPro|b0|i0|c1|p15;FUG FFN-S Flexfuge Naturstein schnell}
 73
     2
 44
1.0
  0
MTEXT
  5
1011443
330
1F
100
AcDbEntity
  8
Text
  6
Continuous
 62
     7
370
     0
100
AcDbMText
 10
124.682749784363
 20
143.4425886043988
 30
0.0
 40
3.25
 41
3.5
 46
0.0
 71
     4
 72
     5
  1
{\fHelveticaNeueLTPro|b0|i0|c1|p15;5}
 73
     2
 44
1.0
  0
MTEXT
  5
1011444
102
{ACAD_XDICTIONARY
360
1011445
102
}
330
1F
100
AcDbEntity
  8
Text
  6
Continuous
 62
     0
370
     0
100
AcDbMText
 10
131.682749784363
 20
127.1925886043988
 30
0.0
 40
3.75
 41
140.0
 46
0.0
 71
     4
 72
     5
  1
{\fHelveticaNeueLTPro|b0|i0|c0|p15;geeignetes Fugenhinterfüllmaterial}
 73
     2
 44
1.0
  0
MTEXT
  5
1011446
330
1F
100
AcDbEntity
  8
Text
  6
Continuous
 62
     7
370
     0
100
AcDbMText
 10
124.682749784363
 20
127.1925886043988
 30
0.0
 40
3.25
 41
3.5
 46
0.0
 71
     4
 72
     5
  1
{\fHelveticaNeueLTPro|b0|i0|c1|p15;6}
 73
     2
 44
1.0
  0
MTEXT
  5
1011447
330
1F
100
AcDbEntity
  8
Text
  6
Continuous
 62
     0
370
     0
100
AcDbMText
 10
131.682749784363
 20
115.4425886043988
 30
0.0
 40
3.75
 41
64.0
 46
0.0
 71
     4
 72
     5
  1
{\fHelveticaNeueLTPro|b0|i0|c1|p15;Elastische Fuge }
 73
     2
 44
1.0
  0
MTEXT
  5
1011448
330
1F
100
AcDbEntity
  8
Text
  6
Continuous
 62
     7
370
     0
100
AcDbMText
 10
124.682749784363
 20
115.4425886043988
 30
0.0
 40
3.25
 41
3.5
 46
0.0
 71
     4
 72
     5
  1
{\fHelveticaNeueLTPro|b0|i0|c1|p15;7}
 73
     2
 44
1.0
  0
MTEXT
  5
1011449
330
1F
100
AcDbEntity
  8
Text
  6
Continuous
 62
     0
370
     0
100
AcDbMText
 10
131.682749784363
 20
109.6925886043988
 30
0.0
 40
3.0
 41
55.25
 46
0.0
 71
     4
 72
     5
  1
{\fHelveticaNeueLTPro|b0|i0|c1|p15;z.B. Ottoseal S70}
 73
     2
 44
1.0
  0
LWPOLYLINE
  5
101144A
330
1F
100
AcDbEntity
  8
P
  6
DASHED2
 62
     0
370
     0
100
AcDbPolyline
 90
        2
 70
     0
 43
0.0
 10
192.0160831176963
 20
241.6092552710655
 10
80.34941645102966
 20
241.6092552710655
  0
HATCH
  5
101144B
330
1F
100
AcDbEntity
  8
H
  6
DASHDOT
 62
     0
370
     0
100
AcDbHatch
 10
0.0
 20
0.0
 30
0.0
210
0.0
220
0.0
230
1.0
  2
SOLID
 70
     1
 71
     0
 91
        1
 92
        1
 93
        4
 72
     1
 10
126.2660831176963
 20
248.7759219377322
 11
127.2660831176963
 21
248.7759219377322
 72
     1
 10
127.2660831176963
 20
248.7759219377322
 11
127.2660831176963
 21
249.7759219377321
 72
     1
 10
127.2660831176963
 20
249.7759219377321
 11
126.2660831176963
 21
249.7759219377321
 72
     1
 10
126.2660831176963
 20
249.7759219377321
 11
126.2660831176963
 21
248.7759219377322
 97
        0
 75
     0
 76
     1
 98
        0
450
        0
451
        0
460
0.0
461
0.0
452
        0
462
0.0
453
        0
470

  0
LWPOLYLINE
  5
101144C
330
1F
100
AcDbEntity
  8
P
  6
DASHDOT
 62
     0
370
     0
100
AcDbPolyline
 90
        2
 70
     0
 43
0.0
 10
87.182749784363
 20
260.0259219377321
 10
88.18274978436299
 20
260.9425886043988
  0
LWPOLYLINE
  5
101144D
330
1F
100
AcDbEntity
  8
P
  6
DASHDOT
 62
     0
370
     0
100
AcDbPolyline
 90
        2
 70
     0
 43
0.0
 10
90.182749784363
 20
259.4425886043988
 10
91.76608311769632
 20
260.9425886043988
  0
LWPOLYLINE
  5
101144E
330
1F
100
AcDbEntity
  8
P
  6
DASHDOT
 62
     0
370
     0
100
AcDbPolyline
 90
        2
 70
     0
 43
0.0
 10
94.01608311769633
 20
259.4425886043988
 10
95.26608311769633
 20
260.9425886043988
  0
LWPOLYLINE
  5
101144F
330
1F
100
AcDbEntity
  8
P
  6
DASHDOT
 62
     0
370
     0
100
AcDbPolyline
 90
        2
 70
     0
 43
0.0
 10
97.59941645102966
 20
259.4425886043988
 10
98.84941645102966
 20
260.9425886043988
  0
LWPOLYLINE
  5
1011450
330
1F
100
AcDbEntity
  8
P
  6
DASHDOT
 62
     0
370
     0
100
AcDbPolyline
 90
        2
 70
     0
 43
0.0
 10
101.182749784363
 20
259.4425886043988
 10
102.432749784363
 20
260.9425886043988
  0
LWPOLYLINE
  5
1011451
330
1F
100
AcDbEntity
  8
P
  6
DASHDOT
 62
     0
370
     0
100
AcDbPolyline
 90
        2
 70
     0
 43
0.0
 10
104.682749784363
 20
259.4425886043988
 10
106.0160831176963
 20
260.9425886043988
  0
LWPOLYLINE
  5
1011452
330
1F
100
AcDbEntity
  8
P
  6
DASHDOT
 62
     0
370
     0
100
AcDbPolyline
 90
        2
 70
     0
 43
0.0
 10
108.182749784363
 20
259.4425886043988
 10
109.7660831176963
 20
260.9425886043988
  0
LWPOLYLINE
  5
1011453
330
1F
100
AcDbEntity
  8
P
  6
DASHDOT
 62
     0
370
     0
100
AcDbPolyline
 90
        2
 70
     0
 43
0.0
 10
111.8494164510296
 20
259.4425886043988
 10
113.3494164510296
 20
260.9425886043988
  0
LWPOLYLINE
  5
1011454
330
1F
100
AcDbEntity
  8
P
  6
DASHDOT
 62
     0
370
     0
100
AcDbPolyline
 90
        2
 70
     0
 43
0.0
 10
115.432749784363
 20
259.4425886043988
 10
116.932749784363
 20
260.9425886043988
  0
LWPOLYLINE
  5
1011455
330
1F
100
AcDbEntity
  8
P
  6
DASHDOT
 62
     0
370
     0
100
AcDbPolyline
 90
        2
 70
     0
 43
0.0
 10
119.0160831176963
 20
259.4425886043988
 10
120.5160831176963
 20
260.9425886043988
  0
LWPOLYLINE
  5
1011456
330
1F
100
AcDbEntity
  8
P
  6
DASHDOT
 62
     0
370
     0
100
AcDbPolyline
 90
        2
 70
     0
 43
0.0
 10
122.5994164510296
 20
259.4425886043988
 10
124.0994164510296
 20
260.9425886043988
  0
LWPOLYLINE
  5
1011457
330
1F
100
AcDbEntity
  8
P
  6
DASHDOT
 62
     0
370
     0
100
AcDbPolyline
 90
        2
 70
     0
 43
0.0
 10
126.182749784363
 20
259.4425886043988
 10
127.5994164510296
 20
260.9425886043988
  0
LWPOLYLINE
  5
1011458
330
1F
100
AcDbEntity
  8
P
  6
DASHDOT
 62
     0
370
     0
100
AcDbPolyline
 90
        2
 70
     0
 43
0.0
 10
129.932749784363
 20
259.4425886043988
 10
131.3494164510296
 20
260.9425886043988
  0
LWPOLYLINE
  5
1011459
330
1F
100
AcDbEntity
  8
P
  6
DASHDOT
 62
     0
370
     0
100
AcDbPolyline
 90
        2
 70
     0
 43
0.0
 10
133.5160831176963
 20
259.4425886043988
 10
134.932749784363
 20
260.9425886043988
  0
LWPOLYLINE
  5
101145A
330
1F
100
AcDbEntity
  8
P
  6
DASHDOT
 62
     0
370
     0
100
AcDbPolyline
 90
        2
 70
     0
 43
0.0
 10
137.0160831176963
 20
259.4425886043988
 10
138.5160831176963
 20
260.9425886043988
  0
LWPOLYLINE
  5
101145B
330
1F
100
AcDbEntity
  8
P
  6
DASHDOT
 62
     0
370
     0
100
AcDbPolyline
 90
        2
 70
     0
 43
0.0
 10
140.5994164510296
 20
259.4425886043988
 10
142.0994164510297
 20
260.9425886043988
  0
LWPOLYLINE
  5
101145C
330
1F
100
AcDbEntity
  8
P
  6
DASHDOT
 62
     0
370
     0
100
AcDbPolyline
 90
        2
 70
     0
 43
0.0
 10
144.182749784363
 20
259.4425886043988
 10
145.6827497843629
 20
260.9425886043988
  0
LWPOLYLINE
  5
101145D
330
1F
100
AcDbEntity
  8
P
  6
DASHDOT
 62
     0
370
     0
100
AcDbPolyline
 90
        2
 70
     0
 43
0.0
 10
147.7660831176963
 20
259.4425886043988
 10
149.2660831176963
 20
260.9425886043988
  0
LWPOLYLINE
  5
101145E
330
1F
100
AcDbEntity
  8
P
  6
DASHDOT
 62
     0
370
     0
100
AcDbPolyline
 90
        2
 70
     0
 43
0.0
 10
151.5160831176963
 20
259.4425886043988
 10
152.9327497843629
 20
260.9425886043988
  0
LWPOLYLINE
  5
101145F
330
1F
100
AcDbEntity
  8
P
  6
DASHDOT
 62
     0
370
     0
100
AcDbPolyline
 90
        2
 70
     0
 43
0.0
 10
155.0994164510296
 20
259.4425886043988
 10
156.5160831176963
 20
260.9425886043988
  0
LWPOLYLINE
  5
1011460
330
1F
100
AcDbEntity
  8
P
  6
DASHDOT
 62
     0
370
     0
100
AcDbPolyline
 90
        2
 70
     0
 43
0.0
 10
158.682749784363
 20
259.4425886043988
 10
160.0994164510296
 20
260.9425886043988
  0
LWPOLYLINE
  5
1011461
330
1F
100
AcDbEntity
  8
P
  6
DASHDOT
 62
     0
370
     0
100
AcDbPolyline
 90
        2
 70
     0
 43
0.0
 10
162.2660831176963
 20
259.4425886043988
 10
163.682749784363
 20
260.9425886043988
  0
LWPOLYLINE
  5
1011462
330
1F
100
AcDbEntity
  8
P
  6
DASHDOT
 62
     0
370
     0
100
AcDbPolyline
 90
        2
 70
     0
 43
0.0
 10
165.8494164510296
 20
259.4425886043988
 10
167.2660831176963
 20
260.9425886043988
  0
LWPOLYLINE
  5
1011463
330
1F
100
AcDbEntity
  8
P
  6
DASHDOT
 62
     0
370
     0
100
AcDbPolyline
 90
        2
 70
     0
 43
0.0
 10
169.5160831176963
 20
259.4425886043988
 10
171.0160831176963
 20
260.9425886043988
  0
LWPOLYLINE
  5
1011464
330
1F
100
AcDbEntity
  8
P
  6
DASHDOT
 62
     0
370
     0
100
AcDbPolyline
 90
        2
 70
     0
 43
0.0
 10
173.0994164510296
 20
259.4425886043988
 10
174.5994164510296
 20
260.9425886043988
  0
LWPOLYLINE
  5
1011465
330
1F
100
AcDbEntity
  8
P
  6
DASHDOT
 62
     0
370
     0
100
AcDbPolyline
 90
        2
 70
     0
 43
0.0
 10
176.682749784363
 20
259.4425886043988
 10
178.182749784363
 20
260.9425886043988
  0
LWPOLYLINE
  5
1011466
330
1F
100
AcDbEntity
  8
P
  6
DASHDOT
 62
     0
370
     0
100
AcDbPolyline
 90
        2
 70
     0
 43
0.0
 10
180.2660831176963
 20
259.4425886043988
 10
181.682749784363
 20
260.9425886043988
  0
LWPOLYLINE
  5
1011467
330
1F
100
AcDbEntity
  8
P
  6
DASHDOT
 62
     0
370
     0
100
AcDbPolyline
 90
        2
 70
     0
 43
0.0
 10
183.8494164510296
 20
259.4425886043988
 10
185.2660831176963
 20
260.9425886043988
  0
LWPOLYLINE
  5
1011468
330
1F
100
AcDbEntity
  8
P
  6
DASHDOT
 62
     0
370
     0
100
AcDbPolyline
 90
        2
 70
     0
 43
0.0
 10
187.5994164510296
 20
259.4425886043988
 10
189.182749784363
 20
260.9425886043988
  0
LWPOLYLINE
  5
1011469
330
1F
100
AcDbEntity
  8
P
  6
DASHDOT
 62
     0
370
     0
100
AcDbPolyline
 90
        2
 70
     0
 43
0.0
 10
81.26608311769633
 20
326.1092552710655
 10
83.26608311769632
 20
328.0259219377322
  0
LWPOLYLINE
  5
101146A
330
1F
100
AcDbEntity
  8
P
  6
DASHDOT
 62
     0
370
     0
100
AcDbPolyline
 90
        2
 70
     0
 43
0.0
 10
81.26608311769633
 20
322.4425886043988
 10
83.18274978436299
 20
324.3592552710655
  0
LWPOLYLINE
  5
101146B
330
1F
100
AcDbEntity
  8
P
  6
DASHDOT
 62
     0
370
     0
100
AcDbPolyline
 90
        2
 70
     0
 43
0.0
 10
81.26608311769633
 20
319.0259219377322
 10
83.18274978436299
 20
320.9425886043988
  0
LWPOLYLINE
  5
101146C
330
1F
100
AcDbEntity
  8
P
  6
DASHDOT
 62
     0
370
     0
100
AcDbPolyline
 90
        2
 70
     0
 43
0.0
 10
81.26608311769633
 20
315.2759219377322
 10
83.18274978436299
 20
317.2759219377322
  0
LWPOLYLINE
  5
101146D
330
1F
100
AcDbEntity
  8
P
  6
DASHDOT
 62
     0
370
     0
100
AcDbPolyline
 90
        2
 70
     0
 43
0.0
 10
81.26608311769633
 20
311.6925886043989
 10
83.18274978436299
 20
313.5259219377322
  0
LWPOLYLINE
  5
101146E
330
1F
100
AcDbEntity
  8
P
  6
DASHDOT
 62
     0
370
     0
100
AcDbPolyline
 90
        2
 70
     0
 43
0.0
 10
81.26608311769633
 20
308.1092552710655
 10
83.18274978436299
 20
310.1092552710655
  0
LWPOLYLINE
  5
101146F
330
1F
100
AcDbEntity
  8
P
  6
DASHDOT
 62
     0
370
     0
100
AcDbPolyline
 90
        2
 70
     0
 43
0.0
 10
81.26608311769633
 20
304.4425886043989
 10
83.18274978436299
 20
306.3592552710655
  0
LWPOLYLINE
  5
1011470
330
1F
100
AcDbEntity
  8
P
  6
DASHDOT
 62
     0
370
     0
100
AcDbPolyline
 90
        2
 70
     0
 43
0.0
 10
81.26608311769633
 20
300.9425886043989
 10
83.18274978436299
 20
302.9425886043989
  0
LWPOLYLINE
  5
1011471
330
1F
100
AcDbEntity
  8
P
  6
DASHDOT
 62
     0
370
     0
100
AcDbPolyline
 90
        2
 70
     0
 43
0.0
 10
81.26608311769633
 20
297.2759219377321
 10
83.18274978436299
 20
299.1925886043988
  0
LWPOLYLINE
  5
1011472
330
1F
100
AcDbEntity
  8
P
  6
DASHDOT
 62
     0
370
     0
100
AcDbPolyline
 90
        2
 70
     0
 43
0.0
 10
81.26608311769633
 20
293.8592552710655
 10
83.18274978436299
 20
295.7759219377322
  0
LWPOLYLINE
  5
1011473
330
1F
100
AcDbEntity
  8
P
  6
DASHDOT
 62
     0
370
     0
100
AcDbPolyline
 90
        2
 70
     0
 43
0.0
 10
81.26608311769633
 20
290.1092552710655
 10
83.18274978436299
 20
292.0259219377322
  0
LWPOLYLINE
  5
1011474
330
1F
100
AcDbEntity
  8
P
  6
DASHDOT
 62
     0
370
     0
100
AcDbPolyline
 90
        2
 70
     0
 43
0.0
 10
81.26608311769633
 20
286.2759219377322
 10
83.18274978436299
 20
288.3592552710656
  0
LWPOLYLINE
  5
1011475
330
1F
100
AcDbEntity
  8
P
  6
DASHDOT
 62
     0
370
     0
100
AcDbPolyline
 90
        2
 70
     0
 43
0.0
 10
81.26608311769633
 20
282.8592552710655
 10
83.18274978436299
 20
284.9425886043988
  0
LWPOLYLINE
  5
1011476
330
1F
100
AcDbEntity
  8
P
  6
DASHDOT
 62
     0
370
     0
100
AcDbPolyline
 90
        2
 70
     0
 43
0.0
 10
81.432749784363
 20
279.4425886043988
 10
83.18274978436299
 20
281.1925886043988
  0
LWPOLYLINE
  5
1011477
330
1F
100
AcDbEntity
  8
P
  6
DASHDOT
 62
     0
370
     0
100
AcDbPolyline
 90
        2
 70
     0
 43
0.0
 10
81.26608311769633
 20
275.9425886043988
 10
83.18274978436299
 20
277.7759219377322
  0
LWPOLYLINE
  5
1011478
330
1F
100
AcDbEntity
  8
P
  6
DASHDOT
 62
     0
370
     0
100
AcDbPolyline
 90
        2
 70
     0
 43
0.0
 10
81.26608311769633
 20
272.0259219377322
 10
83.18274978436299
 20
274.0259219377322
  0
LWPOLYLINE
  5
1011479
330
1F
100
AcDbEntity
  8
P
  6
DASHDOT
 62
     0
370
     0
100
AcDbPolyline
 90
        2
 70
     0
 43
0.0
 10
81.93274978436299
 20
269.0259219377322
 10
83.18274978436299
 20
270.2759219377321
  0
LWPOLYLINE
  5
101147A
330
1F
100
AcDbEntity
  8
P
  6
Continuous
 62
     0
370
     0
100
AcDbPolyline
 90
        2
 70
     0
 43
0.0
 10
81.26608311769633
 20
266.6925886043988
 10
83.682749784363
 20
269.0259219377322
  0
LWPOLYLINE
  5
101147B
330
1F
100
AcDbEntity
  8
P
  6
Continuous
 62
     0
370
     0
100
AcDbPolyline
 90
        2
 70
     0
 43
0.0
 10
81.26608311769633
 20
264.5259219377322
 10
84.59941645102965
 20
267.7759219377322
  0
LWPOLYLINE
  5
101147C
330
1F
100
AcDbEntity
  8
P
  6
Continuous
 62
     0
370
     0
100
AcDbPolyline
 90
        2
 70
     0
 43
0.0
 10
81.26608311769633
 20
262.3592552710655
 10
85.34941645102966
 20
266.2759219377321
  0
LWPOLYLINE
  5
101147D
330
1F
100
AcDbEntity
  8
P
  6
Continuous
 62
     0
370
     0
100
AcDbPolyline
 90
        2
 70
     0
 43
0.0
 10
81.26608311769633
 20
260.0259219377321
 10
86.432749784363
 20
265.3592552710655
  0
LWPOLYLINE
  5
101147E
330
1F
100
AcDbEntity
  8
P
  6
Continuous
 62
     0
370
     0
100
AcDbPolyline
 90
        2
 70
     0
 43
0.0
 10
83.01608311769632
 20
259.5259219377322
 10
87.09941645102965
 20
263.7759219377322
  0
LWPOLYLINE
  5
101147F
330
1F
100
AcDbEntity
  8
P
  6
Continuous
 62
     0
370
     0
100
AcDbPolyline
 90
        2
 70
     0
 43
0.0
 10
85.26608311769633
 20
259.4425886043988
 10
87.09941645102965
 20
261.2759219377322
  0
LWPOLYLINE
  5
1011480
330
1F
100
AcDbEntity
  8
P
  6
Continuous
 62
     0
370
     0
100
AcDbPolyline
 90
        2
 70
     0
 43
0.0
 10
82.682749784363
 20
269.0259219377322
 10
85.01608311769633
 20
267.0259219377322
  0
LWPOLYLINE
  5
1011481
330
1F
100
AcDbEntity
  8
P
  6
Continuous
 62
     0
370
     0
100
AcDbPolyline
 90
        2
 70
     0
 43
0.0
 10
86.68274978436299
 20
265.1925886043988
 10
87.01608311769632
 20
264.6925886043988
  0
LWPOLYLINE
  5
1011482
330
1F
100
AcDbEntity
  8
P
  6
Continuous
 62
     0
370
     0
100
AcDbPolyline
 90
        2
 70
     0
 43
0.0
 10
81.26608311769633
 20
268.2759219377321
 10
87.09941645102965
 20
262.5259219377322
  0
LWPOLYLINE
  5
1011483
330
1F
100
AcDbEntity
  8
P
  6
Continuous
 62
     0
370
     0
100
AcDbPolyline
 90
        2
 70
     0
 43
0.0
 10
81.26608311769633
 20
266.1092552710655
 10
87.09941645102965
 20
260.3592552710655
  0
LWPOLYLINE
  5
1011484
330
1F
100
AcDbEntity
  8
P
  6
Continuous
 62
     0
370
     0
100
AcDbPolyline
 90
        2
 70
     0
 43
0.0
 10
81.26608311769633
 20
263.9425886043988
 10
85.59941645102965
 20
259.4425886043988
  0
LWPOLYLINE
  5
1011485
330
1F
100
AcDbEntity
  8
P
  6
Continuous
 62
     0
370
     0
100
AcDbPolyline
 90
        2
 70
     0
 43
0.0
 10
81.26608311769633
 20
261.6092552710655
 10
83.432749784363
 20
259.5259219377322
  0
LWPOLYLINE
  5
1011486
330
1F
100
AcDbEntity
  8
P
  6
Continuous
 62
     0
370
     0
100
AcDbPolyline
 90
        2
 70
     0
 43
0.0
 10
87.09941645102965
 20
329.6092552710655
 10
87.09941645102965
 20
269.0259219377322
  0
LWPOLYLINE
  5
1011487
330
1F
100
AcDbEntity
  8
P
  6
Continuous
 62
     0
370
     0
100
AcDbPolyline
 90
        2
 70
     0
 43
0.0
 10
87.09941645102965
 20
329.6092552710655
 10
87.09941645102965
 20
269.0259219377322
  0
LWPOLYLINE
  5
1011488
330
1F
100
AcDbEntity
  8
P
  6
Continuous
 62
     0
370
     0
100
AcDbPolyline
 90
        2
 70
     0
 43
0.0
 10
87.09941645102965
 20
329.6092552710655
 10
87.09941645102965
 20
329.6092552710655
  0
LWPOLYLINE
  5
1011489
330
1F
100
AcDbEntity
  8
P
  6
Continuous
 62
     0
370
     0
100
AcDbPolyline
 90
        2
 70
     0
 43
0.0
 10
87.09941645102965
 20
269.0259219377322
 10
87.09941645102965
 20
269.0259219377322
  0
LWPOLYLINE
  5
101148A
330
1F
100
AcDbEntity
  8
P
  6
Continuous
 62
     0
370
     0
100
AcDbPolyline
 90
        2
 70
     0
 43
0.0
 10
87.09941645102965
 20
269.0259219377322
 10
83.26608311769632
 20
269.0259219377322
  0
LWPOLYLINE
  5
101148B
330
1F
100
AcDbEntity
  8
P
  6
Continuous
 62
     0
370
     0
100
AcDbPolyline
 90
        2
 70
     0
 43
0.0
 10
87.09941645102965
 20
269.0259219377322
 10
83.26608311769632
 20
269.0259219377322
  0
LWPOLYLINE
  5
101148C
330
1F
100
AcDbEntity
  8
P
  6
Continuous
 62
     0
370
     0
100
AcDbPolyline
 90
        2
 70
     0
 43
0.0
 10
87.09941645102965
 20
269.0259219377322
 10
87.09941645102965
 20
269.0259219377322
  0
LWPOLYLINE
  5
101148D
330
1F
100
AcDbEntity
  8
P
  6
Continuous
 62
     0
370
     0
100
AcDbPolyline
 90
        2
 70
     0
 43
0.0
 10
83.26608311769632
 20
269.0259219377322
 10
83.26608311769632
 20
269.0259219377322
  0
LWPOLYLINE
  5
101148E
330
1F
100
AcDbEntity
  8
P
  6
Continuous
 62
     0
370
     0
100
AcDbPolyline
 90
        2
 70
     0
 43
0.0
 10
83.26608311769632
 20
269.0259219377322
 10
83.26608311769632
 20
329.6092552710655
  0
LWPOLYLINE
  5
101148F
330
1F
100
AcDbEntity
  8
P
  6
Continuous
 62
     0
370
     0
100
AcDbPolyline
 90
        2
 70
     0
 43
0.0
 10
83.26608311769632
 20
269.0259219377322
 10
83.26608311769632
 20
329.6092552710655
  0
LWPOLYLINE
  5
1011490
330
1F
100
AcDbEntity
  8
P
  6
Continuous
 62
     0
370
     0
100
AcDbPolyline
 90
        2
 70
     0
 43
0.0
 10
83.26608311769632
 20
269.0259219377322
 10
83.26608311769632
 20
269.0259219377322
  0
LWPOLYLINE
  5
1011491
330
1F
100
AcDbEntity
  8
P
  6
Continuous
 62
     0
370
     0
100
AcDbPolyline
 90
        2
 70
     0
 43
0.0
 10
83.26608311769632
 20
329.6092552710655
 10
83.26608311769632
 20
329.6092552710655
  0
LWPOLYLINE
  5
1011492
330
1F
100
AcDbEntity
  8
P
  6
Continuous
 62
     0
370
     0
100
AcDbPolyline
 90
        2
 70
     0
 43
0.0
 10
87.09941645102965
 20
264.9425886043988
 10
152.432749784363
 20
265.0259219377322
  0
LWPOLYLINE
  5
1011493
330
1F
100
AcDbEntity
  8
P
  6
Continuous
 62
     0
370
     0
100
AcDbPolyline
 90
        2
 70
     0
 43
0.0
 10
87.09941645102965
 20
264.9425886043988
 10
152.432749784363
 20
265.0259219377322
  0
LWPOLYLINE
  5
1011494
330
1F
100
AcDbEntity
  8
P
  6
Continuous
 62
     0
370
     0
100
AcDbPolyline
 90
        2
 70
     0
 43
0.0
 10
87.09941645102965
 20
264.9425886043988
 10
87.09941645102965
 20
264.9425886043988
  0
LWPOLYLINE
  5
1011495
330
1F
100
AcDbEntity
  8
P
  6
Continuous
 62
     0
370
     0
100
AcDbPolyline
 90
        2
 70
     0
 43
0.0
 10
152.432749784363
 20
265.0259219377322
 10
152.432749784363
 20
265.0259219377322
  0
LWPOLYLINE
  5
1011496
330
1F
100
AcDbEntity
  8
P
  6
Continuous
 62
     0
370
     0
100
AcDbPolyline
 90
        2
 70
     0
 43
0.0
 10
155.5160831176963
 20
265.0259219377322
 10
191.682749784363
 20
265.0259219377322
  0
LWPOLYLINE
  5
1011497
330
1F
100
AcDbEntity
  8
P
  6
Continuous
 62
     0
370
     0
100
AcDbPolyline
 90
        2
 70
     0
 43
0.0
 10
155.5160831176963
 20
265.0259219377322
 10
191.682749784363
 20
265.0259219377322
  0
LWPOLYLINE
  5
1011498
330
1F
100
AcDbEntity
  8
P
  6
Continuous
 62
     0
370
     0
100
AcDbPolyline
 90
        2
 70
     0
 43
0.0
 10
155.5160831176963
 20
265.0259219377322
 10
155.5160831176963
 20
265.0259219377322
  0
LWPOLYLINE
  5
1011499
330
1F
100
AcDbEntity
  8
P
  6
Continuous
 62
     0
370
     0
100
AcDbPolyline
 90
        2
 70
     0
 43
0.0
 10
191.682749784363
 20
265.0259219377322
 10
191.682749784363
 20
265.0259219377322
  0
LWPOLYLINE
  5
101149A
330
1F
100
AcDbEntity
  8
P
  6
Continuous
 62
     0
370
     0
100
AcDbPolyline
 90
        2
 70
     0
 43
0.0
 10
87.09941645102965
 20
264.9425886043988
 10
87.09941645102965
 20
259.4425886043988
  0
LWPOLYLINE
  5
101149B
330
1F
100
AcDbEntity
  8
P
  6
Continuous
 62
     0
370
     0
100
AcDbPolyline
 90
        2
 70
     0
 43
0.0
 10
87.09941645102965
 20
264.9425886043988
 10
87.09941645102965
 20
259.4425886043988
  0
LWPOLYLINE
  5
101149C
330
1F
100
AcDbEntity
  8
P
  6
Continuous
 62
     0
370
     0
100
AcDbPolyline
 90
        2
 70
     0
 43
0.0
 10
87.09941645102965
 20
264.9425886043988
 10
87.09941645102965
 20
264.9425886043988
  0
LWPOLYLINE
  5
101149D
330
1F
100
AcDbEntity
  8
P
  6
Continuous
 62
     0
370
     0
100
AcDbPolyline
 90
        2
 70
     0
 43
0.0
 10
87.09941645102965
 20
259.4425886043988
 10
87.09941645102965
 20
259.4425886043988
  0
LWPOLYLINE
  5
101149E
330
1F
100
AcDbEntity
  8
P
  6
Continuous
 62
     0
370
     0
100
AcDbPolyline
 90
        2
 70
     0
 43
0.0
 10
83.26608311769632
 20
269.0259219377322
 10
81.26608311769633
 20
269.0259219377322
  0
LWPOLYLINE
  5
101149F
330
1F
100
AcDbEntity
  8
P
  6
Continuous
 62
     0
370
     0
100
AcDbPolyline
 90
        2
 70
     0
 43
0.0
 10
83.26608311769632
 20
269.0259219377322
 10
81.26608311769633
 20
269.0259219377322
  0
LWPOLYLINE
  5
10114A0
330
1F
100
AcDbEntity
  8
P
  6
Continuous
 62
     0
370
     0
100
AcDbPolyline
 90
        2
 70
     0
 43
0.0
 10
83.26608311769632
 20
269.0259219377322
 10
83.26608311769632
 20
269.0259219377322
  0
LWPOLYLINE
  5
10114A1
330
1F
100
AcDbEntity
  8
P
  6
Continuous
 62
     0
370
     0
100
AcDbPolyline
 90
        2
 70
     0
 43
0.0
 10
81.26608311769633
 20
269.0259219377322
 10
81.26608311769633
 20
269.0259219377322
  0
LWPOLYLINE
  5
10114A2
330
1F
100
AcDbEntity
  8
P
  6
Continuous
 62
     0
370
     0
100
AcDbPolyline
 90
        2
 70
     0
 43
0.0
 10
84.43274978436299
 20
269.0259219377322
 10
84.51608311769632
 20
268.1925886043988
  0
LWPOLYLINE
  5
10114A3
330
1F
100
AcDbEntity
  8
P
  6
Continuous
 62
     0
370
     0
100
AcDbPolyline
 90
        2
 70
     0
 43
0.0
 10
84.43274978436299
 20
269.0259219377322
 10
84.51608311769632
 20
268.1925886043988
  0
LWPOLYLINE
  5
10114A4
330
1F
100
AcDbEntity
  8
P
  6
Continuous
 62
     0
370
     0
100
AcDbPolyline
 90
        2
 70
     0
 43
0.0
 10
84.43274978436299
 20
269.0259219377322
 10
84.43274978436299
 20
269.0259219377322
  0
LWPOLYLINE
  5
10114A5
330
1F
100
AcDbEntity
  8
P
  6
Continuous
 62
     0
370
     0
100
AcDbPolyline
 90
        2
 70
     0
 43
0.0
 10
84.51608311769632
 20
268.1925886043988
 10
84.76608311769632
 20
267.3592552710655
  0
LWPOLYLINE
  5
10114A6
330
1F
100
AcDbEntity
  8
P
  6
Continuous
 62
     0
370
     0
100
AcDbPolyline
 90
        2
 70
     0
 43
0.0
 10
84.51608311769632
 20
268.1925886043988
 10
84.76608311769632
 20
267.3592552710655
  0
LWPOLYLINE
  5
10114A7
330
1F
100
AcDbEntity
  8
P
  6
Continuous
 62
     0
370
     0
100
AcDbPolyline
 90
        2
 70
     0
 43
0.0
 10
84.51608311769632
 20
268.1925886043988
 10
84.51608311769632
 20
268.1925886043988
  0
LWPOLYLINE
  5
10114A8
330
1F
100
AcDbEntity
  8
P
  6
Continuous
 62
     0
370
     0
100
AcDbPolyline
 90
        2
 70
     0
 43
0.0
 10
84.76608311769632
 20
267.3592552710655
 10
85.182749784363
 20
266.6092552710655
  0
LWPOLYLINE
  5
10114A9
330
1F
100
AcDbEntity
  8
P
  6
Continuous
 62
     0
370
     0
100
AcDbPolyline
 90
        2
 70
     0
 43
0.0
 10
84.76608311769632
 20
267.3592552710655
 10
85.182749784363
 20
266.6092552710655
  0
LWPOLYLINE
  5
10114AA
330
1F
100
AcDbEntity
  8
P
  6
Continuous
 62
     0
370
     0
100
AcDbPolyline
 90
        2
 70
     0
 43
0.0
 10
84.76608311769632
 20
267.3592552710655
 10
84.76608311769632
 20
267.3592552710655
  0
LWPOLYLINE
  5
10114AB
330
1F
100
AcDbEntity
  8
P
  6
Continuous
 62
     0
370
     0
100
AcDbPolyline
 90
        2
 70
     0
 43
0.0
 10
85.182749784363
 20
266.6092552710655
 10
85.68274978436299
 20
265.9425886043988
  0
LWPOLYLINE
  5
10114AC
330
1F
100
AcDbEntity
  8
P
  6
Continuous
 62
     0
370
     0
100
AcDbPolyline
 90
        2
 70
     0
 43
0.0
 10
85.182749784363
 20
266.6092552710655
 10
85.68274978436299
 20
265.9425886043988
  0
LWPOLYLINE
  5
10114AD
330
1F
100
AcDbEntity
  8
P
  6
Continuous
 62
     0
370
     0
100
AcDbPolyline
 90
        2
 70
     0
 43
0.0
 10
85.182749784363
 20
266.6092552710655
 10
85.182749784363
 20
266.6092552710655
  0
LWPOLYLINE
  5
10114AE
330
1F
100
AcDbEntity
  8
P
  6
Continuous
 62
     0
370
     0
100
AcDbPolyline
 90
        2
 70
     0
 43
0.0
 10
85.68274978436299
 20
265.9425886043988
 10
86.34941645102966
 20
265.4425886043988
  0
LWPOLYLINE
  5
10114AF
330
1F
100
AcDbEntity
  8
P
  6
Continuous
 62
     0
370
     0
100
AcDbPolyline
 90
        2
 70
     0
 43
0.0
 10
85.68274978436299
 20
265.9425886043988
 10
86.34941645102966
 20
265.4425886043988
  0
LWPOLYLINE
  5
10114B0
330
1F
100
AcDbEntity
  8
P
  6
Continuous
 62
     0
370
     0
100
AcDbPolyline
 90
        2
 70
     0
 43
0.0
 10
85.68274978436299
 20
265.9425886043988
 10
85.68274978436299
 20
265.9425886043988
  0
LWPOLYLINE
  5
10114B1
330
1F
100
AcDbEntity
  8
P
  6
Continuous
 62
     0
370
     0
100
AcDbPolyline
 90
        2
 70
     0
 43
0.0
 10
86.34941645102966
 20
265.4425886043988
 10
87.09941645102965
 20
265.0259219377322
  0
LWPOLYLINE
  5
10114B2
330
1F
100
AcDbEntity
  8
P
  6
Continuous
 62
     0
370
     0
100
AcDbPolyline
 90
        2
 70
     0
 43
0.0
 10
86.34941645102966
 20
265.4425886043988
 10
87.09941645102965
 20
265.0259219377322
  0
LWPOLYLINE
  5
10114B3
330
1F
100
AcDbEntity
  8
P
  6
Continuous
 62
     0
370
     0
100
AcDbPolyline
 90
        2
 70
     0
 43
0.0
 10
86.34941645102966
 20
265.4425886043988
 10
86.34941645102966
 20
265.4425886043988
  0
LWPOLYLINE
  5
10114B4
330
1F
100
AcDbEntity
  8
P
  6
Continuous
 62
     0
370
     0
100
AcDbPolyline
 90
        2
 70
     0
 43
0.0
 10
87.09941645102965
 20
265.0259219377322
 10
87.09941645102965
 20
265.0259219377322
  0
LWPOLYLINE
  5
10114B5
330
1F
100
AcDbEntity
  8
P
  6
Continuous
 62
     0
370
     0
100
AcDbPolyline
 90
        2
 70
     0
 43
0.0
 10
87.09941645102965
 20
269.8592552710656
 10
90.34941645102966
 20
264.9425886043988
  0
LWPOLYLINE
  5
10114B6
330
1F
100
AcDbEntity
  8
P
  6
Continuous
 62
     0
370
     0
100
AcDbPolyline
 90
        2
 70
     0
 43
0.0
 10
87.09941645102965
 20
269.8592552710656
 10
90.34941645102966
 20
264.9425886043988
  0
LWPOLYLINE
  5
10114B7
330
1F
100
AcDbEntity
  8
P
  6
Continuous
 62
     0
370
     0
100
AcDbPolyline
 90
        2
 70
     0
 43
0.0
 10
87.09941645102965
 20
269.8592552710656
 10
87.09941645102965
 20
269.8592552710656
  0
LWPOLYLINE
  5
10114B8
330
1F
100
AcDbEntity
  8
P
  6
Continuous
 62
     0
370
     0
100
AcDbPolyline
 90
        2
 70
     0
 43
0.0
 10
90.34941645102966
 20
264.9425886043988
 10
90.34941645102966
 20
264.9425886043988
  0
LWPOLYLINE
  5
10114B9
330
1F
100
AcDbEntity
  8
P
  6
Continuous
 62
     0
370
     0
100
AcDbPolyline
 90
        2
 70
     0
 43
0.0
 10
155.5160831176963
 20
265.0259219377322
 10
155.5160831176963
 20
261.0259219377322
  0
LWPOLYLINE
  5
10114BA
330
1F
100
AcDbEntity
  8
P
  6
Continuous
 62
     0
370
     0
100
AcDbPolyline
 90
        2
 70
     0
 43
0.0
 10
155.5160831176963
 20
265.0259219377322
 10
155.5160831176963
 20
261.0259219377322
  0
LWPOLYLINE
  5
10114BB
330
1F
100
AcDbEntity
  8
P
  6
Continuous
 62
     0
370
     0
100
AcDbPolyline
 90
        2
 70
     0
 43
0.0
 10
155.5160831176963
 20
265.0259219377322
 10
155.5160831176963
 20
265.0259219377322
  0
LWPOLYLINE
  5
10114BC
330
1F
100
AcDbEntity
  8
P
  6
Continuous
 62
     0
370
     0
100
AcDbPolyline
 90
        2
 70
     0
 43
0.0
 10
155.5160831176963
 20
261.0259219377322
 10
155.5160831176963
 20
261.0259219377322
  0
LWPOLYLINE
  5
10114BD
330
1F
100
AcDbEntity
  8
P
  6
Continuous
 62
     0
370
     0
100
AcDbPolyline
 90
        2
 70
     0
 43
0.0
 10
152.432749784363
 20
265.0259219377322
 10
152.432749784363
 20
261.0259219377322
  0
LWPOLYLINE
  5
10114BE
330
1F
100
AcDbEntity
  8
P
  6
Continuous
 62
     0
370
     0
100
AcDbPolyline
 90
        2
 70
     0
 43
0.0
 10
152.432749784363
 20
265.0259219377322
 10
152.432749784363
 20
261.0259219377322
  0
LWPOLYLINE
  5
10114BF
330
1F
100
AcDbEntity
  8
P
  6
Continuous
 62
     0
370
     0
100
AcDbPolyline
 90
        2
 70
     0
 43
0.0
 10
152.432749784363
 20
265.0259219377322
 10
152.432749784363
 20
265.0259219377322
  0
LWPOLYLINE
  5
10114C0
330
1F
100
AcDbEntity
  8
P
  6
Continuous
 62
     0
370
     0
100
AcDbPolyline
 90
        2
 70
     0
 43
0.0
 10
152.432749784363
 20
261.0259219377322
 10
152.432749784363
 20
261.0259219377322
  0
LWPOLYLINE
  5
10114C1
330
1F
100
AcDbEntity
  8
P
  6
Continuous
 62
     0
370
     0
100
AcDbPolyline
 90
        2
 70
     0
 43
0.0
 10
152.432749784363
 20
265.0259219377322
 10
153.432749784363
 20
264.7759219377322
  0
LWPOLYLINE
  5
10114C2
330
1F
100
AcDbEntity
  8
P
  6
Continuous
 62
     0
370
     0
100
AcDbPolyline
 90
        2
 70
     0
 43
0.0
 10
152.432749784363
 20
265.0259219377322
 10
153.432749784363
 20
264.7759219377322
  0
LWPOLYLINE
  5
10114C3
330
1F
100
AcDbEntity
  8
P
  6
Continuous
 62
     0
370
     0
100
AcDbPolyline
 90
        2
 70
     0
 43
0.0
 10
152.432749784363
 20
265.0259219377322
 10
152.432749784363
 20
265.0259219377322
  0
LWPOLYLINE
  5
10114C4
330
1F
100
AcDbEntity
  8
P
  6
Continuous
 62
     0
370
     0
100
AcDbPolyline
 90
        2
 70
     0
 43
0.0
 10
153.432749784363
 20
264.7759219377322
 10
154.5160831176963
 20
264.7759219377322
  0
LWPOLYLINE
  5
10114C5
330
1F
100
AcDbEntity
  8
P
  6
Continuous
 62
     0
370
     0
100
AcDbPolyline
 90
        2
 70
     0
 43
0.0
 10
153.432749784363
 20
264.7759219377322
 10
154.5160831176963
 20
264.7759219377322
  0
LWPOLYLINE
  5
10114C6
330
1F
100
AcDbEntity
  8
P
  6
Continuous
 62
     0
370
     0
100
AcDbPolyline
 90
        2
 70
     0
 43
0.0
 10
153.432749784363
 20
264.7759219377322
 10
153.432749784363
 20
264.7759219377322
  0
LWPOLYLINE
  5
10114C7
330
1F
100
AcDbEntity
  8
P
  6
Continuous
 62
     0
370
     0
100
AcDbPolyline
 90
        2
 70
     0
 43
0.0
 10
154.5160831176963
 20
264.7759219377322
 10
155.5160831176963
 20
265.0259219377322
  0
LWPOLYLINE
  5
10114C8
330
1F
100
AcDbEntity
  8
P
  6
Continuous
 62
     0
370
     0
100
AcDbPolyline
 90
        2
 70
     0
 43
0.0
 10
154.5160831176963
 20
264.7759219377322
 10
155.5160831176963
 20
265.0259219377322
  0
LWPOLYLINE
  5
10114C9
330
1F
100
AcDbEntity
  8
P
  6
Continuous
 62
     0
370
     0
100
AcDbPolyline
 90
        2
 70
     0
 43
0.0
 10
154.5160831176963
 20
264.7759219377322
 10
154.5160831176963
 20
264.7759219377322
  0
LWPOLYLINE
  5
10114CA
330
1F
100
AcDbEntity
  8
P
  6
Continuous
 62
     0
370
     0
100
AcDbPolyline
 90
        2
 70
     0
 43
0.0
 10
155.5160831176963
 20
265.0259219377322
 10
155.5160831176963
 20
265.0259219377322
  0
LWPOLYLINE
  5
10114CB
330
1F
100
AcDbEntity
  8
P
  6
Continuous
 62
     0
370
     0
100
AcDbPolyline
 90
        2
 70
     0
 43
0.0
 10
103.7660831176963
 20
292.5259219377322
 10
103.7660831176963
 20
267.7759219377322
  0
MTEXT
  5
10114CC
330
1F
100
AcDbEntity
  8
Text
  6
Continuous
 62
     7
370
     0
100
AcDbMText
 10
102.7660831176963
 20
297.2759219377321
 30
0.0
 40
3.25
 41
3.5
 46
0.0
 71
     4
 72
     5
  1
{\fHelveticaNeueLTPro|b0|i0|c1|p15;6}
 73
     2
 44
1.0
  0
LWPOLYLINE
  5
10114CD
330
1F
100
AcDbEntity
  8
P
  6
Continuous
 62
     0
370
     0
100
AcDbPolyline
 90
        2
 70
     0
 43
0.0
 10
112.3494164510296
 20
292.5259219377322
 10
112.3494164510296
 20
266.2759219377321
  0
MTEXT
  5
10114CE
330
1F
100
AcDbEntity
  8
Text
  6
Continuous
 62
     7
370
     0
100
AcDbMText
 10
111.3494164510296
 20
297.2759219377321
 30
0.0
 40
3.25
 41
3.5
 46
0.0
 71
     4
 72
     5
  1
{\fHelveticaNeueLTPro|b0|i0|c1|p15;7}
 73
     2
 44
1.0
  0
LWPOLYLINE
  5
10114CF
330
1F
100
AcDbEntity
  8
P
  6
Continuous
 62
     0
370
     0
100
AcDbPolyline
 90
        2
 70
     0
 43
0.0
 10
83.432749784363
 20
267.7759219377322
 10
103.5994164510296
 20
267.7759219377322
  0
LWPOLYLINE
  5
10114D0
330
1F
100
AcDbEntity
  8
P
  6
Continuous
 62
     0
370
     0
100
AcDbPolyline
 90
        2
 70
     0
 43
0.0
 10
88.18274978436299
 20
266.2759219377321
 10
112.3494164510296
 20
266.2759219377321
  0
LWPOLYLINE
  5
10114D1
330
1F
100
AcDbEntity
  8
P
  6
Continuous
 62
     0
370
     0
100
AcDbPolyline
 90
        2
 70
     0
 43
0.0
 10
87.09941645102965
 20
260.9425886043988
 10
191.8494164510296
 20
260.9425886043988
  0
LWPOLYLINE
  5
10114D2
330
1F
100
AcDbEntity
  8
P
  6
Continuous
 62
     0
370
     0
100
AcDbPolyline
 90
        2
 70
     0
 43
0.0
 10
87.09941645102965
 20
260.9425886043988
 10
191.8494164510296
 20
260.9425886043988
  0
LWPOLYLINE
  5
10114D3
330
1F
100
AcDbEntity
  8
P
  6
Continuous
 62
     0
370
     0
100
AcDbPolyline
 90
        2
 70
     0
 43
0.0
 10
87.09941645102965
 20
260.9425886043988
 10
87.09941645102965
 20
260.9425886043988
  0
LWPOLYLINE
  5
10114D4
330
1F
100
AcDbEntity
  8
P
  6
Continuous
 62
     0
370
     0
100
AcDbPolyline
 90
        2
 70
     0
 43
0.0
 10
191.8494164510296
 20
260.9425886043988
 10
191.8494164510296
 20
260.9425886043988
  0
HATCH
  5
10114D5
330
1F
100
AcDbEntity
  8
H
  6
Continuous
 62
     0
370
     0
100
AcDbHatch
 10
0.0
 20
0.0
 30
0.0
210
0.0
220
0.0
230
1.0
  2
SOLID
 70
     1
 71
     0
 91
        1
 92
        1
 93
        4
 72
     1
 10
82.76608311769633
 20
267.2759219377322
 11
83.76608311769633
 21
267.2759219377322
 72
     1
 10
83.76608311769633
 20
267.2759219377322
 11
83.76608311769633
 21
268.2759219377321
 72
     1
 10
83.76608311769633
 20
268.2759219377321
 11
82.76608311769633
 21
268.2759219377321
 72
     1
 10
82.76608311769633
 20
268.2759219377321
 11
82.76608311769633
 21
267.2759219377322
 97
        0
 75
     0
 76
     1
 98
        0
450
        0
451
        0
460
0.0
461
0.0
452
        0
462
0.0
453
        0
470

  0
HATCH
  5
10114D6
330
1F
100
AcDbEntity
  8
H
  6
Continuous
 62
     0
370
     0
100
AcDbHatch
 10
0.0
 20
0.0
 30
0.0
210
0.0
220
0.0
230
1.0
  2
SOLID
 70
     1
 71
     0
 91
        1
 92
        1
 93
        4
 72
     1
 10
87.682749784363
 20
265.7759219377322
 11
88.682749784363
 21
265.7759219377322
 72
     1
 10
88.682749784363
 20
265.7759219377322
 11
88.682749784363
 21
266.7759219377322
 72
     1
 10
88.682749784363
 20
266.7759219377322
 11
87.682749784363
 21
266.7759219377322
 72
     1
 10
87.682749784363
 20
266.7759219377322
 11
87.682749784363
 21
265.7759219377322
 97
        0
 75
     0
 76
     1
 98
        0
450
        0
451
        0
460
0.0
461
0.0
452
        0
462
0.0
453
        0
470

  0
HATCH
  5
10114D7
330
1F
100
AcDbEntity
  8
H
  6
Continuous
 62
     0
370
     0
100
AcDbHatch
 10
0.0
 20
0.0
 30
0.0
210
0.0
220
0.0
230
1.0
  2
SOLID
 70
     1
 71
     0
 91
        1
 92
        1
 93
        4
 72
     1
 10
153.432749784363
 20
262.5259219377322
 11
154.432749784363
 21
262.5259219377322
 72
     1
 10
154.432749784363
 20
262.5259219377322
 11
154.432749784363
 21
263.5259219377322
 72
     1
 10
154.432749784363
 20
263.5259219377322
 11
153.432749784363
 21
263.5259219377322
 72
     1
 10
153.432749784363
 20
263.5259219377322
 11
153.432749784363
 21
262.5259219377322
 97
        0
 75
     0
 76
     1
 98
        0
450
        0
451
        0
460
0.0
461
0.0
452
        0
462
0.0
453
        0
470

  0
HATCH
  5
10114D8
330
1F
100
AcDbEntity
  8
H
  6
Continuous
 62
     0
370
     0
100
AcDbHatch
 10
0.0
 20
0.0
 30
0.0
210
0.0
220
0.0
230
1.0
  2
SOLID
 70
     1
 71
     0
 91
        1
 92
        1
 93
        4
 72
     1
 10
171.7660831176963
 20
259.6925886043988
 11
172.7660831176963
 21
259.6925886043988
 72
     1
 10
172.7660831176963
 20
259.6925886043988
 11
172.7660831176963
 21
260.6925886043988
 72
     1
 10
172.7660831176963
 20
260.6925886043988
 11
171.7660831176963
 21
260.6925886043988
 72
     1
 10
171.7660831176963
 20
260.6925886043988
 11
171.7660831176963
 21
259.6925886043988
 97
        0
 75
     0
 76
     1
 98
        0
450
        0
451
        0
460
0.0
461
0.0
452
        0
462
0.0
453
        0
470

  0
LWPOLYLINE
  5
10114D9
330
1F
100
AcDbEntity
  8
P
  6
DASHDOT
 62
     0
370
     0
100
AcDbPolyline
 90
        2
 70
     0
 43
0.0
 10
191.8494164510296
 20
173.6092552710655
 10
191.8494164510296
 20
277.6092552710655
  0
LWPOLYLINE
  5
10114DA
330
1F
100
AcDbEntity
  8
P
  6
DASHDOT
 62
     0
370
     0
100
AcDbPolyline
 90
        2
 70
     0
 43
0.0
 10
29.84941645102966
 20
329.6092552710655
 10
96.51608311769633
 20
329.6092552710655
  0
LWPOLYLINE
  5
10114DB
330
1F
100
AcDbEntity
  8
P
  6
Continuous
 62
     0
370
     0
100
AcDbPolyline
 90
        2
 70
     0
 43
0.0
 10
80.34941645102966
 20
329.4425886043989
 10
80.34941645102966
 20
230.8592552710655
  0
LWPOLYLINE
  5
10114DC
330
1F
100
AcDbEntity
  8
P
  6
Continuous
 62
     0
370
     0
100
AcDbPolyline
 90
        2
 70
     0
 43
0.0
 10
80.34941645102966
 20
329.4425886043989
 10
80.34941645102966
 20
230.8592552710655
  0
LWPOLYLINE
  5
10114DD
330
1F
100
AcDbEntity
  8
P
  6
Continuous
 62
     0
370
     0
100
AcDbPolyline
 90
        2
 70
     0
 43
0.0
 10
80.34941645102966
 20
329.4425886043989
 10
80.34941645102966
 20
329.4425886043989
  0
LWPOLYLINE
  5
10114DE
330
1F
100
AcDbEntity
  8
P
  6
Continuous
 62
     0
370
     0
100
AcDbPolyline
 90
        2
 70
     0
 43
0.0
 10
80.34941645102966
 20
230.8592552710655
 10
80.34941645102966
 20
230.8592552710655
  0
LWPOLYLINE
  5
10114DF
330
1F
100
AcDbEntity
  8
P
  6
Continuous
 62
     0
370
     0
100
AcDbPolyline
 90
        2
 70
     0
 43
0.0
 10
86.76608311769632
 20
258.4425886043988
 10
191.682749784363
 20
258.4425886043988
  0
LWPOLYLINE
  5
10114E0
330
1F
100
AcDbEntity
  8
P
  6
Continuous
 62
     0
370
     0
100
AcDbPolyline
 90
        2
 70
     0
 43
0.0
 10
86.76608311769632
 20
258.4425886043988
 10
191.682749784363
 20
258.4425886043988
  0
LWPOLYLINE
  5
10114E1
330
1F
100
AcDbEntity
  8
P
  6
Continuous
 62
     0
370
     0
100
AcDbPolyline
 90
        2
 70
     0
 43
0.0
 10
86.76608311769632
 20
258.4425886043988
 10
86.76608311769632
 20
258.4425886043988
  0
LWPOLYLINE
  5
10114E2
330
1F
100
AcDbEntity
  8
P
  6
Continuous
 62
     0
370
     0
100
AcDbPolyline
 90
        2
 70
     0
 43
0.0
 10
191.682749784363
 20
258.4425886043988
 10
191.682749784363
 20
258.4425886043988
  0
HATCH
  5
10114E3
330
1F
100
AcDbEntity
  8
H
  6
Continuous
 62
     0
370
     0
100
AcDbHatch
 10
0.0
 20
0.0
 30
0.0
210
0.0
220
0.0
230
1.0
  2
SOLID
 70
     1
 71
     0
 91
        1
 92
        1
 93
        4
 72
     1
 10
135.2660831176963
 20
258.4425886043988
 11
136.2660831176963
 21
258.4425886043988
 72
     1
 10
136.2660831176963
 20
258.4425886043988
 11
136.2660831176963
 21
259.4425886043988
 72
     1
 10
136.2660831176963
 20
259.4425886043988
 11
135.2660831176963
 21
259.4425886043988
 72
     1
 10
135.2660831176963
 20
259.4425886043988
 11
135.2660831176963
 21
258.4425886043988
 97
        0
 75
     0
 76
     1
 98
        0
450
        0
451
        0
460
0.0
461
0.0
452
        0
462
0.0
453
        0
470

  0
MTEXT
  5
10114E4
330
1F
100
AcDbEntity
  8
Text
  6
Continuous
 62
     7
370
     0
100
AcDbMText
 10
102.7660831176963
 20
320.2759219377322
 30
0.0
 40
3.25
 41
3.5
 46
0.0
 71
     4
 72
     5
  1
{\fHelveticaNeueLTPro|b0|i0|c1|p15;1}
 73
     2
 44
1.0
  0
LWPOLYLINE
  5
10114E5
330
1F
100
AcDbEntity
  8
P
  6
Continuous
 62
     0
370
     0
100
AcDbPolyline
 90
        2
 70
     0
 43
0.0
 10
70.51608311769633
 20
320.3592552710655
 10
100.932749784363
 20
320.3592552710655
  0
HATCH
  5
10114E6
330
1F
100
AcDbEntity
  8
H
  6
Continuous
 62
     0
370
     0
100
AcDbHatch
 10
0.0
 20
0.0
 30
0.0
210
0.0
220
0.0
230
1.0
  2
SOLID
 70
     1
 71
     0
 91
        1
 92
        1
 93
        4
 72
     1
 10
70.01608311769633
 20
319.9425886043989
 11
71.01608311769632
 21
319.9425886043989
 72
     1
 10
71.01608311769632
 20
319.9425886043989
 11
71.01608311769632
 21
320.8592552710655
 72
     1
 10
71.01608311769632
 20
320.8592552710655
 11
70.01608311769633
 21
320.8592552710655
 72
     1
 10
70.01608311769633
 20
320.8592552710655
 11
70.01608311769633
 21
319.9425886043989
 97
        0
 75
     0
 76
     1
 98
        0
450
        0
451
        0
460
0.0
461
0.0
452
        0
462
0.0
453
        0
470

  0
LWPOLYLINE
  5
10114E7
330
1F
100
AcDbEntity
  8
P
  6
Continuous
 62
     0
370
     0
100
AcDbPolyline
 90
       13
 70
     0
 43
0.0
 10
80.43274978436299
 20
231.1925886043988
 10
80.76608311769632
 20
231.2759219377322
 10
81.182749784363
 20
231.3592552710655
 10
81.51608311769633
 20
231.5259219377322
 10
81.84941645102965
 20
231.6925886043988
 10
82.182749784363
 20
231.9425886043988
 10
82.432749784363
 20
232.2759219377322
 10
82.59941645102966
 20
232.6092552710655
 10
82.76608311769633
 20
233.0259219377321
 10
82.76608311769633
 20
233.2759219377322
 10
82.84941645102966
 20
233.6092552710655
 10
82.76608311769633
 20
233.9425886043988
 10
82.76608311769633
 20
234.1925886043988
  0
LWPOLYLINE
  5
10114E8
330
1F
100
AcDbEntity
  8
P
  6
Continuous
 62
     0
370
     0
100
AcDbPolyline
 90
       25
 70
     0
 43
0.0
 10
85.26608311769633
 20
238.2759219377322
 10
85.26608311769633
 20
238.5259219377322
 10
85.26608311769633
 20
238.7759219377322
 10
85.26608311769633
 20
239.1925886043988
 10
85.182749784363
 20
239.6092552710655
 10
85.01608311769633
 20
240.0259219377322
 10
84.682749784363
 20
240.4425886043988
 10
84.34941645102965
 20
240.7759219377322
 10
84.01608311769633
 20
241.0259219377322
 10
83.76608311769633
 20
241.1092552710655
 10
83.51608311769632
 20
241.1925886043988
 10
83.26608311769632
 20
241.1925886043988
 10
83.01608311769632
 20
241.1925886043988
 10
82.59941645102966
 20
241.1925886043988
 10
82.09941645102965
 20
241.1092552710655
 10
81.76608311769632
 20
240.9425886043988
 10
81.34941645102966
 20
240.6092552710655
 10
81.01608311769632
 20
240.2759219377322
 10
80.76608311769632
 20
239.9425886043988
 10
80.68274978436299
 20
239.6925886043988
 10
80.59941645102965
 20
239.4425886043988
 10
80.59941645102965
 20
239.1925886043988
 10
80.51608311769632
 20
238.8592552710655
 10
80.59941645102965
 20
238.5259219377322
 10
80.59941645102965
 20
238.2759219377322
  0
LWPOLYLINE
  5
10114E9
330
1F
100
AcDbEntity
  8
P
  6
Continuous
 62
     0
370
     0
100
AcDbPolyline
 90
       25
 70
     0
 43
0.0
 10
83.18274978436299
 20
234.1925886043988
 10
83.09941645102965
 20
233.9425886043988
 10
83.09941645102965
 20
233.6925886043988
 10
83.09941645102965
 20
233.2759219377322
 10
83.18274978436299
 20
232.7759219377321
 10
83.432749784363
 20
232.3592552710655
 10
83.682749784363
 20
232.0259219377322
 10
84.01608311769633
 20
231.6925886043988
 10
84.43274978436299
 20
231.4425886043988
 10
84.59941645102965
 20
231.3592552710655
 10
84.84941645102965
 20
231.2759219377322
 10
85.09941645102966
 20
231.2759219377322
 10
85.34941645102966
 20
231.1925886043988
 10
85.76608311769632
 20
231.2759219377322
 10
86.26608311769633
 20
231.3592552710655
 10
86.68274978436299
 20
231.5259219377322
 10
87.01608311769632
 20
231.7759219377322
 10
87.34941645102965
 20
232.1092552710655
 10
87.59941645102966
 20
232.5259219377322
 10
87.682749784363
 20
232.7759219377321
 10
87.76608311769633
 20
233.0259219377321
 10
87.76608311769633
 20
233.2759219377322
 10
87.84941645102966
 20
233.6092552710655
 10
87.76608311769633
 20
233.9425886043988
 10
87.76608311769633
 20
234.1925886043988
  0
LWPOLYLINE
  5
10114EA
330
1F
100
AcDbEntity
  8
P
  6
Continuous
 62
     0
370
     0
100
AcDbPolyline
 90
        2
 70
     0
 43
0.0
 10
85.26608311769633
 20
238.2759219377322
 10
83.18274978436299
 20
234.1925886043988
  0
LWPOLYLINE
  5
10114EB
330
1F
100
AcDbEntity
  8
P
  6
Continuous
 62
     0
370
     0
100
AcDbPolyline
 90
        2
 70
     0
 43
0.0
 10
82.76608311769633
 20
234.1925886043988
 10
80.59941645102965
 20
238.2759219377322
  0
LWPOLYLINE
  5
10114EC
330
1F
100
AcDbEntity
  8
P
  6
Continuous
 62
     0
370
     0
100
AcDbPolyline
 90
       25
 70
     0
 43
0.0
 10
90.182749784363
 20
238.2759219377322
 10
90.26608311769633
 20
238.5259219377322
 10
90.26608311769633
 20
238.7759219377322
 10
90.26608311769633
 20
239.1925886043988
 10
90.182749784363
 20
239.6092552710655
 10
89.932749784363
 20
240.0259219377322
 10
89.682749784363
 20
240.4425886043988
 10
89.34941645102965
 20
240.7759219377322
 10
88.932749784363
 20
241.0259219377322
 10
88.76608311769633
 20
241.1092552710655
 10
88.51608311769632
 20
241.1925886043988
 10
88.26608311769632
 20
241.1925886043988
 10
88.01608311769632
 20
241.1925886043988
 10
87.59941645102966
 20
241.1925886043988
 10
87.09941645102965
 20
241.1092552710655
 10
86.68274978436299
 20
240.9425886043988
 10
86.34941645102966
 20
240.6092552710655
 10
86.01608311769632
 20
240.2759219377322
 10
85.76608311769632
 20
239.9425886043988
 10
85.68274978436299
 20
239.6925886043988
 10
85.59941645102965
 20
239.4425886043988
 10
85.59941645102965
 20
239.1925886043988
 10
85.51608311769632
 20
238.8592552710655
 10
85.59941645102965
 20
238.5259219377322
 10
85.59941645102965
 20
238.2759219377322
  0
LWPOLYLINE
  5
10114ED
330
1F
100
AcDbEntity
  8
P
  6
Continuous
 62
     0
370
     0
100
AcDbPolyline
 90
       25
 70
     0
 43
0.0
 10
88.09941645102965
 20
234.1925886043988
 10
88.09941645102965
 20
233.9425886043988
 10
88.09941645102965
 20
233.6925886043988
 10
88.09941645102965
 20
233.2759219377322
 10
88.18274978436299
 20
232.7759219377321
 10
88.34941645102965
 20
232.3592552710655
 10
88.682749784363
 20
232.0259219377322
 10
89.01608311769633
 20
231.6925886043988
 10
89.34941645102965
 20
231.4425886043988
 10
89.59941645102965
 20
231.3592552710655
 10
89.84941645102965
 20
231.2759219377322
 10
90.09941645102966
 20
231.2759219377322
 10
90.34941645102966
 20
231.1925886043988
 10
90.76608311769632
 20
231.2759219377322
 10
91.26608311769633
 20
231.3592552710655
 10
91.59941645102966
 20
231.5259219377322
 10
92.01608311769632
 20
231.7759219377322
 10
92.34941645102965
 20
232.1092552710655
 10
92.59941645102966
 20
232.5259219377322
 10
92.682749784363
 20
232.7759219377321
 10
92.76608311769633
 20
233.0259219377321
 10
92.76608311769633
 20
233.2759219377322
 10
92.84941645102966
 20
233.6092552710655
 10
92.76608311769633
 20
233.9425886043988
 10
92.76608311769633
 20
234.1925886043988
  0
LWPOLYLINE
  5
10114EE
330
1F
100
AcDbEntity
  8
P
  6
Continuous
 62
     0
370
     0
100
AcDbPolyline
 90
        2
 70
     0
 43
0.0
 10
90.182749784363
 20
238.2759219377322
 10
88.09941645102965
 20
234.1925886043988
  0
LWPOLYLINE
  5
10114EF
330
1F
100
AcDbEntity
  8
P
  6
Continuous
 62
     0
370
     0
100
AcDbPolyline
 90
        2
 70
     0
 43
0.0
 10
87.76608311769633
 20
234.1925886043988
 10
85.59941645102965
 20
238.2759219377322
  0
LWPOLYLINE
  5
10114F0
330
1F
100
AcDbEntity
  8
P
  6
Continuous
 62
     0
370
     0
100
AcDbPolyline
 90
       25
 70
     0
 43
0.0
 10
95.182749784363
 20
238.2759219377322
 10
95.26608311769633
 20
238.5259219377322
 10
95.26608311769633
 20
238.7759219377322
 10
95.26608311769633
 20
239.1925886043988
 10
95.182749784363
 20
239.6092552710655
 10
94.932749784363
 20
240.0259219377322
 10
94.682749784363
 20
240.4425886043988
 10
94.34941645102965
 20
240.7759219377322
 10
93.932749784363
 20
241.0259219377322
 10
93.76608311769633
 20
241.1092552710655
 10
93.51608311769632
 20
241.1925886043988
 10
93.26608311769632
 20
241.1925886043988
 10
93.01608311769632
 20
241.1925886043988
 10
92.59941645102966
 20
241.1925886043988
 10
92.09941645102965
 20
241.1092552710655
 10
91.68274978436299
 20
240.9425886043988
 10
91.34941645102966
 20
240.6092552710655
 10
91.01608311769632
 20
240.2759219377322
 10
90.76608311769632
 20
239.9425886043988
 10
90.68274978436299
 20
239.6925886043988
 10
90.59941645102965
 20
239.4425886043988
 10
90.59941645102965
 20
239.1925886043988
 10
90.51608311769632
 20
238.8592552710655
 10
90.59941645102965
 20
238.5259219377322
 10
90.59941645102965
 20
238.2759219377322
  0
LWPOLYLINE
  5
10114F1
330
1F
100
AcDbEntity
  8
P
  6
Continuous
 62
     0
370
     0
100
AcDbPolyline
 90
       25
 70
     0
 43
0.0
 10
93.09941645102965
 20
234.1925886043988
 10
93.09941645102965
 20
233.9425886043988
 10
93.09941645102965
 20
233.6925886043988
 10
93.09941645102965
 20
233.2759219377322
 10
93.18274978436299
 20
232.7759219377321
 10
93.34941645102965
 20
232.3592552710655
 10
93.682749784363
 20
232.0259219377322
 10
94.01608311769633
 20
231.6925886043988
 10
94.34941645102965
 20
231.4425886043988
 10
94.59941645102965
 20
231.3592552710655
 10
94.84941645102965
 20
231.2759219377322
 10
95.09941645102966
 20
231.2759219377322
 10
95.34941645102966
 20
231.1925886043988
 10
95.76608311769632
 20
231.2759219377322
 10
96.182749784363
 20
231.3592552710655
 10
96.59941645102966
 20
231.5259219377322
 10
97.01608311769632
 20
231.7759219377322
 10
97.34941645102965
 20
232.1092552710655
 10
97.59941645102966
 20
232.5259219377322
 10
97.682749784363
 20
232.7759219377321
 10
97.76608311769633
 20
233.0259219377321
 10
97.76608311769633
 20
233.2759219377322
 10
97.76608311769633
 20
233.6092552710655
 10
97.76608311769633
 20
233.9425886043988
 10
97.76608311769633
 20
234.1925886043988
  0
LWPOLYLINE
  5
10114F2
330
1F
100
AcDbEntity
  8
P
  6
Continuous
 62
     0
370
     0
100
AcDbPolyline
 90
        2
 70
     0
 43
0.0
 10
95.182749784363
 20
238.2759219377322
 10
93.09941645102965
 20
234.1925886043988
  0
LWPOLYLINE
  5
10114F3
330
1F
100
AcDbEntity
  8
P
  6
Continuous
 62
     0
370
     0
100
AcDbPolyline
 90
        2
 70
     0
 43
0.0
 10
92.76608311769633
 20
234.1925886043988
 10
90.59941645102965
 20
238.2759219377322
  0
LWPOLYLINE
  5
10114F4
330
1F
100
AcDbEntity
  8
P
  6
Continuous
 62
     0
370
     0
100
AcDbPolyline
 90
       25
 70
     0
 43
0.0
 10
100.182749784363
 20
238.2759219377322
 10
100.2660831176963
 20
238.5259219377322
 10
100.2660831176963
 20
238.7759219377322
 10
100.2660831176963
 20
239.1925886043988
 10
100.182749784363
 20
239.6092552710655
 10
99.932749784363
 20
240.0259219377322
 10
99.682749784363
 20
240.4425886043988
 10
99.34941645102966
 20
240.7759219377322
 10
98.932749784363
 20
241.0259219377322
 10
98.76608311769633
 20
241.1092552710655
 10
98.51608311769632
 20
241.1925886043988
 10
98.26608311769632
 20
241.1925886043988
 10
98.01608311769633
 20
241.1925886043988
 10
97.59941645102966
 20
241.1925886043988
 10
97.09941645102965
 20
241.1092552710655
 10
96.68274978436301
 20
240.9425886043988
 10
96.34941645102966
 20
240.6092552710655
 10
96.01608311769632
 20
240.2759219377322
 10
95.76608311769632
 20
239.9425886043988
 10
95.68274978436299
 20
239.6925886043988
 10
95.59941645102965
 20
239.4425886043988
 10
95.59941645102965
 20
239.1925886043988
 10
95.51608311769632
 20
238.8592552710655
 10
95.59941645102965
 20
238.5259219377322
 10
95.59941645102965
 20
238.2759219377322
  0
LWPOLYLINE
  5
10114F5
330
1F
100
AcDbEntity
  8
P
  6
Continuous
 62
     0
370
     0
100
AcDbPolyline
 90
       25
 70
     0
 43
0.0
 10
98.09941645102966
 20
234.1925886043988
 10
98.09941645102966
 20
233.9425886043988
 10
98.01608311769633
 20
233.6925886043988
 10
98.09941645102966
 20
233.2759219377322
 10
98.18274978436299
 20
232.7759219377321
 10
98.34941645102965
 20
232.3592552710655
 10
98.682749784363
 20
232.0259219377322
 10
99.01608311769633
 20
231.6925886043988
 10
99.34941645102966
 20
231.4425886043988
 10
99.59941645102965
 20
231.3592552710655
 10
99.84941645102965
 20
231.2759219377322
 10
100.0994164510296
 20
231.2759219377322
 10
100.2660831176963
 20
231.1925886043988
 10
100.7660831176963
 20
231.2759219377322
 10
101.182749784363
 20
231.3592552710655
 10
101.5994164510296
 20
231.5259219377322
 10
102.0160831176963
 20
231.7759219377322
 10
102.3494164510296
 20
232.1092552710655
 10
102.5994164510296
 20
232.5259219377322
 10
102.682749784363
 20
232.7759219377321
 10
102.7660831176963
 20
233.0259219377321
 10
102.7660831176963
 20
233.2759219377322
 10
102.7660831176963
 20
233.6092552710655
 10
102.7660831176963
 20
233.9425886043988
 10
102.7660831176963
 20
234.1925886043988
  0
LWPOLYLINE
  5
10114F6
330
1F
100
AcDbEntity
  8
P
  6
Continuous
 62
     0
370
     0
100
AcDbPolyline
 90
        2
 70
     0
 43
0.0
 10
100.182749784363
 20
238.2759219377322
 10
98.09941645102966
 20
234.1925886043988
  0
LWPOLYLINE
  5
10114F7
330
1F
100
AcDbEntity
  8
P
  6
Continuous
 62
     0
370
     0
100
AcDbPolyline
 90
        2
 70
     0
 43
0.0
 10
97.76608311769633
 20
234.1925886043988
 10
95.59941645102965
 20
238.2759219377322
  0
LWPOLYLINE
  5
10114F8
330
1F
100
AcDbEntity
  8
P
  6
Continuous
 62
     0
370
     0
100
AcDbPolyline
 90
       25
 70
     0
 43
0.0
 10
105.182749784363
 20
238.2759219377322
 10
105.2660831176963
 20
238.5259219377322
 10
105.2660831176963
 20
238.7759219377322
 10
105.2660831176963
 20
239.1925886043988
 10
105.182749784363
 20
239.6092552710655
 10
104.932749784363
 20
240.0259219377322
 10
104.682749784363
 20
240.4425886043988
 10
104.3494164510296
 20
240.7759219377322
 10
103.932749784363
 20
241.0259219377322
 10
103.7660831176963
 20
241.1092552710655
 10
103.5160831176963
 20
241.1925886043988
 10
103.2660831176963
 20
241.1925886043988
 10
103.0160831176963
 20
241.1925886043988
 10
102.5994164510296
 20
241.1925886043988
 10
102.0994164510296
 20
241.1092552710655
 10
101.682749784363
 20
240.9425886043988
 10
101.3494164510296
 20
240.6092552710655
 10
101.0160831176963
 20
240.2759219377322
 10
100.7660831176963
 20
239.9425886043988
 10
100.682749784363
 20
239.6925886043988
 10
100.5994164510296
 20
239.4425886043988
 10
100.5994164510296
 20
239.1925886043988
 10
100.5160831176963
 20
238.8592552710655
 10
100.5994164510296
 20
238.5259219377322
 10
100.5994164510296
 20
238.2759219377322
  0
LWPOLYLINE
  5
10114F9
330
1F
100
AcDbEntity
  8
P
  6
Continuous
 62
     0
370
     0
100
AcDbPolyline
 90
       25
 70
     0
 43
0.0
 10
103.0994164510296
 20
234.1925886043988
 10
103.0994164510296
 20
233.9425886043988
 10
103.0160831176963
 20
233.6925886043988
 10
103.0994164510296
 20
233.2759219377322
 10
103.182749784363
 20
232.7759219377321
 10
103.3494164510296
 20
232.3592552710655
 10
103.682749784363
 20
232.0259219377322
 10
104.0160831176963
 20
231.6925886043988
 10
104.3494164510296
 20
231.4425886043988
 10
104.5994164510296
 20
231.3592552710655
 10
104.8494164510296
 20
231.2759219377322
 10
105.0994164510296
 20
231.2759219377322
 10
105.2660831176963
 20
231.1925886043988
 10
105.7660831176963
 20
231.2759219377322
 10
106.182749784363
 20
231.3592552710655
 10
106.5994164510296
 20
231.5259219377322
 10
107.0160831176963
 20
231.7759219377322
 10
107.3494164510296
 20
232.1092552710655
 10
107.5160831176963
 20
232.5259219377322
 10
107.682749784363
 20
232.7759219377321
 10
107.682749784363
 20
233.0259219377321
 10
107.7660831176963
 20
233.2759219377322
 10
107.7660831176963
 20
233.6092552710655
 10
107.7660831176963
 20
233.9425886043988
 10
107.682749784363
 20
234.1925886043988
  0
LWPOLYLINE
  5
10114FA
330
1F
100
AcDbEntity
  8
P
  6
Continuous
 62
     0
370
     0
100
AcDbPolyline
 90
        2
 70
     0
 43
0.0
 10
105.182749784363
 20
238.2759219377322
 10
103.0994164510296
 20
234.1925886043988
  0
LWPOLYLINE
  5
10114FB
330
1F
100
AcDbEntity
  8
P
  6
Continuous
 62
     0
370
     0
100
AcDbPolyline
 90
        2
 70
     0
 43
0.0
 10
102.7660831176963
 20
234.1925886043988
 10
100.5994164510296
 20
238.2759219377322
  0
LWPOLYLINE
  5
10114FC
330
1F
100
AcDbEntity
  8
P
  6
Continuous
 62
     0
370
     0
100
AcDbPolyline
 90
       25
 70
     0
 43
0.0
 10
110.182749784363
 20
238.2759219377322
 10
110.2660831176963
 20
238.5259219377322
 10
110.2660831176963
 20
238.7759219377322
 10
110.2660831176963
 20
239.1925886043988
 10
110.182749784363
 20
239.6092552710655
 10
109.932749784363
 20
240.0259219377322
 10
109.682749784363
 20
240.4425886043988
 10
109.3494164510296
 20
240.7759219377322
 10
108.932749784363
 20
241.0259219377322
 10
108.7660831176963
 20
241.1092552710655
 10
108.5160831176963
 20
241.1925886043988
 10
108.2660831176963
 20
241.1925886043988
 10
108.0160831176963
 20
241.1925886043988
 10
107.5994164510296
 20
241.1925886043988
 10
107.0994164510296
 20
241.1092552710655
 10
106.682749784363
 20
240.9425886043988
 10
106.3494164510296
 20
240.6092552710655
 10
106.0160831176963
 20
240.2759219377322
 10
105.7660831176963
 20
239.9425886043988
 10
105.682749784363
 20
239.6925886043988
 10
105.5994164510296
 20
239.4425886043988
 10
105.5160831176963
 20
239.1925886043988
 10
105.5160831176963
 20
238.8592552710655
 10
105.5160831176963
 20
238.5259219377322
 10
105.5994164510296
 20
238.2759219377322
  0
LWPOLYLINE
  5
10114FD
330
1F
100
AcDbEntity
  8
P
  6
Continuous
 62
     0
370
     0
100
AcDbPolyline
 90
       25
 70
     0
 43
0.0
 10
108.0994164510296
 20
234.1925886043988
 10
108.0994164510296
 20
233.9425886043988
 10
108.0160831176963
 20
233.6925886043988
 10
108.0994164510296
 20
233.2759219377322
 10
108.182749784363
 20
232.7759219377321
 10
108.3494164510296
 20
232.3592552710655
 10
108.682749784363
 20
232.0259219377322
 10
109.0160831176963
 20
231.6925886043988
 10
109.3494164510296
 20
231.4425886043988
 10
109.5994164510296
 20
231.3592552710655
 10
109.8494164510296
 20
231.2759219377322
 10
110.0994164510296
 20
231.2759219377322
 10
110.2660831176963
 20
231.1925886043988
 10
110.7660831176963
 20
231.2759219377322
 10
111.182749784363
 20
231.3592552710655
 10
111.5994164510296
 20
231.5259219377322
 10
112.0160831176963
 20
231.7759219377322
 10
112.2660831176963
 20
232.1092552710655
 10
112.5160831176963
 20
232.5259219377322
 10
112.682749784363
 20
232.7759219377321
 10
112.682749784363
 20
233.0259219377321
 10
112.7660831176963
 20
233.2759219377322
 10
112.7660831176963
 20
233.6092552710655
 10
112.7660831176963
 20
233.9425886043988
 10
112.682749784363
 20
234.1925886043988
  0
LWPOLYLINE
  5
10114FE
330
1F
100
AcDbEntity
  8
P
  6
Continuous
 62
     0
370
     0
100
AcDbPolyline
 90
        2
 70
     0
 43
0.0
 10
110.182749784363
 20
238.2759219377322
 10
108.0994164510296
 20
234.1925886043988
  0
LWPOLYLINE
  5
10114FF
330
1F
100
AcDbEntity
  8
P
  6
Continuous
 62
     0
370
     0
100
AcDbPolyline
 90
        2
 70
     0
 43
0.0
 10
107.682749784363
 20
234.1925886043988
 10
105.5994164510296
 20
238.2759219377322
  0
LWPOLYLINE
  5
1011500
330
1F
100
AcDbEntity
  8
P
  6
Continuous
 62
     0
370
     0
100
AcDbPolyline
 90
       25
 70
     0
 43
0.0
 10
115.182749784363
 20
238.2759219377322
 10
115.2660831176963
 20
238.5259219377322
 10
115.2660831176963
 20
238.7759219377322
 10
115.2660831176963
 20
239.1925886043988
 10
115.182749784363
 20
239.6092552710655
 10
114.932749784363
 20
240.0259219377322
 10
114.682749784363
 20
240.4425886043988
 10
114.3494164510296
 20
240.7759219377322
 10
113.932749784363
 20
241.0259219377322
 10
113.7660831176963
 20
241.1092552710655
 10
113.5160831176963
 20
241.1925886043988
 10
113.2660831176963
 20
241.1925886043988
 10
113.0160831176963
 20
241.1925886043988
 10
112.5994164510296
 20
241.1925886043988
 10
112.0994164510296
 20
241.1092552710655
 10
111.682749784363
 20
240.9425886043988
 10
111.3494164510296
 20
240.6092552710655
 10
111.0160831176963
 20
240.2759219377322
 10
110.7660831176963
 20
239.9425886043988
 10
110.682749784363
 20
239.6925886043988
 10
110.5994164510296
 20
239.4425886043988
 10
110.5160831176963
 20
239.1925886043988
 10
110.5160831176963
 20
238.8592552710655
 10
110.5160831176963
 20
238.5259219377322
 10
110.5994164510296
 20
238.2759219377322
  0
LWPOLYLINE
  5
1011501
330
1F
100
AcDbEntity
  8
P
  6
Continuous
 62
     0
370
     0
100
AcDbPolyline
 90
        2
 70
     0
 43
0.0
 10
115.182749784363
 20
238.2759219377322
 10
113.0994164510296
 20
234.1925886043988
  0
LWPOLYLINE
  5
1011502
330
1F
100
AcDbEntity
  8
P
  6
Continuous
 62
     0
370
     0
100
AcDbPolyline
 90
        2
 70
     0
 43
0.0
 10
112.682749784363
 20
234.1925886043988
 10
110.5994164510296
 20
238.2759219377322
  0
LWPOLYLINE
  5
1011503
330
1F
100
AcDbEntity
  8
P
  6
Continuous
 62
     0
370
     0
100
AcDbPolyline
 90
       25
 70
     0
 43
0.0
 10
113.0994164510296
 20
234.1925886043988
 10
113.0994164510296
 20
233.9425886043988
 10
113.0160831176963
 20
233.6925886043988
 10
113.0994164510296
 20
233.2759219377322
 10
113.182749784363
 20
232.7759219377321
 10
113.3494164510296
 20
232.3592552710655
 10
113.5994164510296
 20
232.0259219377322
 10
113.932749784363
 20
231.6925886043988
 10
114.3494164510296
 20
231.4425886043988
 10
114.5994164510296
 20
231.3592552710655
 10
114.8494164510296
 20
231.2759219377322
 10
115.0160831176963
 20
231.2759219377322
 10
115.2660831176963
 20
231.1925886043988
 10
115.7660831176963
 20
231.2759219377322
 10
116.182749784363
 20
231.3592552710655
 10
116.5994164510296
 20
231.5259219377322
 10
117.0160831176963
 20
231.7759219377322
 10
117.2660831176963
 20
232.1092552710655
 10
117.5160831176963
 20
232.5259219377322
 10
117.5994164510296
 20
232.7759219377321
 10
117.682749784363
 20
233.0259219377321
 10
117.7660831176963
 20
233.2759219377322
 10
117.7660831176963
 20
233.6092552710655
 10
117.7660831176963
 20
233.9425886043988
 10
117.682749784363
 20
234.1925886043988
  0
LWPOLYLINE
  5
1011504
330
1F
100
AcDbEntity
  8
P
  6
Continuous
 62
     0
370
     0
100
AcDbPolyline
 90
       25
 70
     0
 43
0.0
 10
120.182749784363
 20
238.2759219377322
 10
120.2660831176963
 20
238.5259219377322
 10
120.2660831176963
 20
238.7759219377322
 10
120.2660831176963
 20
239.1925886043988
 10
120.0994164510296
 20
239.6092552710655
 10
119.932749784363
 20
240.0259219377322
 10
119.682749784363
 20
240.4425886043988
 10
119.3494164510296
 20
240.7759219377322
 10
118.932749784363
 20
241.0259219377322
 10
118.7660831176963
 20
241.1092552710655
 10
118.5160831176963
 20
241.1925886043988
 10
118.2660831176963
 20
241.1925886043988
 10
118.0160831176963
 20
241.1925886043988
 10
117.5160831176963
 20
241.1925886043988
 10
117.0994164510296
 20
241.1092552710655
 10
116.682749784363
 20
240.9425886043988
 10
116.3494164510296
 20
240.6092552710655
 10
116.0160831176963
 20
240.2759219377322
 10
115.7660831176963
 20
239.9425886043988
 10
115.682749784363
 20
239.6925886043988
 10
115.5994164510296
 20
239.4425886043988
 10
115.5160831176963
 20
239.1925886043988
 10
115.5160831176963
 20
238.8592552710655
 10
115.5160831176963
 20
238.5259219377322
 10
115.5994164510296
 20
238.2759219377322
  0
LWPOLYLINE
  5
1011505
330
1F
100
AcDbEntity
  8
P
  6
Continuous
 62
     0
370
     0
100
AcDbPolyline
 90
       25
 70
     0
 43
0.0
 10
118.0994164510296
 20
234.1925886043988
 10
118.0994164510296
 20
233.9425886043988
 10
118.0160831176963
 20
233.6925886043988
 10
118.0994164510296
 20
233.2759219377322
 10
118.182749784363
 20
232.7759219377321
 10
118.3494164510296
 20
232.3592552710655
 10
118.5994164510296
 20
232.0259219377322
 10
118.932749784363
 20
231.6925886043988
 10
119.3494164510296
 20
231.4425886043988
 10
119.5994164510296
 20
231.3592552710655
 10
119.8494164510296
 20
231.2759219377322
 10
120.0160831176963
 20
231.2759219377322
 10
120.2660831176963
 20
231.1925886043988
 10
120.7660831176963
 20
231.2759219377322
 10
121.182749784363
 20
231.3592552710655
 10
121.5994164510296
 20
231.5259219377322
 10
122.0160831176963
 20
231.7759219377322
 10
122.2660831176963
 20
232.1092552710655
 10
122.5160831176963
 20
232.5259219377322
 10
122.5994164510296
 20
232.7759219377321
 10
122.682749784363
 20
233.0259219377321
 10
122.7660831176963
 20
233.2759219377322
 10
122.7660831176963
 20
233.6092552710655
 10
122.7660831176963
 20
233.9425886043988
 10
122.682749784363
 20
234.1925886043988
  0
LWPOLYLINE
  5
1011506
330
1F
100
AcDbEntity
  8
P
  6
Continuous
 62
     0
370
     0
100
AcDbPolyline
 90
        2
 70
     0
 43
0.0
 10
120.182749784363
 20
238.2759219377322
 10
118.0994164510296
 20
234.1925886043988
  0
LWPOLYLINE
  5
1011507
330
1F
100
AcDbEntity
  8
P
  6
Continuous
 62
     0
370
     0
100
AcDbPolyline
 90
        2
 70
     0
 43
0.0
 10
117.682749784363
 20
234.1925886043988
 10
115.5994164510296
 20
238.2759219377322
  0
LWPOLYLINE
  5
1011508
330
1F
100
AcDbEntity
  8
P
  6
Continuous
 62
     0
370
     0
100
AcDbPolyline
 90
       25
 70
     0
 43
0.0
 10
125.182749784363
 20
238.2759219377322
 10
125.2660831176963
 20
238.5259219377322
 10
125.2660831176963
 20
238.7759219377322
 10
125.2660831176963
 20
239.1925886043988
 10
125.0994164510296
 20
239.6092552710655
 10
124.932749784363
 20
240.0259219377322
 10
124.682749784363
 20
240.4425886043988
 10
124.3494164510296
 20
240.7759219377322
 10
123.932749784363
 20
241.0259219377322
 10
123.7660831176963
 20
241.1092552710655
 10
123.5160831176963
 20
241.1925886043988
 10
123.2660831176963
 20
241.1925886043988
 10
123.0160831176963
 20
241.1925886043988
 10
122.5160831176963
 20
241.1925886043988
 10
122.0994164510296
 20
241.1092552710655
 10
121.682749784363
 20
240.9425886043988
 10
121.3494164510296
 20
240.6092552710655
 10
121.0160831176963
 20
240.2759219377322
 10
120.7660831176963
 20
239.9425886043988
 10
120.682749784363
 20
239.6925886043988
 10
120.5994164510296
 20
239.4425886043988
 10
120.5160831176963
 20
239.1925886043988
 10
120.5160831176963
 20
238.8592552710655
 10
120.5160831176963
 20
238.5259219377322
 10
120.5994164510296
 20
238.2759219377322
  0
LWPOLYLINE
  5
1011509
330
1F
100
AcDbEntity
  8
P
  6
Continuous
 62
     0
370
     0
100
AcDbPolyline
 90
       25
 70
     0
 43
0.0
 10
123.0994164510296
 20
234.1925886043988
 10
123.0994164510296
 20
233.9425886043988
 10
123.0160831176963
 20
233.6925886043988
 10
123.0994164510296
 20
233.2759219377322
 10
123.182749784363
 20
232.7759219377321
 10
123.3494164510296
 20
232.3592552710655
 10
123.5994164510296
 20
232.0259219377322
 10
123.932749784363
 20
231.6925886043988
 10
124.3494164510296
 20
231.4425886043988
 10
124.5994164510296
 20
231.3592552710655
 10
124.8494164510296
 20
231.2759219377322
 10
125.0160831176963
 20
231.2759219377322
 10
125.2660831176963
 20
231.1925886043988
 10
125.7660831176963
 20
231.2759219377322
 10
126.182749784363
 20
231.3592552710655
 10
126.5994164510296
 20
231.5259219377322
 10
127.0160831176963
 20
231.7759219377322
 10
127.2660831176963
 20
232.1092552710655
 10
127.5160831176963
 20
232.5259219377322
 10
127.5994164510296
 20
232.7759219377321
 10
127.682749784363
 20
233.0259219377321
 10
127.7660831176963
 20
233.2759219377322
 10
127.7660831176963
 20
233.6092552710655
 10
127.7660831176963
 20
233.9425886043988
 10
127.682749784363
 20
234.1925886043988
  0
LWPOLYLINE
  5
101150A
330
1F
100
AcDbEntity
  8
P
  6
Continuous
 62
     0
370
     0
100
AcDbPolyline
 90
        2
 70
     0
 43
0.0
 10
125.182749784363
 20
238.2759219377322
 10
123.0994164510296
 20
234.1925886043988
  0
LWPOLYLINE
  5
101150B
330
1F
100
AcDbEntity
  8
P
  6
Continuous
 62
     0
370
     0
100
AcDbPolyline
 90
        2
 70
     0
 43
0.0
 10
122.682749784363
 20
234.1925886043988
 10
120.5994164510296
 20
238.2759219377322
  0
LWPOLYLINE
  5
101150C
330
1F
100
AcDbEntity
  8
P
  6
Continuous
 62
     0
370
     0
100
AcDbPolyline
 90
       25
 70
     0
 43
0.0
 10
130.182749784363
 20
238.2759219377322
 10
130.2660831176963
 20
238.5259219377322
 10
130.2660831176963
 20
238.7759219377322
 10
130.2660831176963
 20
239.1925886043988
 10
130.0994164510296
 20
239.6092552710655
 10
129.932749784363
 20
240.0259219377322
 10
129.682749784363
 20
240.4425886043988
 10
129.3494164510296
 20
240.7759219377322
 10
128.9327497843629
 20
241.0259219377322
 10
128.682749784363
 20
241.1092552710655
 10
128.5160831176963
 20
241.1925886043988
 10
128.2660831176963
 20
241.1925886043988
 10
128.0160831176963
 20
241.1925886043988
 10
127.5160831176963
 20
241.1925886043988
 10
127.0994164510296
 20
241.1092552710655
 10
126.682749784363
 20
240.9425886043988
 10
126.3494164510296
 20
240.6092552710655
 10
126.0160831176963
 20
240.2759219377322
 10
125.7660831176963
 20
239.9425886043988
 10
125.682749784363
 20
239.6925886043988
 10
125.5994164510296
 20
239.4425886043988
 10
125.5160831176963
 20
239.1925886043988
 10
125.5160831176963
 20
238.8592552710655
 10
125.5160831176963
 20
238.5259219377322
 10
125.5994164510296
 20
238.2759219377322
  0
LWPOLYLINE
  5
101150D
330
1F
100
AcDbEntity
  8
P
  6
Continuous
 62
     0
370
     0
100
AcDbPolyline
 90
       25
 70
     0
 43
0.0
 10
128.0994164510296
 20
234.1925886043988
 10
128.0160831176963
 20
233.9425886043988
 10
128.0160831176963
 20
233.6925886043988
 10
128.0160831176963
 20
233.2759219377322
 10
128.182749784363
 20
232.7759219377321
 10
128.3494164510296
 20
232.3592552710655
 10
128.5994164510297
 20
232.0259219377322
 10
128.9327497843629
 20
231.6925886043988
 10
129.3494164510296
 20
231.4425886043988
 10
129.5994164510297
 20
231.3592552710655
 10
129.7660831176963
 20
231.2759219377322
 10
130.0160831176963
 20
231.2759219377322
 10
130.2660831176963
 20
231.1925886043988
 10
130.7660831176963
 20
231.2759219377322
 10
131.182749784363
 20
231.3592552710655
 10
131.5994164510296
 20
231.5259219377322
 10
132.0160831176963
 20
231.7759219377322
 10
132.2660831176963
 20
232.1092552710655
 10
132.5160831176963
 20
232.5259219377322
 10
132.5994164510296
 20
232.7759219377321
 10
132.682749784363
 20
233.0259219377321
 10
132.7660831176963
 20
233.2759219377322
 10
132.7660831176963
 20
233.6092552710655
 10
132.7660831176963
 20
233.9425886043988
 10
132.682749784363
 20
234.1925886043988
  0
LWPOLYLINE
  5
101150E
330
1F
100
AcDbEntity
  8
P
  6
Continuous
 62
     0
370
     0
100
AcDbPolyline
 90
        2
 70
     0
 43
0.0
 10
130.182749784363
 20
238.2759219377322
 10
128.0994164510296
 20
234.1925886043988
  0
LWPOLYLINE
  5
101150F
330
1F
100
AcDbEntity
  8
P
  6
Continuous
 62
     0
370
     0
100
AcDbPolyline
 90
        2
 70
     0
 43
0.0
 10
127.682749784363
 20
234.1925886043988
 10
125.5994164510296
 20
238.2759219377322
  0
LWPOLYLINE
  5
1011510
330
1F
100
AcDbEntity
  8
P
  6
Continuous
 62
     0
370
     0
100
AcDbPolyline
 90
       25
 70
     0
 43
0.0
 10
135.1827497843629
 20
238.2759219377322
 10
135.2660831176963
 20
238.5259219377322
 10
135.2660831176963
 20
238.7759219377322
 10
135.2660831176963
 20
239.1925886043988
 10
135.0994164510296
 20
239.6092552710655
 10
134.932749784363
 20
240.0259219377322
 10
134.682749784363
 20
240.4425886043988
 10
134.3494164510296
 20
240.7759219377322
 10
133.932749784363
 20
241.0259219377322
 10
133.682749784363
 20
241.1092552710655
 10
133.5160831176963
 20
241.1925886043988
 10
133.2660831176963
 20
241.1925886043988
 10
133.0160831176963
 20
241.1925886043988
 10
132.5160831176963
 20
241.1925886043988
 10
132.0994164510296
 20
241.1092552710655
 10
131.682749784363
 20
240.9425886043988
 10
131.3494164510296
 20
240.6092552710655
 10
131.0160831176963
 20
240.2759219377322
 10
130.7660831176963
 20
239.9425886043988
 10
130.682749784363
 20
239.6925886043988
 10
130.5994164510297
 20
239.4425886043988
 10
130.5160831176963
 20
239.1925886043988
 10
130.5160831176963
 20
238.8592552710655
 10
130.5160831176963
 20
238.5259219377322
 10
130.5994164510297
 20
238.2759219377322
  0
LWPOLYLINE
  5
1011511
330
1F
100
AcDbEntity
  8
P
  6
Continuous
 62
     0
370
     0
100
AcDbPolyline
 90
       25
 70
     0
 43
0.0
 10
133.0994164510296
 20
234.1925886043988
 10
133.0160831176963
 20
233.9425886043988
 10
133.0160831176963
 20
233.6925886043988
 10
133.0160831176963
 20
233.2759219377322
 10
133.1827497843629
 20
232.7759219377321
 10
133.3494164510296
 20
232.3592552710655
 10
133.5994164510296
 20
232.0259219377322
 10
133.932749784363
 20
231.6925886043988
 10
134.3494164510296
 20
231.4425886043988
 10
134.5994164510296
 20
231.3592552710655
 10
134.7660831176963
 20
231.2759219377322
 10
135.0160831176963
 20
231.2759219377322
 10
135.2660831176963
 20
231.1925886043988
 10
135.7660831176963
 20
231.2759219377322
 10
136.1827497843629
 20
231.3592552710655
 10
136.5994164510296
 20
231.5259219377322
 10
136.932749784363
 20
231.7759219377322
 10
137.2660831176963
 20
232.1092552710655
 10
137.5160831176963
 20
232.5259219377322
 10
137.5994164510296
 20
232.7759219377321
 10
137.682749784363
 20
233.0259219377321
 10
137.7660831176963
 20
233.2759219377322
 10
137.7660831176963
 20
233.6092552710655
 10
137.7660831176963
 20
233.9425886043988
 10
137.682749784363
 20
234.1925886043988
  0
LWPOLYLINE
  5
1011512
330
1F
100
AcDbEntity
  8
P
  6
Continuous
 62
     0
370
     0
100
AcDbPolyline
 90
        2
 70
     0
 43
0.0
 10
135.1827497843629
 20
238.2759219377322
 10
133.0994164510296
 20
234.1925886043988
  0
LWPOLYLINE
  5
1011513
330
1F
100
AcDbEntity
  8
P
  6
Continuous
 62
     0
370
     0
100
AcDbPolyline
 90
        2
 70
     0
 43
0.0
 10
132.682749784363
 20
234.1925886043988
 10
130.5994164510297
 20
238.2759219377322
  0
LWPOLYLINE
  5
1011514
330
1F
100
AcDbEntity
  8
P
  6
Continuous
 62
     0
370
     0
100
AcDbPolyline
 90
       25
 70
     0
 43
0.0
 10
140.182749784363
 20
238.2759219377322
 10
140.2660831176963
 20
238.5259219377322
 10
140.2660831176963
 20
238.7759219377322
 10
140.2660831176963
 20
239.1925886043988
 10
140.0994164510296
 20
239.6092552710655
 10
139.932749784363
 20
240.0259219377322
 10
139.682749784363
 20
240.4425886043988
 10
139.3494164510296
 20
240.7759219377322
 10
138.932749784363
 20
241.0259219377322
 10
138.682749784363
 20
241.1092552710655
 10
138.5160831176963
 20
241.1925886043988
 10
138.2660831176963
 20
241.1925886043988
 10
138.0160831176963
 20
241.1925886043988
 10
137.5160831176963
 20
241.1925886043988
 10
137.0994164510296
 20
241.1092552710655
 10
136.682749784363
 20
240.9425886043988
 10
136.3494164510296
 20
240.6092552710655
 10
136.0160831176963
 20
240.2759219377322
 10
135.7660831176963
 20
239.9425886043988
 10
135.682749784363
 20
239.6925886043988
 10
135.5994164510296
 20
239.4425886043988
 10
135.5160831176963
 20
239.1925886043988
 10
135.5160831176963
 20
238.8592552710655
 10
135.5160831176963
 20
238.5259219377322
 10
135.5994164510296
 20
238.2759219377322
  0
LWPOLYLINE
  5
1011515
330
1F
100
AcDbEntity
  8
P
  6
Continuous
 62
     0
370
     0
100
AcDbPolyline
 90
       25
 70
     0
 43
0.0
 10
138.0994164510297
 20
234.1925886043988
 10
138.0160831176963
 20
233.9425886043988
 10
138.0160831176963
 20
233.6925886043988
 10
138.0160831176963
 20
233.2759219377322
 10
138.182749784363
 20
232.7759219377321
 10
138.3494164510296
 20
232.3592552710655
 10
138.5994164510296
 20
232.0259219377322
 10
138.932749784363
 20
231.6925886043988
 10
139.3494164510296
 20
231.4425886043988
 10
139.5994164510296
 20
231.3592552710655
 10
139.7660831176963
 20
231.2759219377322
 10
140.0160831176963
 20
231.2759219377322
 10
140.2660831176963
 20
231.1925886043988
 10
140.7660831176963
 20
231.2759219377322
 10
141.182749784363
 20
231.3592552710655
 10
141.5994164510296
 20
231.5259219377322
 10
141.932749784363
 20
231.7759219377322
 10
142.2660831176963
 20
232.1092552710655
 10
142.5160831176963
 20
232.5259219377322
 10
142.5994164510296
 20
232.7759219377321
 10
142.682749784363
 20
233.0259219377321
 10
142.7660831176963
 20
233.2759219377322
 10
142.7660831176963
 20
233.6092552710655
 10
142.7660831176963
 20
233.9425886043988
 10
142.682749784363
 20
234.1925886043988
  0
LWPOLYLINE
  5
1011516
330
1F
100
AcDbEntity
  8
P
  6
Continuous
 62
     0
370
     0
100
AcDbPolyline
 90
        2
 70
     0
 43
0.0
 10
140.182749784363
 20
238.2759219377322
 10
138.0994164510297
 20
234.1925886043988
  0
LWPOLYLINE
  5
1011517
330
1F
100
AcDbEntity
  8
P
  6
Continuous
 62
     0
370
     0
100
AcDbPolyline
 90
        2
 70
     0
 43
0.0
 10
137.682749784363
 20
234.1925886043988
 10
135.5994164510296
 20
238.2759219377322
  0
LWPOLYLINE
  5
1011518
330
1F
100
AcDbEntity
  8
P
  6
Continuous
 62
     0
370
     0
100
AcDbPolyline
 90
       25
 70
     0
 43
0.0
 10
145.182749784363
 20
238.2759219377322
 10
145.2660831176963
 20
238.5259219377322
 10
145.2660831176963
 20
238.7759219377322
 10
145.2660831176963
 20
239.1925886043988
 10
145.0994164510296
 20
239.6092552710655
 10
144.932749784363
 20
240.0259219377322
 10
144.682749784363
 20
240.4425886043988
 10
144.3494164510297
 20
240.7759219377322
 10
143.932749784363
 20
241.0259219377322
 10
143.682749784363
 20
241.1092552710655
 10
143.5160831176963
 20
241.1925886043988
 10
143.2660831176963
 20
241.1925886043988
 10
143.0160831176963
 20
241.1925886043988
 10
142.5160831176963
 20
241.1925886043988
 10
142.0994164510297
 20
241.1092552710655
 10
141.682749784363
 20
240.9425886043988
 10
141.3494164510296
 20
240.6092552710655
 10
141.0160831176963
 20
240.2759219377322
 10
140.7660831176963
 20
239.9425886043988
 10
140.682749784363
 20
239.6925886043988
 10
140.5994164510296
 20
239.4425886043988
 10
140.5160831176963
 20
239.1925886043988
 10
140.5160831176963
 20
238.8592552710655
 10
140.5160831176963
 20
238.5259219377322
 10
140.5994164510296
 20
238.2759219377322
  0
LWPOLYLINE
  5
1011519
330
1F
100
AcDbEntity
  8
P
  6
Continuous
 62
     0
370
     0
100
AcDbPolyline
 90
       25
 70
     0
 43
0.0
 10
143.0994164510297
 20
234.1925886043988
 10
143.0160831176963
 20
233.9425886043988
 10
143.0160831176963
 20
233.6925886043988
 10
143.0160831176963
 20
233.2759219377322
 10
143.182749784363
 20
232.7759219377321
 10
143.3494164510296
 20
232.3592552710655
 10
143.5994164510296
 20
232.0259219377322
 10
143.932749784363
 20
231.6925886043988
 10
144.3494164510297
 20
231.4425886043988
 10
144.5994164510296
 20
231.3592552710655
 10
144.7660831176963
 20
231.2759219377322
 10
145.0160831176963
 20
231.2759219377322
 10
145.2660831176963
 20
231.1925886043988
 10
145.7660831176963
 20
231.2759219377322
 10
146.182749784363
 20
231.3592552710655
 10
146.5994164510297
 20
231.5259219377322
 10
146.932749784363
 20
231.7759219377322
 10
147.2660831176963
 20
232.1092552710655
 10
147.5160831176963
 20
232.5259219377322
 10
147.5994164510296
 20
232.7759219377321
 10
147.6827497843629
 20
233.0259219377321
 10
147.7660831176963
 20
233.2759219377322
 10
147.7660831176963
 20
233.6092552710655
 10
147.7660831176963
 20
233.9425886043988
 10
147.6827497843629
 20
234.1925886043988
  0
LWPOLYLINE
  5
101151A
330
1F
100
AcDbEntity
  8
P
  6
Continuous
 62
     0
370
     0
100
AcDbPolyline
 90
        2
 70
     0
 43
0.0
 10
145.182749784363
 20
238.2759219377322
 10
143.0994164510297
 20
234.1925886043988
  0
LWPOLYLINE
  5
101151B
330
1F
100
AcDbEntity
  8
P
  6
Continuous
 62
     0
370
     0
100
AcDbPolyline
 90
        2
 70
     0
 43
0.0
 10
142.682749784363
 20
234.1925886043988
 10
140.5994164510296
 20
238.2759219377322
  0
LWPOLYLINE
  5
101151C
330
1F
100
AcDbEntity
  8
P
  6
Continuous
 62
     0
370
     0
100
AcDbPolyline
 90
       25
 70
     0
 43
0.0
 10
150.182749784363
 20
238.2759219377322
 10
150.182749784363
 20
238.5259219377322
 10
150.2660831176963
 20
238.7759219377322
 10
150.2660831176963
 20
239.1925886043988
 10
150.0994164510296
 20
239.6092552710655
 10
149.932749784363
 20
240.0259219377322
 10
149.682749784363
 20
240.4425886043988
 10
149.3494164510297
 20
240.7759219377322
 10
148.932749784363
 20
241.0259219377322
 10
148.682749784363
 20
241.1092552710655
 10
148.432749784363
 20
241.1925886043988
 10
148.2660831176963
 20
241.1925886043988
 10
148.0160831176963
 20
241.1925886043988
 10
147.5160831176963
 20
241.1925886043988
 10
147.0994164510296
 20
241.1092552710655
 10
146.6827497843629
 20
240.9425886043988
 10
146.2660831176963
 20
240.6092552710655
 10
146.0160831176963
 20
240.2759219377322
 10
145.7660831176963
 20
239.9425886043988
 10
145.6827497843629
 20
239.6925886043988
 10
145.5994164510296
 20
239.4425886043988
 10
145.5160831176963
 20
239.1925886043988
 10
145.5160831176963
 20
238.8592552710655
 10
145.5160831176963
 20
238.5259219377322
 10
145.5994164510296
 20
238.2759219377322
  0
LWPOLYLINE
  5
101151D
330
1F
100
AcDbEntity
  8
P
  6
Continuous
 62
     0
370
     0
100
AcDbPolyline
 90
       25
 70
     0
 43
0.0
 10
148.0994164510296
 20
234.1925886043988
 10
148.0160831176963
 20
233.9425886043988
 10
148.0160831176963
 20
233.6925886043988
 10
148.0160831176963
 20
233.2759219377322
 10
148.182749784363
 20
232.7759219377321
 10
148.3494164510297
 20
232.3592552710655
 10
148.5994164510296
 20
232.0259219377322
 10
148.932749784363
 20
231.6925886043988
 10
149.3494164510297
 20
231.4425886043988
 10
149.5994164510296
 20
231.3592552710655
 10
149.7660831176963
 20
231.2759219377322
 10
150.0160831176963
 20
231.2759219377322
 10
150.2660831176963
 20
231.1925886043988
 10
150.7660831176963
 20
231.2759219377322
 10
151.182749784363
 20
231.3592552710655
 10
151.5994164510297
 20
231.5259219377322
 10
151.932749784363
 20
231.7759219377322
 10
152.2660831176963
 20
232.1092552710655
 10
152.5160831176963
 20
232.5259219377322
 10
152.5994164510296
 20
232.7759219377321
 10
152.682749784363
 20
233.0259219377321
 10
152.7660831176963
 20
233.2759219377322
 10
152.7660831176963
 20
233.6092552710655
 10
152.7660831176963
 20
233.9425886043988
 10
152.682749784363
 20
234.1925886043988
  0
LWPOLYLINE
  5
101151E
330
1F
100
AcDbEntity
  8
P
  6
Continuous
 62
     0
370
     0
100
AcDbPolyline
 90
        2
 70
     0
 43
0.0
 10
150.182749784363
 20
238.2759219377322
 10
148.0994164510296
 20
234.1925886043988
  0
LWPOLYLINE
  5
101151F
330
1F
100
AcDbEntity
  8
P
  6
Continuous
 62
     0
370
     0
100
AcDbPolyline
 90
        2
 70
     0
 43
0.0
 10
147.6827497843629
 20
234.1925886043988
 10
145.5994164510296
 20
238.2759219377322
  0
LWPOLYLINE
  5
1011520
330
1F
100
AcDbEntity
  8
P
  6
Continuous
 62
     0
370
     0
100
AcDbPolyline
 90
       25
 70
     0
 43
0.0
 10
155.182749784363
 20
238.2759219377322
 10
155.182749784363
 20
238.5259219377322
 10
155.2660831176963
 20
238.7759219377322
 10
155.182749784363
 20
239.1925886043988
 10
155.0994164510296
 20
239.6092552710655
 10
154.932749784363
 20
240.0259219377322
 10
154.682749784363
 20
240.4425886043988
 10
154.3494164510296
 20
240.7759219377322
 10
153.9327497843629
 20
241.0259219377322
 10
153.682749784363
 20
241.1092552710655
 10
153.432749784363
 20
241.1925886043988
 10
153.2660831176963
 20
241.1925886043988
 10
153.0160831176963
 20
241.1925886043988
 10
152.5160831176963
 20
241.1925886043988
 10
152.0994164510296
 20
241.1092552710655
 10
151.682749784363
 20
240.9425886043988
 10
151.2660831176963
 20
240.6092552710655
 10
151.0160831176963
 20
240.2759219377322
 10
150.7660831176963
 20
239.9425886043988
 10
150.6827497843629
 20
239.6925886043988
 10
150.5994164510297
 20
239.4425886043988
 10
150.5160831176963
 20
239.1925886043988
 10
150.5160831176963
 20
238.8592552710655
 10
150.5160831176963
 20
238.5259219377322
 10
150.5994164510297
 20
238.2759219377322
  0
LWPOLYLINE
  5
1011521
330
1F
100
AcDbEntity
  8
P
  6
Continuous
 62
     0
370
     0
100
AcDbPolyline
 90
       25
 70
     0
 43
0.0
 10
153.0994164510296
 20
234.1925886043988
 10
153.0160831176963
 20
233.9425886043988
 10
153.0160831176963
 20
233.6925886043988
 10
153.0160831176963
 20
233.2759219377322
 10
153.182749784363
 20
232.7759219377321
 10
153.3494164510296
 20
232.3592552710655
 10
153.5994164510297
 20
232.0259219377322
 10
153.9327497843629
 20
231.6925886043988
 10
154.3494164510296
 20
231.4425886043988
 10
154.5160831176963
 20
231.3592552710655
 10
154.7660831176963
 20
231.2759219377322
 10
155.0160831176963
 20
231.2759219377322
 10
155.2660831176963
 20
231.1925886043988
 10
155.7660831176963
 20
231.2759219377322
 10
156.182749784363
 20
231.3592552710655
 10
156.5994164510297
 20
231.5259219377322
 10
156.9327497843629
 20
231.7759219377322
 10
157.2660831176963
 20
232.1092552710655
 10
157.5160831176963
 20
232.5259219377322
 10
157.5994164510296
 20
232.7759219377321
 10
157.682749784363
 20
233.0259219377321
 10
157.7660831176963
 20
233.2759219377322
 10
157.7660831176963
 20
233.6092552710655
 10
157.7660831176963
 20
233.9425886043988
 10
157.682749784363
 20
234.1925886043988
  0
LWPOLYLINE
  5
1011522
330
1F
100
AcDbEntity
  8
P
  6
Continuous
 62
     0
370
     0
100
AcDbPolyline
 90
        2
 70
     0
 43
0.0
 10
155.182749784363
 20
238.2759219377322
 10
153.0994164510296
 20
234.1925886043988
  0
LWPOLYLINE
  5
1011523
330
1F
100
AcDbEntity
  8
P
  6
Continuous
 62
     0
370
     0
100
AcDbPolyline
 90
        2
 70
     0
 43
0.0
 10
152.682749784363
 20
234.1925886043988
 10
150.5994164510297
 20
238.2759219377322
  0
LWPOLYLINE
  5
1011524
330
1F
100
AcDbEntity
  8
P
  6
Continuous
 62
     0
370
     0
100
AcDbPolyline
 90
       25
 70
     0
 43
0.0
 10
160.1827497843629
 20
238.2759219377322
 10
160.1827497843629
 20
238.5259219377322
 10
160.2660831176963
 20
238.7759219377322
 10
160.1827497843629
 20
239.1925886043988
 10
160.0994164510296
 20
239.6092552710655
 10
159.932749784363
 20
240.0259219377322
 10
159.682749784363
 20
240.4425886043988
 10
159.3494164510296
 20
240.7759219377322
 10
158.932749784363
 20
241.0259219377322
 10
158.682749784363
 20
241.1092552710655
 10
158.432749784363
 20
241.1925886043988
 10
158.2660831176963
 20
241.1925886043988
 10
158.0160831176963
 20
241.1925886043988
 10
157.5160831176963
 20
241.1925886043988
 10
157.0994164510296
 20
241.1092552710655
 10
156.682749784363
 20
240.9425886043988
 10
156.2660831176963
 20
240.6092552710655
 10
156.0160831176963
 20
240.2759219377322
 10
155.7660831176963
 20
239.9425886043988
 10
155.682749784363
 20
239.6925886043988
 10
155.5994164510297
 20
239.4425886043988
 10
155.5160831176963
 20
239.1925886043988
 10
155.5160831176963
 20
238.8592552710655
 10
155.5160831176963
 20
238.5259219377322
 10
155.5994164510297
 20
238.2759219377322
  0
LWPOLYLINE
  5
1011525
330
1F
100
AcDbEntity
  8
P
  6
Continuous
 62
     0
370
     0
100
AcDbPolyline
 90
       25
 70
     0
 43
0.0
 10
158.0994164510296
 20
234.1925886043988
 10
158.0160831176963
 20
233.9425886043988
 10
158.0160831176963
 20
233.6925886043988
 10
158.0160831176963
 20
233.2759219377322
 10
158.0994164510296
 20
232.7759219377321
 10
158.3494164510296
 20
232.3592552710655
 10
158.5994164510296
 20
232.0259219377322
 10
158.932749784363
 20
231.6925886043988
 10
159.3494164510296
 20
231.4425886043988
 10
159.5160831176963
 20
231.3592552710655
 10
159.7660831176963
 20
231.2759219377322
 10
160.0160831176963
 20
231.2759219377322
 10
160.2660831176963
 20
231.1925886043988
 10
160.682749784363
 20
231.2759219377322
 10
161.182749784363
 20
231.3592552710655
 10
161.5994164510296
 20
231.5259219377322
 10
161.932749784363
 20
231.7759219377322
 10
162.2660831176963
 20
232.1092552710655
 10
162.5160831176963
 20
232.5259219377322
 10
162.5994164510296
 20
232.7759219377321
 10
162.682749784363
 20
233.0259219377321
 10
162.7660831176963
 20
233.2759219377322
 10
162.7660831176963
 20
233.6092552710655
 10
162.7660831176963
 20
233.9425886043988
 10
162.682749784363
 20
234.1925886043988
  0
LWPOLYLINE
  5
1011526
330
1F
100
AcDbEntity
  8
P
  6
Continuous
 62
     0
370
     0
100
AcDbPolyline
 90
        2
 70
     0
 43
0.0
 10
160.1827497843629
 20
238.2759219377322
 10
158.0994164510296
 20
234.1925886043988
  0
LWPOLYLINE
  5
1011527
330
1F
100
AcDbEntity
  8
P
  6
Continuous
 62
     0
370
     0
100
AcDbPolyline
 90
        2
 70
     0
 43
0.0
 10
157.682749784363
 20
234.1925886043988
 10
155.5994164510297
 20
238.2759219377322
  0
LWPOLYLINE
  5
1011528
330
1F
100
AcDbEntity
  8
P
  6
Continuous
 62
     0
370
     0
100
AcDbPolyline
 90
       25
 70
     0
 43
0.0
 10
165.182749784363
 20
238.2759219377322
 10
165.182749784363
 20
238.5259219377322
 10
165.2660831176963
 20
238.7759219377322
 10
165.182749784363
 20
239.1925886043988
 10
165.0994164510296
 20
239.6092552710655
 10
164.932749784363
 20
240.0259219377322
 10
164.682749784363
 20
240.4425886043988
 10
164.2660831176963
 20
240.7759219377322
 10
163.932749784363
 20
241.0259219377322
 10
163.682749784363
 20
241.1092552710655
 10
163.432749784363
 20
241.1925886043988
 10
163.1827497843629
 20
241.1925886043988
 10
163.0160831176963
 20
241.1925886043988
 10
162.5160831176963
 20
241.1925886043988
 10
162.0994164510296
 20
241.1092552710655
 10
161.682749784363
 20
240.9425886043988
 10
161.2660831176963
 20
240.6092552710655
 10
161.0160831176963
 20
240.2759219377322
 10
160.7660831176963
 20
239.9425886043988
 10
160.5994164510296
 20
239.6925886043988
 10
160.5994164510296
 20
239.4425886043988
 10
160.5160831176963
 20
239.1925886043988
 10
160.5160831176963
 20
238.8592552710655
 10
160.5160831176963
 20
238.5259219377322
 10
160.5994164510296
 20
238.2759219377322
  0
LWPOLYLINE
  5
1011529
330
1F
100
AcDbEntity
  8
P
  6
Continuous
 62
     0
370
     0
100
AcDbPolyline
 90
       25
 70
     0
 43
0.0
 10
163.0994164510297
 20
234.1925886043988
 10
163.0160831176963
 20
233.9425886043988
 10
163.0160831176963
 20
233.6925886043988
 10
163.0160831176963
 20
233.2759219377322
 10
163.0994164510297
 20
232.7759219377321
 10
163.3494164510296
 20
232.3592552710655
 10
163.5994164510296
 20
232.0259219377322
 10
163.932749784363
 20
231.6925886043988
 10
164.3494164510296
 20
231.4425886043988
 10
164.5160831176963
 20
231.3592552710655
 10
164.7660831176963
 20
231.2759219377322
 10
165.0160831176963
 20
231.2759219377322
 10
165.2660831176963
 20
231.1925886043988
 10
165.682749784363
 20
231.2759219377322
 10
166.182749784363
 20
231.3592552710655
 10
166.5994164510296
 20
231.5259219377322
 10
166.932749784363
 20
231.7759219377322
 10
167.2660831176963
 20
232.1092552710655
 10
167.5160831176963
 20
232.5259219377322
 10
167.5994164510296
 20
232.7759219377321
 10
167.682749784363
 20
233.0259219377321
 10
167.7660831176963
 20
233.2759219377322
 10
167.7660831176963
 20
233.6092552710655
 10
167.7660831176963
 20
233.9425886043988
 10
167.682749784363
 20
234.1925886043988
  0
LWPOLYLINE
  5
101152A
330
1F
100
AcDbEntity
  8
P
  6
Continuous
 62
     0
370
     0
100
AcDbPolyline
 90
        2
 70
     0
 43
0.0
 10
165.182749784363
 20
238.2759219377322
 10
163.0994164510297
 20
234.1925886043988
  0
LWPOLYLINE
  5
101152B
330
1F
100
AcDbEntity
  8
P
  6
Continuous
 62
     0
370
     0
100
AcDbPolyline
 90
        2
 70
     0
 43
0.0
 10
162.682749784363
 20
234.1925886043988
 10
160.5994164510296
 20
238.2759219377322
  0
LWPOLYLINE
  5
101152C
330
1F
100
AcDbEntity
  8
P
  6
Continuous
 62
     0
370
     0
100
AcDbPolyline
 90
       25
 70
     0
 43
0.0
 10
170.182749784363
 20
238.2759219377322
 10
170.182749784363
 20
238.5259219377322
 10
170.2660831176963
 20
238.7759219377322
 10
170.182749784363
 20
239.1925886043988
 10
170.0994164510296
 20
239.6092552710655
 10
169.932749784363
 20
240.0259219377322
 10
169.5994164510296
 20
240.4425886043988
 10
169.2660831176963
 20
240.7759219377322
 10
168.932749784363
 20
241.0259219377322
 10
168.682749784363
 20
241.1092552710655
 10
168.432749784363
 20
241.1925886043988
 10
168.182749784363
 20
241.1925886043988
 10
168.0160831176963
 20
241.1925886043988
 10
167.5160831176963
 20
241.1925886043988
 10
167.0994164510297
 20
241.1092552710655
 10
166.682749784363
 20
240.9425886043988
 10
166.2660831176963
 20
240.6092552710655
 10
165.932749784363
 20
240.2759219377322
 10
165.7660831176963
 20
239.9425886043988
 10
165.5994164510296
 20
239.6925886043988
 10
165.5994164510296
 20
239.4425886043988
 10
165.5160831176963
 20
239.1925886043988
 10
165.5160831176963
 20
238.8592552710655
 10
165.5160831176963
 20
238.5259219377322
 10
165.5994164510296
 20
238.2759219377322
  0
LWPOLYLINE
  5
101152D
330
1F
100
AcDbEntity
  8
P
  6
Continuous
 62
     0
370
     0
100
AcDbPolyline
 90
       25
 70
     0
 43
0.0
 10
168.0994164510297
 20
234.1925886043988
 10
168.0160831176963
 20
233.9425886043988
 10
168.0160831176963
 20
233.6925886043988
 10
168.0160831176963
 20
233.2759219377322
 10
168.0994164510297
 20
232.7759219377321
 10
168.3494164510296
 20
232.3592552710655
 10
168.5994164510296
 20
232.0259219377322
 10
168.932749784363
 20
231.6925886043988
 10
169.3494164510297
 20
231.4425886043988
 10
169.5160831176963
 20
231.3592552710655
 10
169.7660831176963
 20
231.2759219377322
 10
170.0160831176963
 20
231.2759219377322
 10
170.2660831176963
 20
231.1925886043988
 10
170.682749784363
 20
231.2759219377322
 10
171.182749784363
 20
231.3592552710655
 10
171.5994164510297
 20
231.5259219377322
 10
171.932749784363
 20
231.7759219377322
 10
172.2660831176963
 20
232.1092552710655
 10
172.5160831176963
 20
232.5259219377322
 10
172.5994164510296
 20
232.7759219377321
 10
172.6827497843629
 20
233.0259219377321
 10
172.6827497843629
 20
233.2759219377322
 10
172.7660831176963
 20
233.6092552710655
 10
172.6827497843629
 20
233.9425886043988
 10
172.6827497843629
 20
234.1925886043988
  0
LWPOLYLINE
  5
101152E
330
1F
100
AcDbEntity
  8
P
  6
Continuous
 62
     0
370
     0
100
AcDbPolyline
 90
        2
 70
     0
 43
0.0
 10
170.182749784363
 20
238.2759219377322
 10
168.0994164510297
 20
234.1925886043988
  0
LWPOLYLINE
  5
101152F
330
1F
100
AcDbEntity
  8
P
  6
Continuous
 62
     0
370
     0
100
AcDbPolyline
 90
        2
 70
     0
 43
0.0
 10
167.682749784363
 20
234.1925886043988
 10
165.5994164510296
 20
238.2759219377322
  0
LWPOLYLINE
  5
1011530
330
1F
100
AcDbEntity
  8
P
  6
Continuous
 62
     0
370
     0
100
AcDbPolyline
 90
       25
 70
     0
 43
0.0
 10
175.182749784363
 20
238.2759219377322
 10
175.182749784363
 20
238.5259219377322
 10
175.2660831176963
 20
238.7759219377322
 10
175.182749784363
 20
239.1925886043988
 10
175.0994164510296
 20
239.6092552710655
 10
174.932749784363
 20
240.0259219377322
 10
174.5994164510296
 20
240.4425886043988
 10
174.2660831176963
 20
240.7759219377322
 10
173.932749784363
 20
241.0259219377322
 10
173.682749784363
 20
241.1092552710655
 10
173.432749784363
 20
241.1925886043988
 10
173.182749784363
 20
241.1925886043988
 10
173.0160831176963
 20
241.1925886043988
 10
172.5160831176963
 20
241.1925886043988
 10
172.0994164510296
 20
241.1092552710655
 10
171.6827497843629
 20
240.9425886043988
 10
171.2660831176963
 20
240.6092552710655
 10
170.932749784363
 20
240.2759219377322
 10
170.7660831176963
 20
239.9425886043988
 10
170.5994164510296
 20
239.6925886043988
 10
170.5994164510296
 20
239.4425886043988
 10
170.5160831176963
 20
239.1925886043988
 10
170.5160831176963
 20
238.8592552710655
 10
170.5160831176963
 20
238.5259219377322
 10
170.5994164510296
 20
238.2759219377322
  0
LWPOLYLINE
  5
1011531
330
1F
100
AcDbEntity
  8
P
  6
Continuous
 62
     0
370
     0
100
AcDbPolyline
 90
       25
 70
     0
 43
0.0
 10
173.0994164510296
 20
234.1925886043988
 10
173.0160831176963
 20
233.9425886043988
 10
173.0160831176963
 20
233.6925886043988
 10
173.0160831176963
 20
233.2759219377322
 10
173.0994164510296
 20
232.7759219377321
 10
173.3494164510297
 20
232.3592552710655
 10
173.5994164510296
 20
232.0259219377322
 10
173.932749784363
 20
231.6925886043988
 10
174.3494164510297
 20
231.4425886043988
 10
174.5160831176963
 20
231.3592552710655
 10
174.7660831176963
 20
231.2759219377322
 10
175.0160831176963
 20
231.2759219377322
 10
175.2660831176963
 20
231.1925886043988
 10
175.6827497843629
 20
231.2759219377322
 10
176.182749784363
 20
231.3592552710655
 10
176.5994164510297
 20
231.5259219377322
 10
176.932749784363
 20
231.7759219377322
 10
177.2660831176963
 20
232.1092552710655
 10
177.5160831176963
 20
232.5259219377322
 10
177.5994164510296
 20
232.7759219377321
 10
177.682749784363
 20
233.0259219377321
 10
177.682749784363
 20
233.2759219377322
 10
177.7660831176963
 20
233.6092552710655
 10
177.682749784363
 20
233.9425886043988
 10
177.682749784363
 20
234.1925886043988
  0
LWPOLYLINE
  5
1011532
330
1F
100
AcDbEntity
  8
P
  6
Continuous
 62
     0
370
     0
100
AcDbPolyline
 90
        2
 70
     0
 43
0.0
 10
175.182749784363
 20
238.2759219377322
 10
173.0994164510296
 20
234.1925886043988
  0
LWPOLYLINE
  5
1011533
330
1F
100
AcDbEntity
  8
P
  6
Continuous
 62
     0
370
     0
100
AcDbPolyline
 90
        2
 70
     0
 43
0.0
 10
172.6827497843629
 20
234.1925886043988
 10
170.5160831176963
 20
238.2759219377322
  0
LWPOLYLINE
  5
1011534
330
1F
100
AcDbEntity
  8
P
  6
Continuous
 62
     0
370
     0
100
AcDbPolyline
 90
       25
 70
     0
 43
0.0
 10
180.182749784363
 20
238.2759219377322
 10
180.182749784363
 20
238.5259219377322
 10
180.182749784363
 20
238.7759219377322
 10
180.182749784363
 20
239.1925886043988
 10
180.0994164510296
 20
239.6092552710655
 10
179.932749784363
 20
240.0259219377322
 10
179.5994164510297
 20
240.4425886043988
 10
179.2660831176963
 20
240.7759219377322
 10
178.9327497843629
 20
241.0259219377322
 10
178.682749784363
 20
241.1092552710655
 10
178.432749784363
 20
241.1925886043988
 10
178.182749784363
 20
241.1925886043988
 10
177.9327497843629
 20
241.1925886043988
 10
177.5160831176963
 20
241.1925886043988
 10
177.0994164510296
 20
241.1092552710655
 10
176.682749784363
 20
240.9425886043988
 10
176.2660831176963
 20
240.6092552710655
 10
175.932749784363
 20
240.2759219377322
 10
175.6827497843629
 20
239.9425886043988
 10
175.5994164510297
 20
239.6925886043988
 10
175.5160831176963
 20
239.4425886043988
 10
175.5160831176963
 20
239.1925886043988
 10
175.5160831176963
 20
238.8592552710655
 10
175.5160831176963
 20
238.5259219377322
 10
175.5160831176963
 20
238.2759219377322
  0
LWPOLYLINE
  5
1011535
330
1F
100
AcDbEntity
  8
P
  6
Continuous
 62
     0
370
     0
100
AcDbPolyline
 90
       25
 70
     0
 43
0.0
 10
178.0994164510296
 20
234.1925886043988
 10
178.0160831176963
 20
233.9425886043988
 10
178.0160831176963
 20
233.6925886043988
 10
178.0160831176963
 20
233.2759219377322
 10
178.0994164510296
 20
232.7759219377321
 10
178.3494164510296
 20
232.3592552710655
 10
178.5994164510297
 20
232.0259219377322
 10
178.9327497843629
 20
231.6925886043988
 10
179.3494164510296
 20
231.4425886043988
 10
179.5160831176963
 20
231.3592552710655
 10
179.7660831176963
 20
231.2759219377322
 10
180.0160831176963
 20
231.2759219377322
 10
180.2660831176963
 20
231.1925886043988
 10
180.6827497843629
 20
231.2759219377322
 10
181.182749784363
 20
231.3592552710655
 10
181.5994164510297
 20
231.5259219377322
 10
181.9327497843629
 20
231.7759219377322
 10
182.2660831176963
 20
232.1092552710655
 10
182.5160831176963
 20
232.5259219377322
 10
182.5994164510296
 20
232.7759219377321
 10
182.682749784363
 20
233.0259219377321
 10
182.682749784363
 20
233.2759219377322
 10
182.7660831176963
 20
233.6092552710655
 10
182.682749784363
 20
233.9425886043988
 10
182.682749784363
 20
234.1925886043988
  0
LWPOLYLINE
  5
1011536
330
1F
100
AcDbEntity
  8
P
  6
Continuous
 62
     0
370
     0
100
AcDbPolyline
 90
        2
 70
     0
 43
0.0
 10
180.182749784363
 20
238.2759219377322
 10
178.0994164510296
 20
234.1925886043988
  0
LWPOLYLINE
  5
1011537
330
1F
100
AcDbEntity
  8
P
  6
Continuous
 62
     0
370
     0
100
AcDbPolyline
 90
        2
 70
     0
 43
0.0
 10
177.682749784363
 20
234.1925886043988
 10
175.5160831176963
 20
238.2759219377322
  0
LWPOLYLINE
  5
1011538
330
1F
100
AcDbEntity
  8
P
  6
Continuous
 62
     0
370
     0
100
AcDbPolyline
 90
       25
 70
     0
 43
0.0
 10
185.1827497843629
 20
238.2759219377322
 10
185.1827497843629
 20
238.5259219377322
 10
185.1827497843629
 20
238.7759219377322
 10
185.1827497843629
 20
239.1925886043988
 10
185.0994164510296
 20
239.6092552710655
 10
184.932749784363
 20
240.0259219377322
 10
184.5994164510296
 20
240.4425886043988
 10
184.2660831176963
 20
240.7759219377322
 10
183.932749784363
 20
241.0259219377322
 10
183.682749784363
 20
241.1092552710655
 10
183.432749784363
 20
241.1925886043988
 10
183.182749784363
 20
241.1925886043988
 10
182.932749784363
 20
241.1925886043988
 10
182.5160831176963
 20
241.1925886043988
 10
182.0160831176963
 20
241.1092552710655
 10
181.682749784363
 20
240.9425886043988
 10
181.2660831176963
 20
240.6092552710655
 10
180.932749784363
 20
240.2759219377322
 10
180.6827497843629
 20
239.9425886043988
 10
180.5994164510297
 20
239.6925886043988
 10
180.5160831176963
 20
239.4425886043988
 10
180.5160831176963
 20
239.1925886043988
 10
180.432749784363
 20
238.8592552710655
 10
180.5160831176963
 20
238.5259219377322
 10
180.5160831176963
 20
238.2759219377322
  0
LWPOLYLINE
  5
1011539
330
1F
100
AcDbEntity
  8
P
  6
Continuous
 62
     0
370
     0
100
AcDbPolyline
 90
        2
 70
     0
 43
0.0
 10
185.1827497843629
 20
238.2759219377322
 10
183.0994164510297
 20
234.1925886043988
  0
LWPOLYLINE
  5
101153A
330
1F
100
AcDbEntity
  8
P
  6
Continuous
 62
     0
370
     0
100
AcDbPolyline
 90
        2
 70
     0
 43
0.0
 10
182.682749784363
 20
234.1925886043988
 10
180.5160831176963
 20
238.2759219377322
  0
LWPOLYLINE
  5
101153B
330
1F
100
AcDbEntity
  8
P
  6
Continuous
 62
     0
370
     0
100
AcDbPolyline
 90
       25
 70
     0
 43
0.0
 10
183.0994164510297
 20
234.1925886043988
 10
183.0160831176963
 20
233.9425886043988
 10
183.0160831176963
 20
233.6925886043988
 10
183.0160831176963
 20
233.2759219377322
 10
183.0994164510297
 20
232.7759219377321
 10
183.3494164510296
 20
232.3592552710655
 10
183.5994164510296
 20
232.0259219377322
 10
183.932749784363
 20
231.6925886043988
 10
184.3494164510296
 20
231.4425886043988
 10
184.5160831176963
 20
231.3592552710655
 10
184.7660831176963
 20
231.2759219377322
 10
185.0160831176963
 20
231.2759219377322
 10
185.2660831176963
 20
231.1925886043988
 10
185.682749784363
 20
231.2759219377322
 10
186.182749784363
 20
231.3592552710655
 10
186.5994164510296
 20
231.5259219377322
 10
186.9327497843629
 20
231.7759219377322
 10
187.2660831176963
 20
232.1092552710655
 10
187.5160831176963
 20
232.5259219377322
 10
187.5994164510296
 20
232.7759219377321
 10
187.682749784363
 20
233.0259219377321
 10
187.682749784363
 20
233.2759219377322
 10
187.7660831176963
 20
233.6092552710655
 10
187.682749784363
 20
233.9425886043988
 10
187.682749784363
 20
234.1925886043988
  0
LWPOLYLINE
  5
101153C
330
1F
100
AcDbEntity
  8
P
  6
Continuous
 62
     0
370
     0
100
AcDbPolyline
 90
       25
 70
     0
 43
0.0
 10
190.0994164510296
 20
238.2759219377322
 10
190.182749784363
 20
238.5259219377322
 10
190.182749784363
 20
238.7759219377322
 10
190.182749784363
 20
239.1925886043988
 10
190.0994164510296
 20
239.6092552710655
 10
189.8494164510296
 20
240.0259219377322
 10
189.5994164510296
 20
240.4425886043988
 10
189.2660831176963
 20
240.7759219377322
 10
188.8494164510296
 20
241.0259219377322
 10
188.682749784363
 20
241.1092552710655
 10
188.432749784363
 20
241.1925886043988
 10
188.1827497843629
 20
241.1925886043988
 10
187.932749784363
 20
241.1925886043988
 10
187.5160831176963
 20
241.1925886043988
 10
187.0160831176963
 20
241.1092552710655
 10
186.5994164510296
 20
240.9425886043988
 10
186.2660831176963
 20
240.6092552710655
 10
185.932749784363
 20
240.2759219377322
 10
185.682749784363
 20
239.9425886043988
 10
185.5994164510296
 20
239.6925886043988
 10
185.5160831176963
 20
239.4425886043988
 10
185.5160831176963
 20
239.1925886043988
 10
185.432749784363
 20
238.8592552710655
 10
185.5160831176963
 20
238.5259219377322
 10
185.5160831176963
 20
238.2759219377322
  0
LWPOLYLINE
  5
101153D
330
1F
100
AcDbEntity
  8
P
  6
Continuous
 62
     0
370
     0
100
AcDbPolyline
 90
       19
 70
     0
 43
0.0
 10
188.0160831176963
 20
234.1925886043988
 10
188.0160831176963
 20
233.9425886043988
 10
188.0160831176963
 20
233.6925886043988
 10
188.0160831176963
 20
233.2759219377322
 10
188.0994164510297
 20
232.7759219377321
 10
188.2660831176963
 20
232.3592552710655
 10
188.5994164510296
 20
232.0259219377322
 10
188.932749784363
 20
231.6925886043988
 10
189.2660831176963
 20
231.4425886043988
 10
189.5160831176963
 20
231.3592552710655
 10
189.7660831176963
 20
231.2759219377322
 10
190.0160831176963
 20
231.2759219377322
 10
190.2660831176963
 20
231.1925886043988
 10
190.5160831176963
 20
231.1925886043988
 10
190.7660831176963
 20
231.2759219377322
 10
191.0160831176963
 20
231.3592552710655
 10
191.2660831176963
 20
231.4425886043988
 10
191.5160831176963
 20
231.5259219377322
 10
191.682749784363
 20
231.6092552710655
  0
LWPOLYLINE
  5
101153E
330
1F
100
AcDbEntity
  8
P
  6
Continuous
 62
     0
370
     0
100
AcDbPolyline
 90
        2
 70
     0
 43
0.0
 10
190.0994164510296
 20
238.2759219377322
 10
188.0160831176963
 20
234.1925886043988
  0
LWPOLYLINE
  5
101153F
330
1F
100
AcDbEntity
  8
P
  6
Continuous
 62
     0
370
     0
100
AcDbPolyline
 90
        2
 70
     0
 43
0.0
 10
187.682749784363
 20
234.1925886043988
 10
185.5160831176963
 20
238.2759219377322
  0
LWPOLYLINE
  5
1011540
330
1F
100
AcDbEntity
  8
P
  6
Continuous
 62
     0
370
     0
100
AcDbPolyline
 90
       12
 70
     0
 43
0.0
 10
191.7660831176963
 20
240.9425886043988
 10
191.3494164510296
 20
240.6925886043988
 10
191.182749784363
 20
240.5259219377322
 10
191.0160831176963
 20
240.3592552710655
 10
190.8494164510296
 20
240.1092552710655
 10
190.682749784363
 20
239.9425886043988
 10
190.5994164510296
 20
239.6925886043988
 10
190.5160831176963
 20
239.4425886043988
 10
190.5160831176963
 20
239.1925886043988
 10
190.4327497843629
 20
238.8592552710655
 10
190.5160831176963
 20
238.5259219377322
 10
190.5160831176963
 20
238.2759219377322
  0
LWPOLYLINE
  5
1011541
330
1F
100
AcDbEntity
  8
P
  6
Continuous
 62
     0
370
     0
100
AcDbPolyline
 90
        2
 70
     0
 43
0.0
 10
191.7660831176963
 20
235.8592552710655
 10
190.5160831176963
 20
238.2759219377322
  0
MTEXT
  5
1011542
330
1F
100
AcDbEntity
  8
Text
  6
Continuous
 62
     0
370
     0
100
AcDbMText
 10
37.18274978436299
 20
123.6925886043988
 30
0.0
 40
3.75
 41
72.0
 46
0.0
 71
     4
 72
     5
  1
{\fHelveticaNeueLTPro|b0|i0|c1|p15;Grundierung Kleber}
 73
     2
 44
1.0
  0
MTEXT
  5
1011543
330
1F
100
AcDbEntity
  8
Text
  6
Continuous
 62
     7
370
     0
100
AcDbMText
 10
30.18274978436299
 20
123.6925886043988
 30
0.0
 40
3.25
 41
3.5
 46
0.0
 71
     4
 72
     5
  1
{\fHelveticaNeueLTPro|b0|i0|c1|p15;2}
 73
     2
 44
1.0
  0
MTEXT
  5
1011544
330
1F
100
AcDbEntity
  8
Text
  6
Continuous
 62
     0
370
     0
100
AcDbMText
 10
37.18274978436299
 20
118.1092552710655
 30
0.0
 40
3.0
 41
87.75
 46
0.0
 71
     4
 72
     5
  1
{\fHelveticaNeueLTPro|b0|i0|c1|p15;nach technischem Datenblatt}
 73
     2
 44
1.0
  0
HATCH
  5
1011545
330
1F
100
AcDbEntity
  8
H
  6
Continuous
 62
     0
370
     0
100
AcDbHatch
 10
0.0
 20
0.0
 30
0.0
210
0.0
220
0.0
230
1.0
  2
SOLID
 70
     1
 71
     0
 91
        1
 92
        1
 93
        4
 72
     1
 10
181.0160831176963
 20
262.5259219377322
 11
181.9327497843629
 21
262.5259219377322
 72
     1
 10
181.9327497843629
 20
262.5259219377322
 11
181.9327497843629
 21
263.4425886043988
 72
     1
 10
181.9327497843629
 20
263.4425886043988
 11
181.0160831176963
 21
263.4425886043988
 72
     1
 10
181.0160831176963
 20
263.4425886043988
 11
181.0160831176963
 21
262.5259219377322
 97
        0
 75
     0
 76
     1
 98
        0
450
        0
451
        0
460
0.0
461
0.0
452
        0
462
0.0
453
        0
470

  0
LWPOLYLINE
  5
1011546
330
1F
100
AcDbEntity
  8
P
  6
Continuous
 62
     0
370
     0
100
AcDbPolyline
 90
        2
 70
     0
 43
0.0
 10
126.7660831176963
 20
292.6092552710655
 10
126.7660831176963
 20
249.2759219377322
  0
LWPOLYLINE
  5
1011547
330
1F
100
AcDbEntity
  8
P
  6
Continuous
 62
     0
370
     0
100
AcDbPolyline
 90
        2
 70
     0
 43
0.0
 10
154.0994164510296
 20
292.5259219377322
 10
154.0994164510296
 20
262.9425886043988
  0
LWPOLYLINE
  5
1011548
330
1F
100
AcDbEntity
  8
P
  6
Continuous
 62
     0
370
     0
100
AcDbPolyline
 90
        2
 70
     0
 43
0.0
 10
135.7660831176963
 20
292.6092552710655
 10
135.7660831176963
 20
258.9425886043988
  0
LWPOLYLINE
  5
1011549
330
1F
100
AcDbEntity
  8
P
  6
Continuous
 62
     0
370
     0
100
AcDbPolyline
 90
        2
 70
     0
 43
0.0
 10
172.2660831176963
 20
292.5259219377322
 10
172.2660831176963
 20
260.1925886043988
  0
LWPOLYLINE
  5
101154A
330
1F
100
AcDbEntity
  8
P
  6
Continuous
 62
     0
370
     0
100
AcDbPolyline
 90
        2
 70
     0
 43
0.0
 10
181.5160831176963
 20
292.5259219377322
 10
181.5160831176963
 20
262.9425886043988
  0
MTEXT
  5
101154B
330
1F
100
AcDbEntity
  8
Text
  6
Continuous
 62
     7
370
     0
100
AcDbMText
 10
125.7660831176963
 20
297.2759219377321
 30
0.0
 40
3.25
 41
3.5
 46
0.0
 71
     4
 72
     5
  1
{\fHelveticaNeueLTPro|b0|i0|c1|p15;1}
 73
     2
 44
1.0
  0
MTEXT
  5
101154C
330
1F
100
AcDbEntity
  8
Text
  6
Continuous
 62
     0
370
     0
100
AcDbMText
 10
153.0994164510296
 20
297.1925886043988
 30
0.0
 40
3.25
 41
3.5
 46
0.0
 71
     4
 72
     5
  1
{\fHelveticaNeueLTPro|b0|i0|c1|p15;5}
 73
     2
 44
1.0
  0
MTEXT
  5
101154D
330
1F
100
AcDbEntity
  8
Text
  6
Continuous
 62
     0
370
     0
100
AcDbMText
 10
134.7660831176963
 20
297.2759219377321
 30
0.0
 40
3.25
 41
3.5
 46
0.0
 71
     4
 72
     5
  1
{\fHelveticaNeueLTPro|b0|i0|c1|p15;2}
 73
     2
 44
1.0
  0
MTEXT
  5
101154E
330
1F
100
AcDbEntity
  8
Text
  6
Continuous
 62
     0
370
     0
100
AcDbMText
 10
171.2660831176963
 20
297.1925886043988
 30
0.0
 40
3.25
 41
3.5
 46
0.0
 71
     4
 72
     5
  1
{\fHelveticaNeueLTPro|b0|i0|c1|p15;3}
 73
     2
 44
1.0
  0
MTEXT
  5
101154F
330
1F
100
AcDbEntity
  8
Text
  6
Continuous
 62
     0
370
     0
100
AcDbMText
 10
180.432749784363
 20
297.1925886043988
 30
0.0
 40
3.25
 41
3.5
 46
0.0
 71
     4
 72
     5
  1
{\fHelveticaNeueLTPro|b0|i0|c1|p15;4}
 73
     2
 44
1.0
  0
ENDSEC
  0
SECTION
  2
OBJECTS
  0
DICTIONARY
  5
C
330
0
100
AcDbDictionary
281
     1
  3
ACAD_CIP_PREVIOUS_PRODUCT_INFO
350
10051
  3
ACAD_COLOR
350
10034
  3
ACAD_DETAILVIEWSTYLE
350
1004D
  3
ACAD_GROUP
350
D
  3
ACAD_LAYOUT
350
1A
  3
ACAD_MATERIAL
350
10002
  3
ACAD_MLEADERSTYLE
350
10049
  3
ACAD_MLINESTYLE
350
17
  3
ACAD_PLOTSETTINGS
350
19
  3
ACAD_PLOTSTYLENAME
350
E
  3
ACAD_SCALELIST
350
10037
  3
ACAD_SECTIONVIEWSTYLE
350
1004B
  3
ACAD_TABLESTYLE
350
10035
  3
ACAD_VISUALSTYLE
350
1001B
  3
ACDB_RECOMPOSE_DATA
350
101155B
  3
AcDbVariableDictionary
350
2D6
  0
DICTIONARY
  5
100FC
330
8
100
AcDbDictionary
280
     1
281
     1
  0
DICTIONARY
  5
101018B
330
2
100
AcDbDictionary
280
     1
281
     1
  3
ACAD_LAYERSTATES
360
101018C
  0
DICTIONARY
  5
10059
330
10
100
AcDbDictionary
280
     1
281
     1
  3
ADSK_XREC_LAYER_RECONCILED
360
1005A
  0
DICTIONARY
  5
1005B
330
47
100
AcDbDictionary
280
     1
281
     1
  3
ADSK_XREC_LAYER_RECONCILED
360
1005C
  0
DICTIONARY
  5
1005D
330
48
100
AcDbDictionary
280
     1
281
     1
  3
ADSK_XREC_LAYER_RECONCILED
360
1005E
  0
DICTIONARY
  5
1005F
330
49
100
AcDbDictionary
280
     1
281
     1
  3
ADSK_XREC_LAYER_RECONCILED
360
10060
  0
DICTIONARY
  5
10061
330
4A
100
AcDbDictionary
280
     1
281
     1
  3
ADSK_XREC_LAYER_RECONCILED
360
10062
  0
DICTIONARY
  5
1011395
330
1011394
100
AcDbDictionary
280
     1
281
     1
  0
DICTIONARY
  5
1011441
330
1011440
100
AcDbDictionary
280
     1
281
     1
  0
DICTIONARY
  5
1011445
330
1011444
100
AcDbDictionary
280
     1
281
     1
  0
XRECORD
  5
10051
102
{ACAD_REACTORS
330
C
102
}
330
C
100
AcDbXrecord
280
     1
300
ACDLT
300
2017
300
ACDLT_F_S
  0
DICTIONARY
  5
10034
102
{ACAD_REACTORS
330
C
102
}
330
C
100
AcDbDictionary
281
     1
  0
DICTIONARY
  5
1004D
102
{ACAD_REACTORS
330
C
102
}
330
C
100
AcDbDictionary
281
     1
  3
Imperial24
350
1004E
  0
DICTIONARY
  5
D
330
C
100
AcDbDictionary
281
     1
  0
DICTIONARY
  5
1A
330
C
100
AcDbDictionary
281
     1
  3
Layout1
350
1E
  3
Layout2
350
26
  3
Model
350
22
  0
DICTIONARY
  5
10002
102
{ACAD_REACTORS
330
C
102
}
330
C
100
AcDbDictionary
281
     1
  3
ByBlock
350
1000B
  3
ByLayer
350
10003
  3
Global
350
10013
  0
DICTIONARY
  5
10049
102
{ACAD_REACTORS
330
C
102
}
330
C
100
AcDbDictionary
281
     1
  3
Standard
350
1004A
  0
DICTIONARY
  5
17
330
C
100
AcDbDictionary
281
     1
  3
Standard
350
18
  0
DICTIONARY
  5
19
330
C
100
AcDbDictionary
281
     1
  0
ACDBDICTIONARYWDFLT
  5
E
330
C
100
AcDbDictionary
281
     1
  3
Normal
350
F
100
AcDbDictionaryWithDefault
340
F
  0
DICTIONARY
  5
10037
102
{ACAD_REACTORS
330
C
102
}
330
C
100
AcDbDictionary
281
     1
  3
A0
350
10038
  3
A1
350
10039
  3
A2
350
1003A
  3
A3
350
1003B
  3
A4
350
1003C
  3
A5
350
1003D
  3
A6
350
1003E
  3
A7
350
1003F
  3
A8
350
10040
  3
A9
350
10041
  3
B0
350
10042
  3
B1
350
10043
  3
B2
350
10044
  3
B3
350
10045
  3
B4
350
10046
  3
B5
350
10047
  3
B6
350
10048
  0
DICTIONARY
  5
1004B
102
{ACAD_REACTORS
330
C
102
}
330
C
100
AcDbDictionary
281
     1
  3
Imperial24
350
1004C
  0
DICTIONARY
  5
10035
102
{ACAD_REACTORS
330
C
102
}
330
C
100
AcDbDictionary
281
     1
  3
Standard
350
10036
  0
DICTIONARY
  5
1001B
102
{ACAD_REACTORS
330
C
102
}
330
C
100
AcDbDictionary
281
     1
  3
2dWireframe
350
10021
  3
Basic
350
10020
  3
Brighten
350
10027
  3
ColorChange
350
1002B
  3
Conceptual
350
10024
  3
Dim
350
10026
  3
EdgeColorOff
350
10033
  3
Facepattern
350
1002A
  3
Flat
350
1001C
  3
FlatWithEdges
350
1001D
  3
Gouraud
350
1001E
  3
GouraudWithEdges
350
1001F
  3
Hidden
350
10023
  3
JitterOff
350
10031
  3
Linepattern
350
10029
  3
OverhangOff
350
10032
  3
Realistic
350
10025
  3
Shaded
350
10030
  3
Shaded with edges
350
1002F
  3
Shades of Gray
350
1002C
  3
Sketchy
350
1002D
  3
Thicken
350
10028
  3
Wireframe
350
10022
  3
X-Ray
350
1002E
  0
XRECORD
  5
101155B
102
{ACAD_REACTORS
330
C
102
}
330
C
100
AcDbXrecord
280
     1
 90
        1
330
10036
330
1004C
330
1004E
  0
DICTIONARY
  5
2D6
330
C
100
AcDbDictionary
281
     1
  3
CANNOSCALE
350
10067
  3
CMLEADERSTYLE
350
10064
  3
CTABLESTYLE
350
10063
  3
CVIEWDETAILSTYLE
350
10065
  3
CVIEWSECTIONSTYLE
350
10066
  3
DIMASSOC
350
2D8
  3
HIDETEXT
350
2D7
  3
INDEXCTL
350
10069
  3
LAYEREVAL
350
1011082
  3
LAYERNOTIFY
350
1011083
  3
LIGHTINGUNITS
350
1011081
  3
MSLTSCALE
350
1011080
  3
SORTENTS
350
10068
  0
DICTIONARY
  5
101018C
102
{ACAD_REACTORS
330
101018B
102
}
330
101018B
100
AcDbDictionary
281
     1
  0
XRECORD
  5
1005A
102
{ACAD_REACTORS
330
10059
102
}
330
10059
100
AcDbXrecord
280
     1
290
     1
  0
XRECORD
  5
1005C
102
{ACAD_REACTORS
330
1005B
102
}
330
1005B
100
AcDbXrecord
280
     1
290
     1
  0
XRECORD
  5
1005E
102
{ACAD_REACTORS
330
1005D
102
}
330
1005D
100
AcDbXrecord
280
     1
290
     1
  0
XRECORD
  5
10060
102
{ACAD_REACTORS
330
1005F
102
}
330
1005F
100
AcDbXrecord
280
     1
290
     1
  0
XRECORD
  5
10062
102
{ACAD_REACTORS
330
10061
102
}
330
10061
100
AcDbXrecord
280
     1
290
     1
  0
ACDBDETAILVIEWSTYLE
  5
1004E
102
{ACAD_XDICTIONARY
360
101107D
102
}
102
{ACAD_REACTORS
330
1004D
102
}
330
1004D
100
AcDbModelDocViewStyle
 70
     0
  3
Imperial24
290
     0
100
AcDbDetailViewStyle
 70
     0
 71
     0
 90
        3
 71
     1
340
11
 62
   256
 40
0.24
340
0
 62
   256
 40
0.24
300

 40
0.36
280
     3
 71
     2
340
16
 90
       25
 62
   256
 71
     3
340
11
 62
   256
 40
0.24
 90
        1
 40
0.75
 90
        1
300
%<\AcVar ViewType \f "%tc1">% %<\AcVar ViewDetailId>%\PVARIA %<\AcVar ViewScale \f "%sn">%
 71
     4
340
16
 90
       25
 62
   256
340
16
 90
       25
 62
   256
280
     0
  0
LAYOUT
  5
1E
330
1A
100
AcDbPlotSettings
  1

  2
C:\Program Files\AutoCAD 2002\plotters\DWF ePlot (optimized for plotting).pc3
  4

  6

 40
0.0
 41
0.0
 42
0.0
 43
0.0
 44
0.0
 45
0.0
 46
0.0
 47
0.0
 48
0.0
 49
0.0
140
0.0
141
0.0
142
1.0
143
1.0
 70
   688
 72
     0
 73
     0
 74
     5
  7

 75
    16
147
1.0
 76
     0
 77
     2
 78
   300
148
0.0
149
0.0
100
AcDbLayout
  1
Layout1
 70
     1
 71
     1
 10
0.0
 20
0.0
 11
12.0
 21
9.0
 12
0.0
 22
0.0
 32
0.0
 14
1.000000000000000E+20
 24
1.000000000000000E+20
 34
1.000000000000000E+20
 15
-1.000000000000000E+20
 25
-1.000000000000000E+20
 35
-1.000000000000000E+20
146
0.0
 13
0.0
 23
0.0
 33
0.0
 16
1.0
 26
0.0
 36
0.0
 17
0.0
 27
1.0
 37
0.0
 76
     0
330
1B
  0
LAYOUT
  5
26
330
1A
100
AcDbPlotSettings
  1

  2
C:\Program Files\AutoCAD 2002\plotters\DWF ePlot (optimized for plotting).pc3
  4

  6

 40
0.0
 41
0.0
 42
0.0
 43
0.0
 44
0.0
 45
0.0
 46
0.0
 47
0.0
 48
0.0
 49
0.0
140
0.0
141
0.0
142
1.0
143
1.0
 70
   688
 72
     0
 73
     0
 74
     5
  7

 75
    16
147
1.0
 76
     0
 77
     2
 78
   300
148
0.0
149
0.0
100
AcDbLayout
  1
Layout2
 70
     1
 71
     2
 10
0.0
 20
0.0
 11
12.0
 21
9.0
 12
0.0
 22
0.0
 32
0.0
 14
0.0
 24
0.0
 34
0.0
 15
0.0
 25
0.0
 35
0.0
146
0.0
 13
0.0
 23
0.0
 33
0.0
 16
1.0
 26
0.0
 36
0.0
 17
0.0
 27
1.0
 37
0.0
 76
     0
330
23
  0
LAYOUT
  5
22
330
1A
100
AcDbPlotSettings
  1

  2
C:\Program Files\AutoCAD 2002\plotters\DWF ePlot (optimized for plotting).pc3
  4

  6

 40
0.0
 41
0.0
 42
0.0
 43
0.0
 44
0.0
 45
0.0
 46
0.0
 47
0.0
 48
0.0
 49
0.0
140
0.0
141
0.0
142
1.0
143
1.0
 70
  1712
 72
     0
 73
     0
 74
     0
  7

 75
     0
147
1.0
 76
     0
 77
     2
 78
   300
148
0.0
149
0.0
100
AcDbLayout
  1
Model
 70
     1
 71
     0
 10
0.0
 20
0.0
 11
12.0
 21
9.0
 12
0.0
 22
0.0
 32
0.0
 14
0.0
 24
0.0
 34
0.0
 15
0.0
 25
0.0
 35
0.0
146
0.0
 13
0.0
 23
0.0
 33
0.0
 16
1.0
 26
0.0
 36
0.0
 17
0.0
 27
1.0
 37
0.0
 76
     0
330
1F
331
30
  0
MATERIAL
  5
1000B
102
{ACAD_XDICTIONARY
360
1000C
102
}
102
{ACAD_REACTORS
330
10002
102
}
330
10002
100
AcDbMaterial
  1
ByBlock
 72
     0
 43
0.0208333333333333
 43
0.0
 43
0.0
 43
0.0
 43
0.0
 43
0.0208333333333333
 43
0.0
 43
0.0
 43
0.0
 43
0.0
 43
1.0
 43
0.0
 43
0.0
 43
0.0
 43
0.0
 43
1.0
 77
     0
 47
0.0208333333333333
 47
0.0
 47
0.0
 47
0.0
 47
0.0
 47
0.0208333333333333
 47
0.0
 47
0.0
 47
0.0
 47
0.0
 47
1.0
 47
0.0
 47
0.0
 47
0.0
 47
0.0
 47
1.0
171
     0
 49
0.0208333333333333
 49
0.0
 49
0.0
 49
0.0
 49
0.0
 49
0.0208333333333333
 49
0.0
 49
0.0
 49
0.0
 49
0.0
 49
1.0
 49
0.0
 49
0.0
 49
0.0
 49
0.0
 49
1.0
175
     0
142
0.0208333333333333
142
0.0
142
0.0
142
0.0
142
0.0
142
0.0208333333333333
142
0.0
142
0.0
142
0.0
142
0.0
142
1.0
142
0.0
142
0.0
142
0.0
142
0.0
142
1.0
179
     0
144
0.0208333333333333
144
0.0
144
0.0
144
0.0
144
0.0
144
0.0208333333333333
144
0.0
144
0.0
144
0.0
144
0.0
144
1.0
144
0.0
144
0.0
144
0.0
144
0.0
144
1.0
147
0.0208333333333333
147
0.0
147
0.0
147
0.0
147
0.0
147
0.0208333333333333
147
0.0
147
0.0
147
0.0
147
0.0
147
1.0
147
0.0
147
0.0
147
0.0
147
0.0
147
1.0
  0
MATERIAL
  5
10003
102
{ACAD_XDICTIONARY
360
10004
102
}
102
{ACAD_REACTORS
330
10002
102
}
330
10002
100
AcDbMaterial
  1
ByLayer
 72
     0
 43
0.0208333333333333
 43
0.0
 43
0.0
 43
0.0
 43
0.0
 43
0.0208333333333333
 43
0.0
 43
0.0
 43
0.0
 43
0.0
 43
1.0
 43
0.0
 43
0.0
 43
0.0
 43
0.0
 43
1.0
 77
     0
 47
0.0208333333333333
 47
0.0
 47
0.0
 47
0.0
 47
0.0
 47
0.0208333333333333
 47
0.0
 47
0.0
 47
0.0
 47
0.0
 47
1.0
 47
0.0
 47
0.0
 47
0.0
 47
0.0
 47
1.0
171
     0
 49
0.0208333333333333
 49
0.0
 49
0.0
 49
0.0
 49
0.0
 49
0.0208333333333333
 49
0.0
 49
0.0
 49
0.0
 49
0.0
 49
1.0
 49
0.0
 49
0.0
 49
0.0
 49
0.0
 49
1.0
175
     0
142
0.0208333333333333
142
0.0
142
0.0
142
0.0
142
0.0
142
0.0208333333333333
142
0.0
142
0.0
142
0.0
142
0.0
142
1.0
142
0.0
142
0.0
142
0.0
142
0.0
142
1.0
179
     0
144
0.0208333333333333
144
0.0
144
0.0
144
0.0
144
0.0
144
0.0208333333333333
144
0.0
144
0.0
144
0.0
144
0.0
144
1.0
144
0.0
144
0.0
144
0.0
144
0.0
144
1.0
147
0.0208333333333333
147
0.0
147
0.0
147
0.0
147
0.0
147
0.0208333333333333
147
0.0
147
0.0
147
0.0
147
0.0
147
1.0
147
0.0
147
0.0
147
0.0
147
0.0
147
1.0
  0
MATERIAL
  5
10013
102
{ACAD_XDICTIONARY
360
10014
102
}
102
{ACAD_REACTORS
330
10002
102
}
330
10002
100
AcDbMaterial
  1
Global
 72
     0
 43
0.0208333333333333
 43
0.0
 43
0.0
 43
0.0
 43
0.0
 43
0.0208333333333333
 43
0.0
 43
0.0
 43
0.0
 43
0.0
 43
1.0
 43
0.0
 43
0.0
 43
0.0
 43
0.0
 43
1.0
 77
     0
 47
0.0208333333333333
 47
0.0
 47
0.0
 47
0.0
 47
0.0
 47
0.0208333333333333
 47
0.0
 47
0.0
 47
0.0
 47
0.0
 47
1.0
 47
0.0
 47
0.0
 47
0.0
 47
0.0
 47
1.0
171
     0
 49
0.0208333333333333
 49
0.0
 49
0.0
 49
0.0
 49
0.0
 49
0.0208333333333333
 49
0.0
 49
0.0
 49
0.0
 49
0.0
 49
1.0
 49
0.0
 49
0.0
 49
0.0
 49
0.0
 49
1.0
175
     0
142
0.0208333333333333
142
0.0
142
0.0
142
0.0
142
0.0
142
0.0208333333333333
142
0.0
142
0.0
142
0.0
142
0.0
142
1.0
142
0.0
142
0.0
142
0.0
142
0.0
142
1.0
179
     0
144
0.0208333333333333
144
0.0
144
0.0
144
0.0
144
0.0
144
0.0208333333333333
144
0.0
144
0.0
144
0.0
144
0.0
144
1.0
144
0.0
144
0.0
144
0.0
144
0.0
144
1.0
147
0.0208333333333333
147
0.0
147
0.0
147
0.0
147
0.0
147
0.0208333333333333
147
0.0
147
0.0
147
0.0
147
0.0
147
1.0
147
0.0
147
0.0
147
0.0
147
0.0
147
1.0
  0
MLEADERSTYLE
  5
1004A
102
{ACAD_REACTORS
330
10049
102
}
330
10049
100
AcDbMLeaderStyle
179
     2
170
     2
171
     1
172
     0
 90
        2
 40
0.0
 41
0.0
173
     1
 91
-1056964608
340
14
 92
       -2
290
     1
 42
0.09
291
     1
 43
0.36
  3
Standard
 44
0.18
300

342
11
174
     1
178
     6
175
     1
176
     0
 93
-1056964608
 45
0.18
292
     0
297
     0
 46
0.18
 94
-1056964608
 47
1.0
 49
1.0
140
1.0
293
     1
141
0.0
294
     1
177
     0
142
1.0
295
     0
296
     0
143
0.125
271
     0
272
     9
273
     9
298
     0
  0
MLINESTYLE
  5
18
330
17
100
AcDbMlineStyle
  2
STANDARD
 70
     0
  3

 62
   256
 51
90.0
 52
90.0
 71
     2
 49
0.5
 62
   256
  6
BYLAYER
 49
-0.5
 62
   256
  6
BYLAYER
  0
ACDBPLACEHOLDER
  5
F
330
E
  0
SCALE
  5
10038
102
{ACAD_REACTORS
330
10037
102
}
330
10037
100
AcDbScale
 70
     0
300
1:1
140
1.0
141
1.0
290
     1
  0
SCALE
  5
10039
102
{ACAD_REACTORS
330
10037
102
}
330
10037
100
AcDbScale
 70
     0
300
1/128" = 1'-0"
140
0.0078125
141
12.0
290
     0
  0
SCALE
  5
1003A
102
{ACAD_REACTORS
330
10037
102
}
330
10037
100
AcDbScale
 70
     0
300
1/64" = 1'-0"
140
0.015625
141
12.0
290
     0
  0
SCALE
  5
1003B
102
{ACAD_REACTORS
330
10037
102
}
330
10037
100
AcDbScale
 70
     0
300
1/32" = 1'-0"
140
0.03125
141
12.0
290
     0
  0
SCALE
  5
1003C
102
{ACAD_REACTORS
330
10037
102
}
330
10037
100
AcDbScale
 70
     0
300
1/16" = 1'-0"
140
0.0625
141
12.0
290
     0
  0
SCALE
  5
1003D
102
{ACAD_REACTORS
330
10037
102
}
330
10037
100
AcDbScale
 70
     0
300
3/32" = 1'-0"
140
0.09375
141
12.0
290
     0
  0
SCALE
  5
1003E
102
{ACAD_REACTORS
330
10037
102
}
330
10037
100
AcDbScale
 70
     0
300
1/8" = 1'-0"
140
0.125
141
12.0
290
     0
  0
SCALE
  5
1003F
102
{ACAD_REACTORS
330
10037
102
}
330
10037
100
AcDbScale
 70
     0
300
3/16" = 1'-0"
140
0.1875
141
12.0
290
     0
  0
SCALE
  5
10040
102
{ACAD_REACTORS
330
10037
102
}
330
10037
100
AcDbScale
 70
     0
300
1/4" = 1'-0"
140
0.25
141
12.0
290
     0
  0
SCALE
  5
10041
102
{ACAD_REACTORS
330
10037
102
}
330
10037
100
AcDbScale
 70
     0
300
3/8" = 1'-0"
140
0.375
141
12.0
290
     0
  0
SCALE
  5
10042
102
{ACAD_REACTORS
330
10037
102
}
330
10037
100
AcDbScale
 70
     0
300
1/2" = 1'-0"
140
0.5
141
12.0
290
     0
  0
SCALE
  5
10043
102
{ACAD_REACTORS
330
10037
102
}
330
10037
100
AcDbScale
 70
     0
300
3/4" = 1'-0"
140
0.75
141
12.0
290
     0
  0
SCALE
  5
10044
102
{ACAD_REACTORS
330
10037
102
}
330
10037
100
AcDbScale
 70
     0
300
1" = 1'-0"
140
1.0
141
12.0
290
     0
  0
SCALE
  5
10045
102
{ACAD_REACTORS
330
10037
102
}
330
10037
100
AcDbScale
 70
     0
300
1-1/2" = 1'-0"
140
1.5
141
12.0
290
     0
  0
SCALE
  5
10046
102
{ACAD_REACTORS
330
10037
102
}
330
10037
100
AcDbScale
 70
     0
300
3" = 1'-0"
140
3.0
141
12.0
290
     0
  0
SCALE
  5
10047
102
{ACAD_REACTORS
330
10037
102
}
330
10037
100
AcDbScale
 70
     0
300
6" = 1'-0"
140
6.0
141
12.0
290
     0
  0
SCALE
  5
10048
102
{ACAD_REACTORS
330
10037
102
}
330
10037
100
AcDbScale
 70
     0
300
1'-0" = 1'-0"
140
12.0
141
12.0
290
     0
  0
ACDBSECTIONVIEWSTYLE
  5
1004C
102
{ACAD_XDICTIONARY
360
101107B
102
}
102
{ACAD_REACTORS
330
1004B
102
}
330
1004B
100
AcDbModelDocViewStyle
 70
     0
  3
Imperial24
290
     0
100
AcDbSectionViewStyle
 70
     0
 71
     0
 90
       78
 71
     1
340
11
 62
   256
 40
0.24
340
0
340
0
 62
   256
 40
0.24
300
I, O, Q, S, X, Z
 40
0.48
 90
        3
 40
0.18
 90
        1
 71
     2
340
16
 90
       25
 62
   256
340
16
 90
       50
 62
   256
 40
0.24
 40
0.0
 40
0.24
 71
     3
340
11
 62
   256
 40
0.24
 90
        1
 40
0.75
 90
        1
300
%<\AcVar ViewType \f "%tc1">% %<\AcVar ViewSectionStartId>%-%<\AcVar ViewSectionEndId>%\PVARIA %<\AcVar ViewScale \f "%sn">%
 71
     4
 62
   256
 62
   257
300
ANSI31
 40
1.0
 90
        0
290
     0
290
     0
 90
        6
 40
0.0
 40
1.570796326794896
 40
0.2617993877991494
 40
1.308996938995747
 40
-0.2617993877991494
 40
1.832595714594045
  0
TABLESTYLE
  5
10036
102
{ACAD_XDICTIONARY
360
1006C
102
}
102
{ACAD_REACTORS
330
10035
102
}
330
10035
100
AcDbTableStyle
280
     0
  3
Standard
 70
     0
 71
     0
 40
0.06
 41
0.06
280
     0
281
     0
  7
Standard
140
0.18
170
     2
 62
     0
 63
     7
283
     0
 90
      512
 91
        0
  1

274
    -2
284
     1
 64
     0
275
    -2
285
     1
 65
     0
276
    -2
286
     1
 66
     0
277
    -2
287
     1
 67
     0
278
    -2
288
     1
 68
     0
279
    -2
289
     1
 69
     0
  7
Standard
140
0.25
170
     5
 62
     0
 63
     7
283
     0
 90
      512
 91
        0
  1

274
    -2
284
     1
 64
     0
275
    -2
285
     1
 65
     0
276
    -2
286
     1
 66
     0
277
    -2
287
     1
 67
     0
278
    -2
288
     1
 68
     0
279
    -2
289
     1
 69
     0
  7
Standard
140
0.18
170
     5
 62
     0
 63
     7
283
     0
 90
      512
 91
        0
  1

274
    -2
284
     1
 64
     0
275
    -2
285
     1
 65
     0
276
    -2
286
     1
 66
     0
277
    -2
287
     1
 67
     0
278
    -2
288
     1
 68
     0
279
    -2
289
     1
 69
     0
  0
VISUALSTYLE
  5
10021
102
{ACAD_REACTORS
330
1001B
102
}
330
1001B
100
AcDbVisualStyle
  2

 70
     4
177
     3
291
     0
 70
    58
 90
        0
176
     1
 90
        2
176
     1
 90
        0
176
     1
 90
        0
176
     1
 40
0.6
176
     1
 40
30.0
176
     1
 62
     7
176
     1
 90
        1
176
     1
 90
        4
176
     1
 62
     7
176
     1
 62
   257
176
     1
 90
        1
176
     1
 90
        1
176
     1
 40
1.0
176
     1
 90
        0
176
     1
 62
   257
176
     1
 40
1.0
176
     1
 90
        1
176
     1
 90
        6
176
     1
 90
        2
176
     1
 62
     7
176
     1
 90
        5
176
     1
 90
        0
176
     1
 90
        0
176
     1
290
     0
176
     1
 90
        1
176
     1
 40
0.0
176
     1
 90
        0
176
     1
290
     1
176
     1
290
     1
176
     1
290
     0
176
     1
290
     0
176
     1
290
     0
176
     1
290
     0
176
     1
290
     0
176
     1
290
     0
176
     1
290
     0
176
     1
 90
       50
176
     1
 40
0.0
176
     1
 40
1.0
176
     1
 90
        0
176
     1
 62
    18
420
        0
176
     1
 90
       50
176
     1
 90
        3
176
     1
 62
     5
420
      255
176
     1
290
     0
176
     1
 90
       50
176
     1
 90
       50
176
     1
 90
       50
176
     1
290
     0
176
     1
 90
       50
176
     1
 62
   256
176
     0
 40
1.0
176
     0
 90
        2
176
     1
  1
strokes_ogs.tif
176
     1
290
     0
176
     1
 40
1.0
176
     1
 40
1.0
176
     1
  0
VISUALSTYLE
  5
10020
102
{ACAD_REACTORS
330
1001B
102
}
330
1001B
100
AcDbVisualStyle
  2

 70
     7
177
     3
291
     1
 70
    58
 90
        1
176
     1
 90
        0
176
     1
 90
        1
176
     1
 90
        0
176
     1
 40
0.6
176
     1
 40
30.0
176
     1
 62
     7
176
     1
 90
        0
176
     1
 90
        4
176
     1
 62
     7
176
     1
 62
   257
176
     1
 90
        1
176
     1
 90
        1
176
     1
 40
1.0
176
     1
 90
        8
176
     1
 62
     7
176
     1
 40
1.0
176
     1
 90
        1
176
     1
 90
        6
176
     1
 90
        2
176
     1
 62
     7
176
     1
 90
        5
176
     1
 90
        0
176
     1
 90
        0
176
     1
290
     0
176
     1
 90
        1
176
     1
 40
0.0
176
     1
 90
        0
176
     1
290
     0
176
     1
290
     1
176
     1
290
     1
176
     1
290
     0
176
     1
290
     0
176
     1
290
     0
176
     1
290
     0
176
     1
290
     0
176
     1
290
     0
176
     1
 90
       50
176
     1
 40
0.0
176
     1
 40
1.0
176
     1
 90
        0
176
     1
 62
    18
420
        0
176
     1
 90
       50
176
     1
 90
        3
176
     1
 62
     5
420
      255
176
     1
290
     0
176
     1
 90
       50
176
     1
 90
       50
176
     1
 90
       50
176
     1
290
     0
176
     1
 90
       50
176
     1
 62
   256
176
     0
 40
1.0
176
     0
 90
        2
176
     1
  1
strokes_ogs.tif
176
     1
290
     0
176
     1
 40
1.0
176
     1
 40
1.0
176
     1
  0
VISUALSTYLE
  5
10027
102
{ACAD_REACTORS
330
1001B
102
}
330
1001B
100
AcDbVisualStyle
  2

 70
    12
177
     3
291
     1
 70
    58
 90
        2
176
     1
 90
        2
176
     1
 90
        0
176
     1
 90
        0
176
     1
 40
0.6
176
     1
 40
30.0
176
     1
 62
     7
176
     1
 90
        1
176
     1
 90
        4
176
     1
 62
     7
176
     1
 62
   257
176
     1
 90
        1
176
     1
 90
        1
176
     1
 40
1.0
176
     1
 90
        8
176
     1
 62
     7
176
     1
 40
1.0
176
     1
 90
        1
176
     1
 90
        6
176
     1
 90
        2
176
     1
 62
     7
176
     1
 90
        5
176
     1
 90
        0
176
     1
 90
        0
176
     1
290
     0
176
     1
 90
        1
176
     1
 40
50.0
176
     1
 90
        0
176
     1
290
     0
176
     1
290
     1
176
     1
290
     1
176
     1
290
     0
176
     1
290
     0
176
     1
290
     0
176
     1
290
     0
176
     1
290
     0
176
     1
290
     0
176
     1
 90
       50
176
     1
 40
0.0
176
     1
 40
1.0
176
     1
 90
        0
176
     1
 62
    18
420
        0
176
     1
 90
       50
176
     1
 90
        3
176
     1
 62
     5
420
      255
176
     1
290
     0
176
     1
 90
       50
176
     1
 90
       50
176
     1
 90
       50
176
     1
290
     0
176
     1
 90
       50
176
     1
 62
   256
176
     0
 40
1.0
176
     0
 90
        2
176
     1
  1
strokes_ogs.tif
176
     1
290
     0
176
     1
 40
1.0
176
     1
 40
1.0
176
     1
  0
VISUALSTYLE
  5
1002B
102
{ACAD_REACTORS
330
1001B
102
}
330
1001B
100
AcDbVisualStyle
  2

 70
    16
177
     3
291
     1
 70
    58
 90
        2
176
     1
 90
        2
176
     1
 90
        3
176
     1
 90
        0
176
     1
 40
0.6
176
     1
 40
30.0
176
     1
 62
     8
176
     1
 90
        1
176
     1
 90
        4
176
     1
 62
     7
176
     1
 62
   257
176
     1
 90
        1
176
     1
 90
        1
176
     1
 40
1.0
176
     1
 90
        8
176
     1
 62
     8
176
     1
 40
1.0
176
     1
 90
        1
176
     1
 90
        6
176
     1
 90
        2
176
     1
 62
     7
176
     1
 90
        5
176
     1
 90
        0
176
     1
 90
        0
176
     1
290
     0
176
     1
 90
        1
176
     1
 40
0.0
176
     1
 90
        0
176
     1
290
     0
176
     1
290
     1
176
     1
290
     1
176
     1
290
     0
176
     1
290
     0
176
     1
290
     0
176
     1
290
     0
176
     1
290
     0
176
     1
290
     0
176
     1
 90
       50
176
     1
 40
0.0
176
     1
 40
1.0
176
     1
 90
        0
176
     1
 62
    18
420
        0
176
     1
 90
       50
176
     1
 90
        3
176
     1
 62
     5
420
      255
176
     1
290
     0
176
     1
 90
       50
176
     1
 90
       50
176
     1
 90
       50
176
     1
290
     0
176
     1
 90
       50
176
     1
 62
   256
176
     0
 40
1.0
176
     0
 90
        2
176
     1
  1
strokes_ogs.tif
176
     1
290
     0
176
     1
 40
1.0
176
     1
 40
1.0
176
     1
  0
VISUALSTYLE
  5
10024
102
{ACAD_REACTORS
330
1001B
102
}
330
1001B
100
AcDbVisualStyle
  2

 70
     9
177
     3
291
     0
 70
    58
 90
        3
176
     1
 90
        2
176
     1
 90
        0
176
     1
 90
        0
176
     1
 40
0.6
176
     1
 40
30.0
176
     1
 62
     7
176
     1
 90
        2
176
     1
 90
        2
176
     1
 62
     7
176
     1
 62
   257
176
     1
 90
        1
176
     1
 90
        1
176
     1
 40
179.0
176
     1
 90
        8
176
     1
 62
     7
176
     1
 40
1.0
176
     1
 90
        1
176
     1
 90
        6
176
     1
 90
        2
176
     1
 62
     7
176
     1
 90
        3
176
     1
 90
        0
176
     1
 90
        0
176
     1
290
     0
176
     1
 90
        1
176
     1
 40
0.0
176
     1
 90
        0
176
     1
290
     0
176
     1
290
     1
176
     1
290
     1
176
     1
290
     0
176
     1
290
     0
176
     1
290
     0
176
     1
290
     0
176
     1
290
     0
176
     1
290
     0
176
     1
 90
       50
176
     1
 40
0.0
176
     1
 40
1.0
176
     1
 90
        0
176
     1
 62
    18
420
        0
176
     1
 90
       50
176
     1
 90
        3
176
     1
 62
     5
420
      255
176
     1
290
     0
176
     1
 90
       50
176
     1
 90
       50
176
     1
 90
       50
176
     1
290
     0
176
     1
 90
       50
176
     1
 62
   256
176
     0
 40
1.0
176
     0
 90
        2
176
     1
  1
strokes_ogs.tif
176
     1
290
     0
176
     1
 40
1.0
176
     1
 40
1.0
176
     1
  0
VISUALSTYLE
  5
10026
102
{ACAD_REACTORS
330
1001B
102
}
330
1001B
100
AcDbVisualStyle
  2

 70
    11
177
     3
291
     1
 70
    58
 90
        2
176
     1
 90
        2
176
     1
 90
        0
176
     1
 90
        0
176
     1
 40
0.6
176
     1
 40
30.0
176
     1
 62
     7
176
     1
 90
        1
176
     1
 90
        4
176
     1
 62
     7
176
     1
 62
   257
176
     1
 90
        1
176
     1
 90
        1
176
     1
 40
1.0
176
     1
 90
        8
176
     1
 62
     7
176
     1
 40
1.0
176
     1
 90
        1
176
     1
 90
        6
176
     1
 90
        2
176
     1
 62
     7
176
     1
 90
        5
176
     1
 90
        0
176
     1
 90
        0
176
     1
290
     0
176
     1
 90
        1
176
     1
 40
-50.0
176
     1
 90
        0
176
     1
290
     0
176
     1
290
     1
176
     1
290
     1
176
     1
290
     0
176
     1
290
     0
176
     1
290
     0
176
     1
290
     0
176
     1
290
     0
176
     1
290
     0
176
     1
 90
       50
176
     1
 40
0.0
176
     1
 40
1.0
176
     1
 90
        0
176
     1
 62
    18
420
        0
176
     1
 90
       50
176
     1
 90
        3
176
     1
 62
     5
420
      255
176
     1
290
     0
176
     1
 90
       50
176
     1
 90
       50
176
     1
 90
       50
176
     1
290
     0
176
     1
 90
       50
176
     1
 62
   256
176
     0
 40
1.0
176
     0
 90
        2
176
     1
  1
strokes_ogs.tif
176
     1
290
     0
176
     1
 40
1.0
176
     1
 40
1.0
176
     1
  0
VISUALSTYLE
  5
10033
102
{ACAD_REACTORS
330
1001B
102
}
330
1001B
100
AcDbVisualStyle
  2

 70
    22
177
     3
291
     1
 70
    58
 90
        2
176
     0
 90
        2
176
     0
 90
        0
176
     0
 90
        0
176
     0
 40
0.6
176
     0
 40
30.0
176
     0
 62
     7
176
     0
 90
        1
176
     0
 90
        4
176
     0
 62
     7
176
     0
 62
   257
176
     0
 90
        1
176
     0
 90
        1
176
     0
 40
1.0
176
     0
 90
        8
176
     2
 62
     7
176
     0
 40
1.0
176
     0
 90
        1
176
     0
 90
        6
176
     0
 90
        2
176
     0
 62
     7
176
     0
 90
        5
176
     0
 90
        0
176
     0
 90
        0
176
     0
290
     0
176
     0
 90
        1
176
     0
 40
0.0
176
     0
 90
        0
176
     0
290
     0
176
     1
290
     1
176
     1
290
     1
176
     1
290
     0
176
     1
290
     0
176
     1
290
     0
176
     1
290
     0
176
     1
290
     0
176
     1
290
     0
176
     1
 90
       50
176
     0
 40
0.0
176
     0
 40
1.0
176
     0
 90
        0
176
     0
 62
    18
420
        0
176
     0
 90
       50
176
     0
 90
        3
176
     0
 62
     5
420
      255
176
     0
290
     0
176
     1
 90
       50
176
     0
 90
       50
176
     0
 90
       50
176
     0
290
     0
176
     1
 90
       50
176
     0
 62
   256
176
     0
 40
1.0
176
     0
 90
        2
176
     0
  1
strokes_ogs.tif
176
     0
290
     0
176
     1
 40
1.0
176
     0
 40
1.0
176
     0
  0
VISUALSTYLE
  5
1002A
102
{ACAD_REACTORS
330
1001B
102
}
330
1001B
100
AcDbVisualStyle
  2

 70
    15
177
     3
291
     1
 70
    58
 90
        2
176
     1
 90
        2
176
     1
 90
        0
176
     1
 90
        0
176
     1
 40
0.6
176
     1
 40
30.0
176
     1
 62
     7
176
     1
 90
        1
176
     1
 90
        4
176
     1
 62
     7
176
     1
 62
   257
176
     1
 90
        1
176
     1
 90
        1
176
     1
 40
1.0
176
     1
 90
        8
176
     1
 62
     7
176
     1
 40
1.0
176
     1
 90
        1
176
     1
 90
        6
176
     1
 90
        2
176
     1
 62
     7
176
     1
 90
        5
176
     1
 90
        0
176
     1
 90
        0
176
     1
290
     0
176
     1
 90
        1
176
     1
 40
0.0
176
     1
 90
        0
176
     1
290
     0
176
     1
290
     1
176
     1
290
     1
176
     1
290
     0
176
     1
290
     0
176
     1
290
     0
176
     1
290
     0
176
     1
290
     0
176
     1
290
     0
176
     1
 90
       50
176
     1
 40
0.0
176
     1
 40
1.0
176
     1
 90
        0
176
     1
 62
    18
420
        0
176
     1
 90
       50
176
     1
 90
        3
176
     1
 62
     5
420
      255
176
     1
290
     0
176
     1
 90
       50
176
     1
 90
       50
176
     1
 90
       50
176
     1
290
     0
176
     1
 90
       50
176
     1
 62
   256
176
     0
 40
1.0
176
     0
 90
        2
176
     1
  1
strokes_ogs.tif
176
     1
290
     0
176
     1
 40
1.0
176
     1
 40
1.0
176
     1
  0
VISUALSTYLE
  5
1001C
102
{ACAD_REACTORS
330
1001B
102
}
330
1001B
100
AcDbVisualStyle
  2

 70
     0
177
     3
291
     1
 70
    58
 90
        2
176
     1
 90
        1
176
     1
 90
        1
176
     1
 90
        2
176
     1
 40
0.6
176
     1
 40
30.0
176
     1
 62
     7
176
     1
 90
        0
176
     1
 90
        0
176
     1
 62
     7
176
     1
 62
   257
176
     1
 90
        1
176
     1
 90
        1
176
     1
 40
1.0
176
     1
 90
        8
176
     1
 62
     7
176
     1
 40
1.0
176
     1
 90
        1
176
     1
 90
        6
176
     1
 90
        2
176
     1
 62
     7
176
     1
 90
        5
176
     1
 90
        0
176
     1
 90
        0
176
     1
290
     0
176
     1
 90
       13
176
     1
 40
0.0
176
     1
 90
        0
176
     1
290
     0
176
     1
290
     1
176
     1
290
     1
176
     1
290
     0
176
     1
290
     0
176
     1
290
     0
176
     1
290
     0
176
     1
290
     0
176
     1
290
     0
176
     1
 90
       50
176
     1
 40
0.0
176
     1
 40
1.0
176
     1
 90
        0
176
     1
 62
    18
420
        0
176
     1
 90
       50
176
     1
 90
        3
176
     1
 62
     5
420
      255
176
     1
290
     0
176
     1
 90
       50
176
     1
 90
       50
176
     1
 90
       50
176
     1
290
     0
176
     1
 90
       50
176
     1
 62
   256
176
     0
 40
1.0
176
     0
 90
        2
176
     1
  1
strokes_ogs.tif
176
     1
290
     0
176
     1
 40
1.0
176
     1
 40
1.0
176
     1
  0
VISUALSTYLE
  5
1001D
102
{ACAD_REACTORS
330
1001B
102
}
330
1001B
100
AcDbVisualStyle
  2

 70
     1
177
     3
291
     1
 70
    58
 90
        2
176
     1
 90
        1
176
     1
 90
        1
176
     1
 90
        2
176
     1
 40
0.6
176
     1
 40
30.0
176
     1
 62
     7
176
     1
 90
        1
176
     1
 90
        0
176
     1
 62
     7
176
     1
 62
   257
176
     1
 90
        1
176
     1
 90
        1
176
     1
 40
1.0
176
     1
 90
        0
176
     1
 62
   257
176
     1
 40
1.0
176
     1
 90
        1
176
     1
 90
        6
176
     1
 90
        2
176
     1
 62
     7
176
     1
 90
        5
176
     1
 90
        0
176
     1
 90
        0
176
     1
290
     0
176
     1
 90
       13
176
     1
 40
0.0
176
     1
 90
        0
176
     1
290
     0
176
     1
290
     1
176
     1
290
     1
176
     1
290
     0
176
     1
290
     0
176
     1
290
     0
176
     1
290
     0
176
     1
290
     0
176
     1
290
     0
176
     1
 90
       50
176
     1
 40
0.0
176
     1
 40
1.0
176
     1
 90
        0
176
     1
 62
    18
420
        0
176
     1
 90
       50
176
     1
 90
        3
176
     1
 62
     5
420
      255
176
     1
290
     0
176
     1
 90
       50
176
     1
 90
       50
176
     1
 90
       50
176
     1
290
     0
176
     1
 90
       50
176
     1
 62
   256
176
     0
 40
1.0
176
     0
 90
        2
176
     1
  1
strokes_ogs.tif
176
     1
290
     0
176
     1
 40
1.0
176
     1
 40
1.0
176
     1
  0
VISUALSTYLE
  5
1001E
102
{ACAD_REACTORS
330
1001B
102
}
330
1001B
100
AcDbVisualStyle
  2

 70
     2
177
     3
291
     1
 70
    58
 90
        2
176
     1
 90
        2
176
     1
 90
        1
176
     1
 90
        2
176
     1
 40
0.6
176
     1
 40
30.0
176
     1
 62
     7
176
     1
 90
        0
176
     1
 90
        0
176
     1
 62
     7
176
     1
 62
   257
176
     1
 90
        1
176
     1
 90
        1
176
     1
 40
1.0
176
     1
 90
        0
176
     1
 62
     7
176
     1
 40
1.0
176
     1
 90
        1
176
     1
 90
        6
176
     1
 90
        2
176
     1
 62
     7
176
     1
 90
        5
176
     1
 90
        0
176
     1
 90
        0
176
     1
290
     0
176
     1
 90
       13
176
     1
 40
0.0
176
     1
 90
        0
176
     1
290
     0
176
     1
290
     1
176
     1
290
     1
176
     1
290
     0
176
     1
290
     0
176
     1
290
     0
176
     1
290
     0
176
     1
290
     0
176
     1
290
     0
176
     1
 90
       50
176
     1
 40
0.0
176
     1
 40
1.0
176
     1
 90
        0
176
     1
 62
    18
420
        0
176
     1
 90
       50
176
     1
 90
        3
176
     1
 62
     5
420
      255
176
     1
290
     0
176
     1
 90
       50
176
     1
 90
       50
176
     1
 90
       50
176
     1
290
     0
176
     1
 90
       50
176
     1
 62
   256
176
     0
 40
1.0
176
     0
 90
        2
176
     1
  1
strokes_ogs.tif
176
     1
290
     0
176
     1
 40
1.0
176
     1
 40
1.0
176
     1
  0
VISUALSTYLE
  5
1001F
102
{ACAD_REACTORS
330
1001B
102
}
330
1001B
100
AcDbVisualStyle
  2

 70
     3
177
     3
291
     1
 70
    58
 90
        2
176
     1
 90
        2
176
     1
 90
        1
176
     1
 90
        2
176
     1
 40
0.6
176
     1
 40
30.0
176
     1
 62
     7
176
     1
 90
        1
176
     1
 90
        0
176
     1
 62
     7
176
     1
 62
   257
176
     1
 90
        1
176
     1
 90
        1
176
     1
 40
1.0
176
     1
 90
        0
176
     1
 62
   257
176
     1
 40
1.0
176
     1
 90
        1
176
     1
 90
        6
176
     1
 90
        2
176
     1
 62
     7
176
     1
 90
        5
176
     1
 90
        0
176
     1
 90
        0
176
     1
290
     0
176
     1
 90
       13
176
     1
 40
0.0
176
     1
 90
        0
176
     1
290
     0
176
     1
290
     1
176
     1
290
     1
176
     1
290
     0
176
     1
290
     0
176
     1
290
     0
176
     1
290
     0
176
     1
290
     0
176
     1
290
     0
176
     1
 90
       50
176
     1
 40
0.0
176
     1
 40
1.0
176
     1
 90
        0
176
     1
 62
    18
420
        0
176
     1
 90
       50
176
     1
 90
        3
176
     1
 62
     5
420
      255
176
     1
290
     0
176
     1
 90
       50
176
     1
 90
       50
176
     1
 90
       50
176
     1
290
     0
176
     1
 90
       50
176
     1
 62
   256
176
     0
 40
1.0
176
     0
 90
        2
176
     1
  1
strokes_ogs.tif
176
     1
290
     0
176
     1
 40
1.0
176
     1
 40
1.0
176
     1
  0
VISUALSTYLE
  5
10023
102
{ACAD_REACTORS
330
1001B
102
}
330
1001B
100
AcDbVisualStyle
  2

 70
     6
177
     3
291
     0
 70
    58
 90
        1
176
     1
 90
        2
176
     1
 90
        2
176
     1
 90
        0
176
     1
 40
0.6
176
     1
 40
30.0
176
     1
 62
     7
176
     1
 90
        2
176
     1
 90
        2
176
     1
 62
     7
176
     1
 62
   257
176
     1
 90
        2
176
     1
 90
        1
176
     1
 40
40.0
176
     1
 90
        0
176
     1
 62
   257
176
     1
 40
1.0
176
     1
 90
        1
176
     1
 90
        6
176
     1
 90
        2
176
     1
 62
     7
176
     1
 90
        3
176
     1
 90
        0
176
     1
 90
        0
176
     1
290
     0
176
     1
 90
        1
176
     1
 40
0.0
176
     1
 90
        0
176
     1
290
     0
176
     1
290
     1
176
     1
290
     1
176
     1
290
     0
176
     1
290
     0
176
     1
290
     0
176
     1
290
     0
176
     1
290
     0
176
     1
290
     0
176
     1
 90
       50
176
     1
 40
0.0
176
     1
 40
1.0
176
     1
 90
        0
176
     1
 62
    18
420
        0
176
     1
 90
       50
176
     1
 90
        3
176
     1
 62
     5
420
      255
176
     1
290
     0
176
     1
 90
       50
176
     1
 90
       50
176
     1
 90
       50
176
     1
290
     0
176
     1
 90
       50
176
     1
 62
   256
176
     0
 40
1.0
176
     0
 90
        2
176
     1
  1
strokes_ogs.tif
176
     1
290
     0
176
     1
 40
1.0
176
     1
 40
1.0
176
     1
  0
VISUALSTYLE
  5
10031
102
{ACAD_REACTORS
330
1001B
102
}
330
1001B
100
AcDbVisualStyle
  2

 70
    20
177
     3
291
     1
 70
    58
 90
        2
176
     0
 90
        2
176
     0
 90
        0
176
     0
 90
        0
176
     0
 40
0.6
176
     0
 40
30.0
176
     0
 62
     7
176
     0
 90
        1
176
     0
 90
        4
176
     0
 62
     7
176
     0
 62
   257
176
     0
 90
        1
176
     0
 90
        1
176
     0
 40
1.0
176
     0
 90
       10
176
     2
 62
     7
176
     0
 40
1.0
176
     0
 90
        1
176
     0
 90
        6
176
     0
 90
        2
176
     0
 62
     7
176
     0
 90
        5
176
     0
 90
        0
176
     0
 90
        0
176
     0
290
     0
176
     0
 90
        1
176
     0
 40
0.0
176
     0
 90
        0
176
     0
290
     0
176
     1
290
     1
176
     1
290
     1
176
     1
290
     0
176
     1
290
     0
176
     1
290
     0
176
     1
290
     0
176
     1
290
     0
176
     1
290
     0
176
     1
 90
       50
176
     0
 40
0.0
176
     0
 40
1.0
176
     0
 90
        0
176
     0
 62
    18
420
        0
176
     0
 90
       50
176
     0
 90
        3
176
     0
 62
     5
420
      255
176
     0
290
     0
176
     1
 90
       50
176
     0
 90
       50
176
     0
 90
       50
176
     0
290
     0
176
     1
 90
       50
176
     0
 62
   256
176
     0
 40
1.0
176
     0
 90
        2
176
     0
  1
strokes_ogs.tif
176
     0
290
     0
176
     1
 40
1.0
176
     0
 40
1.0
176
     0
  0
VISUALSTYLE
  5
10029
102
{ACAD_REACTORS
330
1001B
102
}
330
1001B
100
AcDbVisualStyle
  2

 70
    14
177
     3
291
     1
 70
    58
 90
        2
176
     1
 90
        2
176
     1
 90
        0
176
     1
 90
        0
176
     1
 40
0.6
176
     1
 40
30.0
176
     1
 62
     7
176
     1
 90
        1
176
     1
 90
        4
176
     1
 62
     7
176
     1
 62
   257
176
     1
 90
        7
176
     1
 90
        7
176
     1
 40
1.0
176
     1
 90
        8
176
     1
 62
     7
176
     1
 40
1.0
176
     1
 90
        1
176
     1
 90
        6
176
     1
 90
        2
176
     1
 62
     7
176
     1
 90
        5
176
     1
 90
        0
176
     1
 90
        0
176
     1
290
     0
176
     1
 90
        1
176
     1
 40
0.0
176
     1
 90
        0
176
     1
290
     0
176
     1
290
     1
176
     1
290
     1
176
     1
290
     0
176
     1
290
     0
176
     1
290
     0
176
     1
290
     0
176
     1
290
     0
176
     1
290
     0
176
     1
 90
       50
176
     1
 40
0.0
176
     1
 40
1.0
176
     1
 90
        0
176
     1
 62
    18
420
        0
176
     1
 90
       50
176
     1
 90
        3
176
     1
 62
     5
420
      255
176
     1
290
     0
176
     1
 90
       50
176
     1
 90
       50
176
     1
 90
       50
176
     1
290
     0
176
     1
 90
       50
176
     1
 62
   256
176
     0
 40
1.0
176
     0
 90
        2
176
     1
  1
strokes_ogs.tif
176
     1
290
     0
176
     1
 40
1.0
176
     1
 40
1.0
176
     1
  0
VISUALSTYLE
  5
10032
102
{ACAD_REACTORS
330
1001B
102
}
330
1001B
100
AcDbVisualStyle
  2

 70
    21
177
     3
291
     1
 70
    58
 90
        2
176
     0
 90
        2
176
     0
 90
        0
176
     0
 90
        0
176
     0
 40
0.6
176
     0
 40
30.0
176
     0
 62
     7
176
     0
 90
        1
176
     0
 90
        4
176
     0
 62
     7
176
     0
 62
   257
176
     0
 90
        1
176
     0
 90
        1
176
     0
 40
1.0
176
     0
 90
        9
176
     2
 62
     7
176
     0
 40
1.0
176
     0
 90
        1
176
     0
 90
        6
176
     0
 90
        2
176
     0
 62
     7
176
     0
 90
        5
176
     0
 90
        0
176
     0
 90
        0
176
     0
290
     0
176
     0
 90
        1
176
     0
 40
0.0
176
     0
 90
        0
176
     0
290
     0
176
     1
290
     1
176
     1
290
     1
176
     1
290
     0
176
     1
290
     0
176
     1
290
     0
176
     1
290
     0
176
     1
290
     0
176
     1
290
     0
176
     1
 90
       50
176
     0
 40
0.0
176
     0
 40
1.0
176
     0
 90
        0
176
     0
 62
    18
420
        0
176
     0
 90
       50
176
     0
 90
        3
176
     0
 62
     5
420
      255
176
     0
290
     0
176
     1
 90
       50
176
     0
 90
       50
176
     0
 90
       50
176
     0
290
     0
176
     1
 90
       50
176
     0
 62
   256
176
     0
 40
1.0
176
     0
 90
        2
176
     0
  1
strokes_ogs.tif
176
     0
290
     0
176
     1
 40
1.0
176
     0
 40
1.0
176
     0
  0
VISUALSTYLE
  5
10025
102
{ACAD_REACTORS
330
1001B
102
}
330
1001B
100
AcDbVisualStyle
  2

 70
     8
177
     3
291
     0
 70
    58
 90
        2
176
     1
 90
        2
176
     1
 90
        0
176
     1
 90
        2
176
     1
 40
0.6
176
     1
 40
30.0
176
     1
 62
     7
176
     1
 90
        0
176
     1
 90
        0
176
     1
 62
     7
176
     1
 62
   257
176
     1
 90
        1
176
     1
 90
        1
176
     1
 40
1.0
176
     1
 90
        8
176
     1
 62
   257
176
     1
 40
1.0
176
     1
 90
        1
176
     1
 90
        6
176
     1
 90
        2
176
     1
 62
     7
176
     1
 90
        3
176
     1
 90
        0
176
     1
 90
        0
176
     1
290
     0
176
     1
 90
       13
176
     1
 40
0.0
176
     1
 90
        0
176
     1
290
     0
176
     1
290
     1
176
     1
290
     1
176
     1
290
     0
176
     1
290
     0
176
     1
290
     0
176
     1
290
     0
176
     1
290
     0
176
     1
290
     0
176
     1
 90
       50
176
     1
 40
0.0
176
     1
 40
1.0
176
     1
 90
        0
176
     1
 62
    18
420
        0
176
     1
 90
       50
176
     1
 90
        3
176
     1
 62
     5
420
      255
176
     1
290
     0
176
     1
 90
       50
176
     1
 90
       50
176
     1
 90
       50
176
     1
290
     0
176
     1
 90
       50
176
     1
 62
   256
176
     0
 40
1.0
176
     0
 90
        2
176
     1
  1
strokes_ogs.tif
176
     1
290
     0
176
     1
 40
1.0
176
     1
 40
1.0
176
     1
  0
VISUALSTYLE
  5
10030
102
{ACAD_REACTORS
330
1001B
102
}
330
1001B
100
AcDbVisualStyle
  2

 70
    27
177
     3
291
     0
 70
    58
 90
        2
176
     1
 90
        2
176
     1
 90
        1
176
     1
 90
        2
176
     1
 40
0.6
176
     1
 40
30.0
176
     1
 62
     7
176
     1
 90
        0
176
     1
 90
        4
176
     1
 62
     7
176
     1
 62
   257
176
     1
 90
        1
176
     1
 90
        1
176
     1
 40
1.0
176
     1
 90
        8
176
     1
 62
   257
176
     1
 40
1.0
176
     1
 90
        1
176
     1
 90
        6
176
     1
 90
        2
176
     1
 62
     8
176
     1
 90
        3
176
     1
 90
        0
176
     1
 90
        0
176
     1
290
     0
176
     1
 90
        5
176
     1
 40
0.0
176
     1
 90
        0
176
     1
290
     0
176
     1
290
     1
176
     1
290
     1
176
     1
290
     0
176
     1
290
     0
176
     1
290
     0
176
     1
290
     0
176
     1
290
     0
176
     1
290
     0
176
     1
 90
       50
176
     1
 40
0.0
176
     1
 40
1.0
176
     1
 90
        0
176
     1
 62
    18
420
        0
176
     1
 90
       50
176
     1
 90
        3
176
     1
 62
     5
420
      255
176
     1
290
     0
176
     1
 90
       50
176
     1
 90
       50
176
     1
 90
       50
176
     1
290
     0
176
     1
 90
       50
176
     1
 62
   256
176
     0
 40
1.0
176
     0
 90
        2
176
     1
  1
strokes_ogs.tif
176
     1
290
     0
176
     1
 40
1.0
176
     1
 40
1.0
176
     1
  0
VISUALSTYLE
  5
1002F
102
{ACAD_REACTORS
330
1001B
102
}
330
1001B
100
AcDbVisualStyle
  2

 70
    26
177
     3
291
     0
 70
    58
 90
        2
176
     1
 90
        2
176
     1
 90
        1
176
     1
 90
        2
176
     1
 40
0.6
176
     1
 40
30.0
176
     1
 62
     7
176
     1
 90
        1
176
     1
 90
        2
176
     1
 62
     7
176
     1
 62
   257
176
     1
 90
        2
176
     1
 90
        1
176
     1
 40
1.0
176
     1
 90
        8
176
     1
 62
   257
176
     1
 40
1.0
176
     1
 90
        1
176
     1
 90
        6
176
     1
 90
        2
176
     1
 62
     7
176
     1
 90
        3
176
     1
 90
        0
176
     1
 90
        0
176
     1
290
     0
176
     1
 90
        5
176
     1
 40
0.0
176
     1
 90
        0
176
     1
290
     0
176
     1
290
     1
176
     1
290
     1
176
     1
290
     0
176
     1
290
     0
176
     1
290
     0
176
     1
290
     0
176
     1
290
     0
176
     1
290
     0
176
     1
 90
       50
176
     1
 40
0.0
176
     1
 40
1.0
176
     1
 90
        0
176
     1
 62
    18
420
        0
176
     1
 90
       50
176
     1
 90
        3
176
     1
 62
     5
420
      255
176
     1
290
     0
176
     1
 90
       50
176
     1
 90
       50
176
     1
 90
       50
176
     1
290
     0
176
     1
 90
       50
176
     1
 62
   256
176
     0
 40
1.0
176
     0
 90
        2
176
     1
  1
strokes_ogs.tif
176
     1
290
     0
176
     1
 40
1.0
176
     1
 40
1.0
176
     1
  0
VISUALSTYLE
  5
1002C
102
{ACAD_REACTORS
330
1001B
102
}
330
1001B
100
AcDbVisualStyle
  2

 70
    23
177
     3
291
     0
 70
    58
 90
        2
176
     1
 90
        2
176
     1
 90
        3
176
     1
 90
        0
176
     1
 40
0.6
176
     1
 40
30.0
176
     1
 62
     7
176
     1
 90
        2
176
     1
 90
        2
176
     1
 62
     7
176
     1
 62
     7
176
     1
 90
        1
176
     1
 90
        1
176
     1
 40
40.0
176
     1
 90
        8
176
     1
 62
     7
176
     1
 40
1.0
176
     1
 90
        1
176
     1
 90
        6
176
     1
 90
        2
176
     1
 62
     7
176
     1
 90
        3
176
     1
 90
        0
176
     1
 90
        0
176
     1
290
     0
176
     1
 90
        1
176
     1
 40
0.0
176
     1
 90
        0
176
     1
290
     0
176
     1
290
     1
176
     1
290
     1
176
     1
290
     0
176
     1
290
     0
176
     1
290
     0
176
     1
290
     0
176
     1
290
     0
176
     1
290
     0
176
     1
 90
       50
176
     1
 40
0.0
176
     1
 40
1.0
176
     1
 90
        0
176
     1
 62
    18
420
        0
176
     1
 90
       50
176
     1
 90
        3
176
     1
 62
     5
420
      255
176
     1
290
     0
176
     1
 90
       50
176
     1
 90
       50
176
     1
 90
       50
176
     1
290
     0
176
     1
 90
       50
176
     1
 62
   256
176
     0
 40
1.0
176
     0
 90
        2
176
     1
  1
strokes_ogs.tif
176
     1
290
     0
176
     1
 40
1.0
176
     1
 40
1.0
176
     1
  0
VISUALSTYLE
  5
1002D
102
{ACAD_REACTORS
330
1001B
102
}
330
1001B
100
AcDbVisualStyle
  2

 70
    24
177
     3
291
     0
 70
    58
 90
        1
176
     1
 90
        2
176
     1
 90
        2
176
     1
 90
        0
176
     1
 40
0.6
176
     1
 40
30.0
176
     1
 62
     7
176
     1
 90
        2
176
     1
 90
        2
176
     1
 62
     7
176
     1
 62
     7
176
     1
 90
        1
176
     1
 90
        1
176
     1
 40
40.0
176
     1
 90
       11
176
     1
 62
     7
176
     1
 40
1.0
176
     1
 90
        1
176
     1
 90
        6
176
     1
 90
        2
176
     1
 62
     7
176
     1
 90
        6
176
     1
 90
        0
176
     1
 90
        0
176
     1
290
     0
176
     1
 90
        1
176
     1
 40
0.0
176
     1
 90
        0
176
     1
290
     0
176
     1
290
     1
176
     1
290
     1
176
     1
290
     0
176
     1
290
     0
176
     1
290
     0
176
     1
290
     0
176
     1
290
     0
176
     1
290
     0
176
     1
 90
       50
176
     1
 40
0.0
176
     1
 40
1.0
176
     1
 90
        0
176
     1
 62
    18
420
        0
176
     1
 90
       50
176
     1
 90
        3
176
     1
 62
     5
420
      255
176
     1
290
     0
176
     1
 90
       50
176
     1
 90
       50
176
     1
 90
       50
176
     1
290
     0
176
     1
 90
       50
176
     1
 62
   256
176
     0
 40
1.0
176
     0
 90
        2
176
     1
  1
strokes_ogs.tif
176
     1
290
     0
176
     1
 40
1.0
176
     1
 40
1.0
176
     1
  0
VISUALSTYLE
  5
10028
102
{ACAD_REACTORS
330
1001B
102
}
330
1001B
100
AcDbVisualStyle
  2

 70
    13
177
     3
291
     1
 70
    58
 90
        2
176
     1
 90
        2
176
     1
 90
        0
176
     1
 90
        0
176
     1
 40
0.6
176
     1
 40
30.0
176
     1
 62
     7
176
     1
 90
        1
176
     1
 90
        4
176
     1
 62
     7
176
     1
 62
   257
176
     1
 90
        1
176
     1
 90
        1
176
     1
 40
1.0
176
     1
 90
       12
176
     1
 62
     7
176
     1
 40
1.0
176
     1
 90
        1
176
     1
 90
        6
176
     1
 90
        2
176
     1
 62
     7
176
     1
 90
        5
176
     1
 90
        0
176
     1
 90
        0
176
     1
290
     0
176
     1
 90
        1
176
     1
 40
0.0
176
     1
 90
        0
176
     1
290
     0
176
     1
290
     1
176
     1
290
     1
176
     1
290
     0
176
     1
290
     0
176
     1
290
     0
176
     1
290
     0
176
     1
290
     0
176
     1
290
     0
176
     1
 90
       50
176
     1
 40
0.0
176
     1
 40
1.0
176
     1
 90
        0
176
     1
 62
    18
420
        0
176
     1
 90
       50
176
     1
 90
        3
176
     1
 62
     5
420
      255
176
     1
290
     0
176
     1
 90
       50
176
     1
 90
       50
176
     1
 90
       50
176
     1
290
     0
176
     1
 90
       50
176
     1
 62
   256
176
     0
 40
1.0
176
     0
 90
        2
176
     1
  1
strokes_ogs.tif
176
     1
290
     0
176
     1
 40
1.0
176
     1
 40
1.0
176
     1
  0
VISUALSTYLE
  5
10022
102
{ACAD_REACTORS
330
1001B
102
}
330
1001B
100
AcDbVisualStyle
  2

 70
     5
177
     3
291
     0
 70
    58
 90
        0
176
     1
 90
        2
176
     1
 90
        0
176
     1
 90
        0
176
     1
 40
0.6
176
     1
 40
30.0
176
     1
 62
     7
176
     1
 90
        1
176
     1
 90
        4
176
     1
 62
     7
176
     1
 62
   257
176
     1
 90
        1
176
     1
 90
        1
176
     1
 40
1.0
176
     1
 90
        0
176
     1
 62
   257
176
     1
 40
1.0
176
     1
 90
        1
176
     1
 90
        6
176
     1
 90
        2
176
     1
 62
     7
176
     1
 90
        3
176
     1
 90
        0
176
     1
 90
        0
176
     1
290
     0
176
     1
 90
        1
176
     1
 40
0.0
176
     1
 90
        0
176
     1
290
     0
176
     1
290
     1
176
     1
290
     1
176
     1
290
     0
176
     1
290
     0
176
     1
290
     0
176
     1
290
     0
176
     1
290
     0
176
     1
290
     0
176
     1
 90
       50
176
     1
 40
0.0
176
     1
 40
1.0
176
     1
 90
        0
176
     1
 62
    18
420
        0
176
     1
 90
       50
176
     1
 90
        3
176
     1
 62
     5
420
      255
176
     1
290
     0
176
     1
 90
       50
176
     1
 90
       50
176
     1
 90
       50
176
     1
290
     0
176
     1
 90
       50
176
     1
 62
   256
176
     0
 40
1.0
176
     0
 90
        2
176
     1
  1
strokes_ogs.tif
176
     1
290
     0
176
     1
 40
1.0
176
     1
 40
1.0
176
     1
  0
VISUALSTYLE
  5
1002E
102
{ACAD_REACTORS
330
1001B
102
}
330
1001B
100
AcDbVisualStyle
  2

 70
    25
177
     3
291
     0
 70
    58
 90
        2
176
     1
 90
        2
176
     1
 90
        1
176
     1
 90
        1
176
     1
 40
0.5
176
     1
 40
30.0
176
     1
 62
     7
176
     1
 90
        1
176
     1
 90
        0
176
     1
 62
     7
176
     1
 62
   257
176
     1
 90
        1
176
     1
 90
        1
176
     1
 40
1.0
176
     1
 90
        8
176
     1
 62
     7
176
     1
 40
1.0
176
     1
 90
        1
176
     1
 90
        6
176
     1
 90
        2
176
     1
 62
     7
176
     1
 90
        3
176
     1
 90
        0
176
     1
 90
        0
176
     1
290
     0
176
     1
 90
       13
176
     1
 40
0.0
176
     1
 90
        0
176
     1
290
     0
176
     1
290
     1
176
     1
290
     1
176
     1
290
     0
176
     1
290
     0
176
     1
290
     0
176
     1
290
     0
176
     1
290
     0
176
     1
290
     0
176
     1
 90
       50
176
     1
 40
0.0
176
     1
 40
1.0
176
     1
 90
        0
176
     1
 62
    18
420
        0
176
     1
 90
       50
176
     1
 90
        3
176
     1
 62
     5
420
      255
176
     1
290
     0
176
     1
 90
       50
176
     1
 90
       50
176
     1
 90
       50
176
     1
290
     0
176
     1
 90
       50
176
     1
 62
   256
176
     0
 40
1.0
176
     0
 90
        2
176
     1
  1
strokes_ogs.tif
176
     1
290
     0
176
     1
 40
1.0
176
     1
 40
1.0
176
     1
  0
DICTIONARYVAR
  5
10067
102
{ACAD_REACTORS
330
2D6
102
}
330
2D6
100
DictionaryVariables
280
     0
  1
1:1
  0
DICTIONARYVAR
  5
10064
102
{ACAD_REACTORS
330
2D6
102
}
330
2D6
100
DictionaryVariables
280
     0
  1
STANDARD
  0
DICTIONARYVAR
  5
10063
102
{ACAD_REACTORS
330
2D6
102
}
330
2D6
100
DictionaryVariables
280
     0
  1
STANDARD
  0
DICTIONARYVAR
  5
10065
102
{ACAD_REACTORS
330
2D6
102
}
330
2D6
100
DictionaryVariables
280
     0
  1
Imperial24
  0
DICTIONARYVAR
  5
10066
102
{ACAD_REACTORS
330
2D6
102
}
330
2D6
100
DictionaryVariables
280
     0
  1
Imperial24
  0
DICTIONARYVAR
  5
2D8
330
2D6
100
DictionaryVariables
280
     0
  1
1
  0
DICTIONARYVAR
  5
2D7
330
2D6
100
DictionaryVariables
280
     0
  1
0
  0
DICTIONARYVAR
  5
10069
102
{ACAD_REACTORS
330
2D6
102
}
330
2D6
100
DictionaryVariables
280
     0
  1
0
  0
DICTIONARYVAR
  5
1011082
102
{ACAD_REACTORS
330
2D6
102
}
330
2D6
100
DictionaryVariables
280
     0
  1
1
  0
DICTIONARYVAR
  5
1011083
102
{ACAD_REACTORS
330
2D6
102
}
330
2D6
100
DictionaryVariables
280
     0
  1
15
  0
DICTIONARYVAR
  5
1011081
102
{ACAD_REACTORS
330
2D6
102
}
330
2D6
100
DictionaryVariables
280
     0
  1
0
  0
DICTIONARYVAR
  5
1011080
102
{ACAD_REACTORS
330
2D6
102
}
330
2D6
100
DictionaryVariables
280
     0
  1
0
  0
DICTIONARYVAR
  5
10068
102
{ACAD_REACTORS
330
2D6
102
}
330
2D6
100
DictionaryVariables
280
     0
  1
127
  0
DICTIONARY
  5
101107D
330
1004E
100
AcDbDictionary
280
     1
281
     1
  3
ACAD_XREC_ROUNDTRIP
360
101155A
  0
DICTIONARY
  5
1000C
330
1000B
100
AcDbDictionary
280
     1
281
     1
  3
BUMPTILE
360
1000E
  3
DIFFUSETILE
360
1000D
  3
OPACITYTILE
360
10011
  3
REFLECTIONTILE
360
10010
  3
REFRACTIONTILE
360
10012
  3
SPECULARTILE
360
1000F
  0
DICTIONARY
  5
10004
330
10003
100
AcDbDictionary
280
     1
281
     1
  3
BUMPTILE
360
10006
  3
DIFFUSETILE
360
10005
  3
OPACITYTILE
360
10009
  3
REFLECTIONTILE
360
10008
  3
REFRACTIONTILE
360
1000A
  3
SPECULARTILE
360
10007
  0
DICTIONARY
  5
10014
330
10013
100
AcDbDictionary
280
     1
281
     1
  3
BUMPTILE
360
10016
  3
DIFFUSETILE
360
10015
  3
OPACITYTILE
360
10019
  3
REFLECTIONTILE
360
10018
  3
REFRACTIONTILE
360
1001A
  3
SPECULARTILE
360
10017
  0
DICTIONARY
  5
101107B
330
1004C
100
AcDbDictionary
280
     1
281
     1
  3
ACAD_XREC_ROUNDTRIP
360
1011559
  0
DICTIONARY
  5
1006C
330
10036
100
AcDbDictionary
280
     1
281
     1
  3
ACAD_ROUNDTRIP_2008_TABLESTYLE_CELLSTYLEMAP
360
1011558
  0
XRECORD
  5
101155A
102
{ACAD_REACTORS
330
101107D
102
}
330
101107D
100
AcDbXrecord
280
     1
102
DISPLAYNAME
  1
Imperial24
102
FLAGS
 90
        0
  0
XRECORD
  5
1000E
102
{ACAD_REACTORS
330
1000C
102
}
330
1000C
100
AcDbXrecord
280
     1
270
     1
271
     1
  0
XRECORD
  5
1000D
102
{ACAD_REACTORS
330
1000C
102
}
330
1000C
100
AcDbXrecord
280
     1
270
     1
271
     1
  0
XRECORD
  5
10011
102
{ACAD_REACTORS
330
1000C
102
}
330
1000C
100
AcDbXrecord
280
     1
270
     1
271
     1
  0
XRECORD
  5
10010
102
{ACAD_REACTORS
330
1000C
102
}
330
1000C
100
AcDbXrecord
280
     1
270
     1
271
     1
  0
XRECORD
  5
10012
102
{ACAD_REACTORS
330
1000C
102
}
330
1000C
100
AcDbXrecord
280
     1
270
     1
271
     1
  0
XRECORD
  5
1000F
102
{ACAD_REACTORS
330
1000C
102
}
330
1000C
100
AcDbXrecord
280
     1
270
     1
271
     1
  0
XRECORD
  5
10006
102
{ACAD_REACTORS
330
10004
102
}
330
10004
100
AcDbXrecord
280
     1
270
     1
271
     1
  0
XRECORD
  5
10005
102
{ACAD_REACTORS
330
10004
102
}
330
10004
100
AcDbXrecord
280
     1
270
     1
271
     1
  0
XRECORD
  5
10009
102
{ACAD_REACTORS
330
10004
102
}
330
10004
100
AcDbXrecord
280
     1
270
     1
271
     1
  0
XRECORD
  5
10008
102
{ACAD_REACTORS
330
10004
102
}
330
10004
100
AcDbXrecord
280
     1
270
     1
271
     1
  0
XRECORD
  5
1000A
102
{ACAD_REACTORS
330
10004
102
}
330
10004
100
AcDbXrecord
280
     1
270
     1
271
     1
  0
XRECORD
  5
10007
102
{ACAD_REACTORS
330
10004
102
}
330
10004
100
AcDbXrecord
280
     1
270
     1
271
     1
  0
XRECORD
  5
10016
102
{ACAD_REACTORS
330
10014
102
}
330
10014
100
AcDbXrecord
280
     1
270
     1
271
     1
  0
XRECORD
  5
10015
102
{ACAD_REACTORS
330
10014
102
}
330
10014
100
AcDbXrecord
280
     1
270
     1
271
     1
  0
XRECORD
  5
10019
102
{ACAD_REACTORS
330
10014
102
}
330
10014
100
AcDbXrecord
280
     1
270
     1
271
     1
  0
XRECORD
  5
10018
102
{ACAD_REACTORS
330
10014
102
}
330
10014
100
AcDbXrecord
280
     1
270
     1
271
     1
  0
XRECORD
  5
1001A
102
{ACAD_REACTORS
330
10014
102
}
330
10014
100
AcDbXrecord
280
     1
270
     1
271
     1
  0
XRECORD
  5
10017
102
{ACAD_REACTORS
330
10014
102
}
330
10014
100
AcDbXrecord
280
     1
270
     1
271
     1
  0
XRECORD
  5
1011559
102
{ACAD_REACTORS
330
101107B
102
}
330
101107B
100
AcDbXrecord
280
     1
102
DISPLAYNAME
  1
Imperial24
102
FLAGS
 90
        0
  0
CELLSTYLEMAP
  5
1011558
102
{ACAD_REACTORS
330
1006C
102
}
330
1006C
100
AcDbCellStyleMap
 90
        3
300
CELLSTYLE
  1
TABLEFORMAT_BEGIN
 90
        5
170
     1
 91
        0
 92
    32768
 62
   257
 93
        1
300
CONTENTFORMAT
  1
CONTENTFORMAT_BEGIN
 90
        0
 91
        0
 92
      512
 93
        0
300

 40
0.0
140
1.0
 94
        5
 62
     0
340
11
144
0.25
309
CONTENTFORMAT_END
171
     1
301
MARGIN
  1
CELLMARGIN_BEGIN
 40
0.06
 40
0.06
 40
0.06
 40
0.06
 40
0.18
 40
0.18
309
CELLMARGIN_END
 94
        6
 95
        1
302
GRIDFORMAT
  1
GRIDFORMAT_BEGIN
 90
        0
 91
        1
 62
     0
 92
       -2
340
0
 93
        0
 40
0.045
309
GRIDFORMAT_END
 95
        2
302
GRIDFORMAT
  1
GRIDFORMAT_BEGIN
 90
        0
 91
        1
 62
     0
 92
       -2
340
0
 93
        0
 40
0.045
309
GRIDFORMAT_END
 95
        4
302
GRIDFORMAT
  1
GRIDFORMAT_BEGIN
 90
        0
 91
        1
 62
     0
 92
       -2
340
0
 93
        0
 40
0.045
309
GRIDFORMAT_END
 95
        8
302
GRIDFORMAT
  1
GRIDFORMAT_BEGIN
 90
        0
 91
        1
 62
     0
 92
       -2
340
0
 93
        0
 40
0.045
309
GRIDFORMAT_END
 95
       16
302
GRIDFORMAT
  1
GRIDFORMAT_BEGIN
 90
        0
 91
        1
 62
     0
 92
       -2
340
0
 93
        0
 40
0.045
309
GRIDFORMAT_END
 95
       32
302
GRIDFORMAT
  1
GRIDFORMAT_BEGIN
 90
        0
 91
        1
 62
     0
 92
       -2
340
0
 93
        0
 40
0.045
309
GRIDFORMAT_END
309
TABLEFORMAT_END
  1
CELLSTYLE_BEGIN
 90
        1
 91
        1
300
_TITLE
309
CELLSTYLE_END
300
CELLSTYLE
  1
TABLEFORMAT_BEGIN
 90
        5
170
     1
 91
        0
 92
        0
 62
   257
 93
        1
300
CONTENTFORMAT
  1
CONTENTFORMAT_BEGIN
 90
        0
 91
        0
 92
      512
 93
        0
300

 40
0.0
140
1.0
 94
        5
 62
     0
340
11
144
0.18
309
CONTENTFORMAT_END
171
     1
301
MARGIN
  1
CELLMARGIN_BEGIN
 40
0.06
 40
0.06
 40
0.06
 40
0.06
 40
0.18
 40
0.18
309
CELLMARGIN_END
 94
        6
 95
        1
302
GRIDFORMAT
  1
GRIDFORMAT_BEGIN
 90
        0
 91
        1
 62
     0
 92
       -2
340
0
 93
        0
 40
0.045
309
GRIDFORMAT_END
 95
        2
302
GRIDFORMAT
  1
GRIDFORMAT_BEGIN
 90
        0
 91
        1
 62
     0
 92
       -2
340
0
 93
        0
 40
0.045
309
GRIDFORMAT_END
 95
        4
302
GRIDFORMAT
  1
GRIDFORMAT_BEGIN
 90
        0
 91
        1
 62
     0
 92
       -2
340
0
 93
        0
 40
0.045
309
GRIDFORMAT_END
 95
        8
302
GRIDFORMAT
  1
GRIDFORMAT_BEGIN
 90
        0
 91
        1
 62
     0
 92
       -2
340
0
 93
        0
 40
0.045
309
GRIDFORMAT_END
 95
       16
302
GRIDFORMAT
  1
GRIDFORMAT_BEGIN
 90
        0
 91
        1
 62
     0
 92
       -2
340
0
 93
        0
 40
0.045
309
GRIDFORMAT_END
 95
       32
302
GRIDFORMAT
  1
GRIDFORMAT_BEGIN
 90
        0
 91
        1
 62
     0
 92
       -2
340
0
 93
        0
 40
0.045
309
GRIDFORMAT_END
309
TABLEFORMAT_END
  1
CELLSTYLE_BEGIN
 90
        2
 91
        1
300
_HEADER
309
CELLSTYLE_END
300
CELLSTYLE
  1
TABLEFORMAT_BEGIN
 90
        5
170
     1
 91
        0
 92
        0
 62
   257
 93
        1
300
CONTENTFORMAT
  1
CONTENTFORMAT_BEGIN
 90
        0
 91
        0
 92
      512
 93
        0
300

 40
0.0
140
1.0
 94
        2
 62
     0
340
11
144
0.18
309
CONTENTFORMAT_END
171
     1
301
MARGIN
  1
CELLMARGIN_BEGIN
 40
0.06
 40
0.06
 40
0.06
 40
0.06
 40
0.18
 40
0.18
309
CELLMARGIN_END
 94
        6
 95
        1
302
GRIDFORMAT
  1
GRIDFORMAT_BEGIN
 90
        0
 91
        1
 62
     0
 92
       -2
340
0
 93
        0
 40
0.045
309
GRIDFORMAT_END
 95
        2
302
GRIDFORMAT
  1
GRIDFORMAT_BEGIN
 90
        0
 91
        1
 62
     0
 92
       -2
340
0
 93
        0
 40
0.045
309
GRIDFORMAT_END
 95
        4
302
GRIDFORMAT
  1
GRIDFORMAT_BEGIN
 90
        0
 91
        1
 62
     0
 92
       -2
340
0
 93
        0
 40
0.045
309
GRIDFORMAT_END
 95
        8
302
GRIDFORMAT
  1
GRIDFORMAT_BEGIN
 90
        0
 91
        1
 62
     0
 92
       -2
340
0
 93
        0
 40
0.045
309
GRIDFORMAT_END
 95
       16
302
GRIDFORMAT
  1
GRIDFORMAT_BEGIN
 90
        0
 91
        1
 62
     0
 92
       -2
340
0
 93
        0
 40
0.045
309
GRIDFORMAT_END
 95
       32
302
GRIDFORMAT
  1
GRIDFORMAT_BEGIN
 90
        0
 91
        1
 62
     0
 92
       -2
340
0
 93
        0
 40
0.045
309
GRIDFORMAT_END
309
TABLEFORMAT_END
  1
CELLSTYLE_BEGIN
 90
        3
 91
        2
300
_DATA
309
CELLSTYLE_END
  0
ENDSEC
  0
EOF
