  0
SECTION
  2
HEADER
  9
$ACADVER
  1
AC1027
  9
$ACADMAINTVER
 70
   125
  9
$DWGCODEPAGE
  3
ANSI_1252
  9
$LASTSAVEDBY
  1
Peter
  9
$REQUIREDVERSIONS
160
                 0
  9
$INSBASE
 10
0.0
 20
0.0
 30
0.0
  9
$EXTMIN
 10
27.82367268456346
 20
23.37977557637959
 30
0.0
  9
$EXTMAX
 10
280.7403393512302
 20
396.8797755763797
 30
0.0
  9
$LIMMIN
 10
0.0
 20
0.0
  9
$LIMMAX
 10
12.0
 20
9.0
  9
$ORTHOMODE
 70
     0
  9
$REGENMODE
 70
     1
  9
$FILLMODE
 70
     1
  9
$QTEXTMODE
 70
     0
  9
$MIRRTEXT
 70
     0
  9
$LTSCALE
 40
1.0
  9
$ATTMODE
 70
     1
  9
$TEXTSIZE
 40
0.2
  9
$TRACEWID
 40
0.05
  9
$TEXTSTYLE
  7
Roman
  9
$CLAYER
  8
0
  9
$CELTYPE
  6
CONTINUOUS
  9
$CECOLOR
 62
   256
  9
$CELTSCALE
 40
1.0
  9
$DISPSILH
 70
     0
  9
$DIMSCALE
 40
1.0
  9
$DIMASZ
 40
0.18
  9
$DIMEXO
 40
0.0625
  9
$DIMDLI
 40
0.38
  9
$DIMRND
 40
0.0
  9
$DIMDLE
 40
0.0
  9
$DIMEXE
 40
0.18
  9
$DIMTP
 40
0.0
  9
$DIMTM
 40
0.0
  9
$DIMTXT
 40
0.18
  9
$DIMCEN
 40
0.09
  9
$DIMTSZ
 40
0.0
  9
$DIMTOL
 70
     0
  9
$DIMLIM
 70
     0
  9
$DIMTIH
 70
     1
  9
$DIMTOH
 70
     1
  9
$DIMSE1
 70
     0
  9
$DIMSE2
 70
     0
  9
$DIMTAD
 70
     0
  9
$DIMZIN
 70
     0
  9
$DIMBLK
  1

  9
$DIMASO
 70
     1
  9
$DIMSHO
 70
     1
  9
$DIMPOST
  1

  9
$DIMAPOST
  1

  9
$DIMALT
 70
     0
  9
$DIMALTD
 70
     2
  9
$DIMALTF
 40
25.4
  9
$DIMLFAC
 40
1.0
  9
$DIMTOFL
 70
     0
  9
$DIMTVP
 40
0.0
  9
$DIMTIX
 70
     0
  9
$DIMSOXD
 70
     0
  9
$DIMSAH
 70
     0
  9
$DIMBLK1
  1

  9
$DIMBLK2
  1

  9
$DIMSTYLE
  2
Standard
  9
$DIMCLRD
 70
     0
  9
$DIMCLRE
 70
     0
  9
$DIMCLRT
 70
     0
  9
$DIMTFAC
 40
1.0
  9
$DIMGAP
 40
0.09
  9
$DIMJUST
 70
     0
  9
$DIMSD1
 70
     0
  9
$DIMSD2
 70
     0
  9
$DIMTOLJ
 70
     1
  9
$DIMTZIN
 70
     0
  9
$DIMALTZ
 70
     0
  9
$DIMALTTZ
 70
     0
  9
$DIMUPT
 70
     0
  9
$DIMDEC
 70
     4
  9
$DIMTDEC
 70
     4
  9
$DIMALTU
 70
     2
  9
$DIMALTTD
 70
     2
  9
$DIMTXSTY
  7
Standard
  9
$DIMAUNIT
 70
     0
  9
$DIMADEC
 70
     0
  9
$DIMALTRND
 40
0.0
  9
$DIMAZIN
 70
     0
  9
$DIMDSEP
 70
    46
  9
$DIMATFIT
 70
     3
  9
$DIMFRAC
 70
     0
  9
$DIMLDRBLK
  1

  9
$DIMLUNIT
 70
     2
  9
$DIMLWD
 70
    -2
  9
$DIMLWE
 70
    -2
  9
$DIMTMOVE
 70
     0
  9
$DIMFXL
 40
1.0
  9
$DIMFXLON
 70
     0
  9
$DIMJOGANG
 40
0.7853981633974483
  9
$DIMTFILL
 70
     0
  9
$DIMTFILLCLR
 70
     0
  9
$DIMARCSYM
 70
     0
  9
$DIMLTYPE
  6

  9
$DIMLTEX1
  6

  9
$DIMLTEX2
  6

  9
$DIMTXTDIRECTION
 70
     0
  9
$LUNITS
 70
     2
  9
$LUPREC
 70
     4
  9
$SKETCHINC
 40
0.1
  9
$FILLETRAD
 40
0.0
  9
$AUNITS
 70
     0
  9
$AUPREC
 70
     0
  9
$MENU
  1
.
  9
$ELEVATION
 40
0.0
  9
$PELEVATION
 40
0.0
  9
$THICKNESS
 40
0.0
  9
$LIMCHECK
 70
     0
  9
$CHAMFERA
 40
0.0
  9
$CHAMFERB
 40
0.0
  9
$CHAMFERC
 40
0.0
  9
$CHAMFERD
 40
0.0
  9
$SKPOLY
 70
     0
  9
$TDCREATE
 40
2458354.663275463
  9
$TDUCREATE
 40
2458354.579942130
  9
$TDUPDATE
 40
2458946.706759259
  9
$TDUUPDATE
 40
2458946.623425926
  9
$TDINDWG
 40
0.0080671296
  9
$TDUSRTIMER
 40
0.0080671296
  9
$USRTIMER
 70
     1
  9
$ANGBASE
 50
0.0
  9
$ANGDIR
 70
     0
  9
$PDMODE
 70
     0
  9
$PDSIZE
 40
0.0
  9
$PLINEWID
 40
0.0
  9
$SPLFRAME
 70
     0
  9
$SPLINETYPE
 70
     6
  9
$SPLINESEGS
 70
     8
  9
$HANDSEED
  5
10113CE
  9
$SURFTAB1
 70
     6
  9
$SURFTAB2
 70
     6
  9
$SURFTYPE
 70
     6
  9
$SURFU
 70
     6
  9
$SURFV
 70
     6
  9
$UCSBASE
  2

  9
$UCSNAME
  2

  9
$UCSORG
 10
0.0
 20
0.0
 30
0.0
  9
$UCSXDIR
 10
1.0
 20
0.0
 30
0.0
  9
$UCSYDIR
 10
0.0
 20
1.0
 30
0.0
  9
$UCSORTHOREF
  2

  9
$UCSORTHOVIEW
 70
     0
  9
$UCSORGTOP
 10
0.0
 20
0.0
 30
0.0
  9
$UCSORGBOTTOM
 10
0.0
 20
0.0
 30
0.0
  9
$UCSORGLEFT
 10
0.0
 20
0.0
 30
0.0
  9
$UCSORGRIGHT
 10
0.0
 20
0.0
 30
0.0
  9
$UCSORGFRONT
 10
0.0
 20
0.0
 30
0.0
  9
$UCSORGBACK
 10
0.0
 20
0.0
 30
0.0
  9
$PUCSBASE
  2

  9
$PUCSNAME
  2

  9
$PUCSORG
 10
0.0
 20
0.0
 30
0.0
  9
$PUCSXDIR
 10
1.0
 20
0.0
 30
0.0
  9
$PUCSYDIR
 10
0.0
 20
1.0
 30
0.0
  9
$PUCSORTHOREF
  2

  9
$PUCSORTHOVIEW
 70
     0
  9
$PUCSORGTOP
 10
0.0
 20
0.0
 30
0.0
  9
$PUCSORGBOTTOM
 10
0.0
 20
0.0
 30
0.0
  9
$PUCSORGLEFT
 10
0.0
 20
0.0
 30
0.0
  9
$PUCSORGRIGHT
 10
0.0
 20
0.0
 30
0.0
  9
$PUCSORGFRONT
 10
0.0
 20
0.0
 30
0.0
  9
$PUCSORGBACK
 10
0.0
 20
0.0
 30
0.0
  9
$USERI1
 70
     0
  9
$USERI2
 70
     0
  9
$USERI3
 70
     0
  9
$USERI4
 70
     0
  9
$USERI5
 70
     0
  9
$USERR1
 40
0.0
  9
$USERR2
 40
0.0
  9
$USERR3
 40
0.0
  9
$USERR4
 40
0.0
  9
$USERR5
 40
0.0
  9
$WORLDVIEW
 70
     1
  9
$SHADEDGE
 70
     3
  9
$SHADEDIF
 70
    70
  9
$TILEMODE
 70
     1
  9
$MAXACTVP
 70
    64
  9
$PINSBASE
 10
0.0
 20
0.0
 30
0.0
  9
$PLIMCHECK
 70
     0
  9
$PEXTMIN
 10
1.000000000000000E+20
 20
1.000000000000000E+20
 30
1.000000000000000E+20
  9
$PEXTMAX
 10
-1.000000000000000E+20
 20
-1.000000000000000E+20
 30
-1.000000000000000E+20
  9
$PLIMMIN
 10
0.0
 20
0.0
  9
$PLIMMAX
 10
12.0
 20
9.0
  9
$UNITMODE
 70
     0
  9
$VISRETAIN
 70
     1
  9
$PLINEGEN
 70
     0
  9
$PSLTSCALE
 70
     1
  9
$TREEDEPTH
 70
  3020
  9
$CMLSTYLE
  2
Standard
  9
$CMLJUST
 70
     0
  9
$CMLSCALE
 40
1.0
  9
$PROXYGRAPHICS
 70
     1
  9
$MEASUREMENT
 70
     0
  9
$CELWEIGHT
370
    -1
  9
$ENDCAPS
280
     0
  9
$JOINSTYLE
280
     0
  9
$LWDISPLAY
290
     0
  9
$INSUNITS
 70
     1
  9
$HYPERLINKBASE
  1

  9
$STYLESHEET
  1

  9
$XEDIT
290
     1
  9
$CEPSNTYPE
380
     0
  9
$PSTYLEMODE
290
     1
  9
$FINGERPRINTGUID
  2
{1DB9D1DE-789F-E248-BE97-F7CD108A34F9}
  9
$VERSIONGUID
  2
{BEEEA2CE-8160-D64B-8B92-A8641EB56BB6}
  9
$EXTNAMES
290
     1
  9
$PSVPSCALE
 40
0.0
  9
$OLESTARTUP
290
     0
  9
$SORTENTS
280
   127
  9
$INDEXCTL
280
     0
  9
$HIDETEXT
280
     0
  9
$XCLIPFRAME
280
     2
  9
$HALOGAP
280
     0
  9
$OBSCOLOR
 70
   257
  9
$OBSLTYPE
280
     0
  9
$INTERSECTIONDISPLAY
280
     0
  9
$INTERSECTIONCOLOR
 70
   257
  9
$DIMASSOC
280
     1
  9
$PROJECTNAME
  1

  9
$CAMERADISPLAY
290
     0
  9
$LENSLENGTH
 40
50.0
  9
$CAMERAHEIGHT
 40
0.0
  9
$STEPSPERSEC
 40
2.0
  9
$STEPSIZE
 40
6.0
  9
$3DDWFPREC
 40
2.0
  9
$PSOLWIDTH
 40
0.25
  9
$PSOLHEIGHT
 40
4.0
  9
$LOFTANG1
 40
1.570796326794896
  9
$LOFTANG2
 40
1.570796326794896
  9
$LOFTMAG1
 40
0.0
  9
$LOFTMAG2
 40
0.0
  9
$LOFTPARAM
 70
     7
  9
$LOFTNORMALS
280
     1
  9
$LATITUDE
 40
37.795
  9
$LONGITUDE
 40
-122.394
  9
$NORTHDIRECTION
 40
0.0
  9
$TIMEZONE
 70
 -8000
  9
$LIGHTGLYPHDISPLAY
280
     1
  9
$TILEMODELIGHTSYNCH
280
     1
  9
$CMATERIAL
347
10003
  9
$SOLIDHIST
280
     0
  9
$SHOWHIST
280
     1
  9
$DWFFRAME
280
     2
  9
$DGNFRAME
280
     0
  9
$REALWORLDSCALE
290
     1
  9
$INTERFERECOLOR
 62
     1
  9
$INTERFEREOBJVS
345
10025
  9
$INTERFEREVPVS
346
10022
  9
$CSHADOW
280
     0
  9
$SHADOWPLANELOCATION
 40
0.0
  0
ENDSEC
  0
SECTION
  2
CLASSES
  0
CLASS
  1
ACDBDICTIONARYWDFLT
  2
AcDbDictionaryWithDefault
  3
ObjectDBX Classes
 90
        0
 91
        1
280
     0
281
     0
  0
CLASS
  1
DICTIONARYVAR
  2
AcDbDictionaryVar
  3
ObjectDBX Classes
 90
        0
 91
       13
280
     0
281
     0
  0
CLASS
  1
MATERIAL
  2
AcDbMaterial
  3
ObjectDBX Classes
 90
     1153
 91
        3
280
     0
281
     0
  0
CLASS
  1
VISUALSTYLE
  2
AcDbVisualStyle
  3
ObjectDBX Classes
 90
     4095
 91
       24
280
     0
281
     0
  0
CLASS
  1
TABLESTYLE
  2
AcDbTableStyle
  3
ObjectDBX Classes
 90
     4095
 91
        1
280
     0
281
     0
  0
CLASS
  1
SCALE
  2
AcDbScale
  3
ObjectDBX Classes
 90
     1153
 91
       17
280
     0
281
     0
  0
CLASS
  1
MLEADERSTYLE
  2
AcDbMLeaderStyle
  3
ACDB_MLEADERSTYLE_CLASS
 90
     4095
 91
        1
280
     0
281
     0
  0
CLASS
  1
ACDBSECTIONVIEWSTYLE
  2
AcDbSectionViewStyle
  3
ObjectDBX Classes
 90
     1025
 91
        1
280
     0
281
     0
  0
CLASS
  1
ACDBDETAILVIEWSTYLE
  2
AcDbDetailViewStyle
  3
ObjectDBX Classes
 90
     1025
 91
        1
280
     0
281
     0
  0
CLASS
  1
CELLSTYLEMAP
  2
AcDbCellStyleMap
  3
ObjectDBX Classes
 90
     1152
 91
        1
280
     0
281
     0
  0
ENDSEC
  0
SECTION
  2
TABLES
  0
TABLE
  2
VPORT
  5
8
102
{ACAD_XDICTIONARY
360
100FC
102
}
330
0
100
AcDbSymbolTable
 70
     1
1001
ACAD
1000
DbSaveVer
1071
        5
  0
VPORT
  5
30
330
8
100
AcDbSymbolTableRecord
100
AcDbViewportTableRecord
  2
*Active
 70
     0
 10
0.0
 20
0.0
 11
1.0
 21
1.0
 12
154.2774484188213
 22
216.6484152178908
 13
0.0
 23
0.0
 14
0.0
 24
0.0
 15
10.0
 25
10.0
 16
0.0
 26
0.0
 36
1.0
 17
0.0
 27
0.0
 37
0.0
 40
376.2301142982437
 41
2.283154121863799
 42
50.0
 43
0.0
 44
0.0
 50
0.0
 51
0.0
 71
     0
 72
   100
 73
     1
 74
     3
 75
     1
 76
     1
 77
     0
 78
     0
281
     0
 65
     1
110
0.0
120
0.0
130
0.0
111
1.0
121
0.0
131
0.0
112
0.0
122
1.0
132
0.0
 79
     0
146
0.0
348
10021
 60
     3
 61
     5
292
     1
282
     1
141
0.0
142
0.0
 63
   250
421
  3355443
1001
ACAD_NAV_VCDISPLAY
1070
     3
  0
ENDTAB
  0
TABLE
  2
LTYPE
  5
5
330
0
100
AcDbSymbolTable
 70
    23
  0
LTYPE
  5
14
330
5
100
AcDbSymbolTableRecord
100
AcDbLinetypeTableRecord
  2
BYBLOCK
 70
     0
  3

 72
    65
 73
     0
 40
0.0
  0
LTYPE
  5
15
330
5
100
AcDbSymbolTableRecord
100
AcDbLinetypeTableRecord
  2
BYLAYER
 70
     0
  3

 72
    65
 73
     0
 40
0.0
  0
LTYPE
  5
16
330
5
100
AcDbSymbolTableRecord
100
AcDbLinetypeTableRecord
  2
CONTINUOUS
 70
     0
  3
Solid line
 72
    65
 73
     0
 40
0.0
  0
LTYPE
  5
31
330
5
100
AcDbSymbolTableRecord
100
AcDbLinetypeTableRecord
  2
ACAD_ISO02W100
 70
     0
  3
ISO Dashed __ __ __ __ __ __ __ __ __ __ _
 72
    65
 73
     2
 40
15.0
 49
12.0
 74
     0
 49
-3.0
 74
     0
  0
LTYPE
  5
32
330
5
100
AcDbSymbolTableRecord
100
AcDbLinetypeTableRecord
  2
ACAD_ISO03W100
 70
     0
  3
ISO Dashed with Distance __    __    __    _
 72
    65
 73
     2
 40
30.0
 49
12.0
 74
     0
 49
-18.0
 74
     0
  0
LTYPE
  5
33
330
5
100
AcDbSymbolTableRecord
100
AcDbLinetypeTableRecord
  2
ACAD_ISO04W100
 70
     0
  3
ISO Long Dashed Dotted ____ . ____ . __
 72
    65
 73
     4
 40
30.0
 49
24.0
 74
     0
 49
-3.0
 74
     0
 49
0.0
 74
     0
 49
-3.0
 74
     0
  0
LTYPE
  5
34
330
5
100
AcDbSymbolTableRecord
100
AcDbLinetypeTableRecord
  2
ACAD_ISO05W100
 70
     0
  3
ISO Long Dashed Double Dotted ____ .. __
 72
    65
 73
     6
 40
33.0
 49
24.0
 74
     0
 49
-3.0
 74
     0
 49
0.0
 74
     0
 49
-3.0
 74
     0
 49
0.0
 74
     0
 49
-3.0
 74
     0
  0
LTYPE
  5
35
330
5
100
AcDbSymbolTableRecord
100
AcDbLinetypeTableRecord
  2
BORDER
 70
     0
  3
Border __ __ . __ __ . __ __ . __ __ . __ __ .
 72
    65
 73
     6
 40
44.45
 49
12.7
 74
     0
 49
-6.349999999999998
 74
     0
 49
12.7
 74
     0
 49
-6.349999999999998
 74
     0
 49
0.0
 74
     0
 49
-6.349999999999998
 74
     0
  0
LTYPE
  5
36
330
5
100
AcDbSymbolTableRecord
100
AcDbLinetypeTableRecord
  2
BORDER2
 70
     0
  3
Border (.5x) __.__.__.__.__.__.__.__.__.__.__.
 72
    65
 73
     6
 40
22.225
 49
6.349999999999998
 74
     0
 49
-3.174999999999998
 74
     0
 49
6.349999999999998
 74
     0
 49
-3.174999999999998
 74
     0
 49
0.0
 74
     0
 49
-3.174999999999998
 74
     0
  0
LTYPE
  5
37
330
5
100
AcDbSymbolTableRecord
100
AcDbLinetypeTableRecord
  2
BORDERX2
 70
     0
  3
Border (2x) ____  ____  .  ____  ____  .  ___
 72
    65
 73
     6
 40
88.9
 49
25.4
 74
     0
 49
-12.7
 74
     0
 49
25.4
 74
     0
 49
-12.7
 74
     0
 49
0.0
 74
     0
 49
-12.7
 74
     0
  0
LTYPE
  5
38
330
5
100
AcDbSymbolTableRecord
100
AcDbLinetypeTableRecord
  2
CENTER
 70
     0
  3
Center ____ _ ____ _ ____ _ ____ _ ____ _ ____
 72
    65
 73
     4
 40
50.8
 49
31.75
 74
     0
 49
-6.349999999999998
 74
     0
 49
6.349999999999998
 74
     0
 49
-6.349999999999998
 74
     0
  0
LTYPE
  5
39
330
5
100
AcDbSymbolTableRecord
100
AcDbLinetypeTableRecord
  2
CENTER2
 70
     0
  3
Center (.5x) ___ _ ___ _ ___ _ ___ _ ___ _ ___
 72
    65
 73
     4
 40
28.575
 49
19.05
 74
     0
 49
-3.174999999999998
 74
     0
 49
3.174999999999998
 74
     0
 49
-3.174999999999998
 74
     0
  0
LTYPE
  5
3A
330
5
100
AcDbSymbolTableRecord
100
AcDbLinetypeTableRecord
  2
CENTERX2
 70
     0
  3
Center (2x) ________  __  ________  __  _____
 72
    65
 73
     4
 40
101.6
 49
63.5
 74
     0
 49
-12.7
 74
     0
 49
12.7
 74
     0
 49
-12.7
 74
     0
  0
LTYPE
  5
3B
330
5
100
AcDbSymbolTableRecord
100
AcDbLinetypeTableRecord
  2
DASHDOT
 70
     0
  3
Dash dot __ . __ . __ . __ . __ . __ . __ . __
 72
    65
 73
     4
 40
25.4
 49
12.7
 74
     0
 49
-6.349999999999998
 74
     0
 49
0.0
 74
     0
 49
-6.349999999999998
 74
     0
  0
LTYPE
  5
3C
330
5
100
AcDbSymbolTableRecord
100
AcDbLinetypeTableRecord
  2
DASHDOT2
 70
     0
  3
Dash dot (.5x) _._._._._._._._._._._._._._._.
 72
    65
 73
     4
 40
12.7
 49
6.349999999999998
 74
     0
 49
-3.174999999999998
 74
     0
 49
0.0
 74
     0
 49
-3.174999999999998
 74
     0
  0
LTYPE
  5
3D
330
5
100
AcDbSymbolTableRecord
100
AcDbLinetypeTableRecord
  2
DASHDOTX2
 70
     0
  3
Dash dot (2x) ____  .  ____  .  ____  .  ___
 72
    65
 73
     4
 40
50.8
 49
25.4
 74
     0
 49
-12.7
 74
     0
 49
0.0
 74
     0
 49
-12.7
 74
     0
  0
LTYPE
  5
3E
330
5
100
AcDbSymbolTableRecord
100
AcDbLinetypeTableRecord
  2
DASHED
 70
     0
  3
Dashed __ __ __ __ __ __ __ __ __ __ __ __ __ _
 72
    65
 73
     2
 40
19.05
 49
12.7
 74
     0
 49
-6.349999999999998
 74
     0
  0
LTYPE
  5
3F
330
5
100
AcDbSymbolTableRecord
100
AcDbLinetypeTableRecord
  2
DASHED2
 70
     0
  3
Dashed (.5x) _ _ _ _ _ _ _ _ _ _ _ _ _ _ _ _ _
 72
    65
 73
     2
 40
9.525
 49
6.349999999999998
 74
     0
 49
-3.174999999999998
 74
     0
  0
LTYPE
  5
40
330
5
100
AcDbSymbolTableRecord
100
AcDbLinetypeTableRecord
  2
DASHEDX2
 70
     0
  3
Dashed (2x) ____  ____  ____  ____  ____  ___
 72
    65
 73
     2
 40
38.1
 49
25.4
 74
     0
 49
-12.7
 74
     0
  0
LTYPE
  5
41
330
5
100
AcDbSymbolTableRecord
100
AcDbLinetypeTableRecord
  2
DIVIDE
 70
     0
  3
Divide ____ . . ____ . . ____ . . ____ . . ____
 72
    65
 73
     6
 40
31.75
 49
12.7
 74
     0
 49
-6.349999999999998
 74
     0
 49
0.0
 74
     0
 49
-6.349999999999998
 74
     0
 49
0.0
 74
     0
 49
-6.349999999999998
 74
     0
  0
LTYPE
  5
42
330
5
100
AcDbSymbolTableRecord
100
AcDbLinetypeTableRecord
  2
DIVIDE2
 70
     0
  3
Divide (.5x) __..__..__..__..__..__..__..__.._
 72
    65
 73
     6
 40
15.875
 49
6.349999999999998
 74
     0
 49
-3.174999999999998
 74
     0
 49
0.0
 74
     0
 49
-3.174999999999998
 74
     0
 49
0.0
 74
     0
 49
-3.174999999999998
 74
     0
  0
LTYPE
  5
43
330
5
100
AcDbSymbolTableRecord
100
AcDbLinetypeTableRecord
  2
DIVIDEX2
 70
     0
  3
Divide (2x) ________  .  .  ________  .  .  _
 72
    65
 73
     6
 40
63.5
 49
25.4
 74
     0
 49
-12.7
 74
     0
 49
0.0
 74
     0
 49
-12.7
 74
     0
 49
0.0
 74
     0
 49
-12.7
 74
     0
  0
LTYPE
  5
44
330
5
100
AcDbSymbolTableRecord
100
AcDbLinetypeTableRecord
  2
DOT
 70
     0
  3
Dot . . . . . . . . . . . . . . . . . . . . . .
 72
    65
 73
     2
 40
6.349999999999998
 49
0.0
 74
     0
 49
-6.349999999999998
 74
     0
  0
LTYPE
  5
45
330
5
100
AcDbSymbolTableRecord
100
AcDbLinetypeTableRecord
  2
DOT2
 70
     0
  3
Dot (.5x) .....................................
 72
    65
 73
     2
 40
3.174999999999998
 49
0.0
 74
     0
 49
-3.174999999999998
 74
     0
  0
LTYPE
  5
46
330
5
100
AcDbSymbolTableRecord
100
AcDbLinetypeTableRecord
  2
DOTX2
 70
     0
  3
Dot (2x) .  .  .  .  .  .  .  .  .  .  .  .  .
 72
    65
 73
     2
 40
12.7
 49
0.0
 74
     0
 49
-12.7
 74
     0
  0
ENDTAB
  0
TABLE
  2
LAYER
  5
2
102
{ACAD_XDICTIONARY
360
101018B
102
}
330
0
100
AcDbSymbolTable
 70
     5
  0
LAYER
  5
10
102
{ACAD_XDICTIONARY
360
10059
102
}
330
2
100
AcDbSymbolTableRecord
100
AcDbLayerTableRecord
  2
0
 70
     0
 62
   250
  6
CONTINUOUS
370
   100
390
F
347
10013
348
0
  0
LAYER
  5
47
102
{ACAD_XDICTIONARY
360
1005B
102
}
330
2
100
AcDbSymbolTableRecord
100
AcDbLayerTableRecord
  2
H
 70
     0
 62
     7
  6
CONTINUOUS
370
   100
390
F
347
10013
348
0
  0
LAYER
  5
48
102
{ACAD_XDICTIONARY
360
1005D
102
}
330
2
100
AcDbSymbolTableRecord
100
AcDbLayerTableRecord
  2
P
 70
     0
 62
   250
  6
CONTINUOUS
370
   100
390
F
347
10013
348
0
  0
LAYER
  5
49
102
{ACAD_XDICTIONARY
360
1005F
102
}
330
2
100
AcDbSymbolTableRecord
100
AcDbLayerTableRecord
  2
Text
 70
     0
 62
   250
  6
CONTINUOUS
370
   100
390
F
347
10013
348
0
  0
LAYER
  5
4A
102
{ACAD_XDICTIONARY
360
10061
102
}
330
2
100
AcDbSymbolTableRecord
100
AcDbLayerTableRecord
  2
Images
 70
     0
 62
   250
  6
CONTINUOUS
370
   100
390
F
347
10013
348
0
  0
ENDTAB
  0
TABLE
  2
STYLE
  5
3
330
0
100
AcDbSymbolTable
 70
     2
  0
STYLE
  5
11
330
3
100
AcDbSymbolTableRecord
100
AcDbTextStyleTableRecord
  2
Standard
 70
     0
 40
0.0
 41
0.75
 50
0.0
 71
     0
 42
2.5
  3
txt
  4

  0
STYLE
  5
10001
330
3
100
AcDbSymbolTableRecord
100
AcDbTextStyleTableRecord
  2
Roman
 70
     0
 40
0.0
 41
1.0
 50
0.0
 71
     0
 42
0.2
  3

  4

  0
ENDTAB
  0
TABLE
  2
VIEW
  5
6
330
0
100
AcDbSymbolTable
 70
     0
  0
ENDTAB
  0
TABLE
  2
UCS
  5
7
330
0
100
AcDbSymbolTable
 70
     0
  0
ENDTAB
  0
TABLE
  2
APPID
  5
9
330
0
100
AcDbSymbolTable
 70
     4
  0
APPID
  5
12
330
9
100
AcDbSymbolTableRecord
100
AcDbRegAppTableRecord
  2
ACAD
 70
     0
  0
APPID
  5
10052
330
9
100
AcDbSymbolTableRecord
100
AcDbRegAppTableRecord
  2
ACAD_EXEMPT_FROM_CAD_STANDARDS
 70
     0
  0
APPID
  5
1006B
330
9
100
AcDbSymbolTableRecord
100
AcDbRegAppTableRecord
  2
ACAD_NAV_VCDISPLAY
 70
     0
  0
APPID
  5
100AA
330
9
100
AcDbSymbolTableRecord
100
AcDbRegAppTableRecord
  2
ACAD_MLEADERVER
 70
     0
  0
ENDTAB
  0
TABLE
  2
DIMSTYLE
  5
A
330
0
100
AcDbSymbolTable
 70
     1
100
AcDbDimStyleTable
 71
     1
340
27
  0
DIMSTYLE
105
27
330
A
100
AcDbSymbolTableRecord
100
AcDbDimStyleTableRecord
  2
Standard
 70
     0
 41
1.0
 42
1.0
 43
3.75
 44
1.0
 73
     0
 74
     0
 77
     1
 78
     8
140
1.0
141
2.5
143
0.03937007874016
147
1.0
171
     3
172
     1
271
     2
272
     2
274
     3
278
    44
283
     0
284
     8
340
11
  0
ENDTAB
  0
TABLE
  2
BLOCK_RECORD
  5
1
330
0
100
AcDbSymbolTable
 70
     1
  0
BLOCK_RECORD
  5
1F
330
1
100
AcDbSymbolTableRecord
100
AcDbBlockTableRecord
  2
*Model_Space
340
22
 70
     0
280
     1
281
     0
  0
BLOCK_RECORD
  5
1B
330
1
100
AcDbSymbolTableRecord
100
AcDbBlockTableRecord
  2
*Paper_Space
340
1E
 70
     0
280
     1
281
     0
  0
BLOCK_RECORD
  5
23
330
1
100
AcDbSymbolTableRecord
100
AcDbBlockTableRecord
  2
*Paper_Space0
340
26
 70
     0
280
     1
281
     0
  0
ENDTAB
  0
ENDSEC
  0
SECTION
  2
BLOCKS
  0
BLOCK
  5
20
330
1F
100
AcDbEntity
  8
0
100
AcDbBlockBegin
  2
*Model_Space
 70
     0
 10
0.0
 20
0.0
 30
0.0
  3
*Model_Space
  1

  0
ENDBLK
  5
21
330
1F
100
AcDbEntity
  8
0
100
AcDbBlockEnd
  0
BLOCK
  5
1C
330
1B
100
AcDbEntity
 67
     1
  8
0
100
AcDbBlockBegin
  2
*Paper_Space
 70
     0
 10
0.0
 20
0.0
 30
0.0
  3
*Paper_Space
  1

  0
ENDBLK
  5
1D
330
1B
100
AcDbEntity
 67
     1
  8
0
100
AcDbBlockEnd
  0
BLOCK
  5
24
330
23
100
AcDbEntity
 67
     1
  8
0
100
AcDbBlockBegin
  2
*Paper_Space0
 70
     0
 10
0.0
 20
0.0
 30
0.0
  3
*Paper_Space0
  1

  0
ENDBLK
  5
25
330
23
100
AcDbEntity
 67
     1
  8
0
100
AcDbBlockEnd
  0
ENDSEC
  0
SECTION
  2
ENTITIES
  0
MTEXT
  5
52
330
1F
100
AcDbEntity
  8
Text
  6
Continuous
 62
     0
100
AcDbMText
 10
170.5
 20
36.58333333333331
 30
0.0
 40
3.25
 41
3.5
 46
0.0
 71
     4
 72
     5
  1
{\fHelveticaNeueLTPro|b0|i0|c1|p15; }
 73
     2
 44
1.0
  0
MTEXT
  5
64
330
1F
100
AcDbEntity
  8
Text
  6
Continuous
 62
     0
100
AcDbMText
 10
55.16666666666665
 20
52.16666666666668
 30
0.0
 40
3.0
 41
3.25
 46
0.0
 71
     4
 72
     5
  1
{\fHelveticaNeueLTPro|b0|i0|c1|p15; }
 73
     2
 44
1.0
  0
MTEXT
  5
6A
330
1F
100
AcDbEntity
  8
Text
  6
Continuous
 62
     0
100
AcDbMText
 10
65.33333333333333
 20
52.16666666666668
 30
0.0
 40
3.0
 41
3.25
 46
0.0
 71
     4
 72
     5
  1
{\fHelveticaNeueLTPro|b0|i0|c1|p15; }
 73
     2
 44
1.0
  0
MTEXT
  5
6E
330
1F
100
AcDbEntity
  8
Text
  6
Continuous
 62
     0
100
AcDbMText
 10
71.08333333333333
 20
52.16666666666668
 30
0.0
 40
3.0
 41
3.25
 46
0.0
 71
     4
 72
     5
  1
{\fHelveticaNeueLTPro|b0|i0|c1|p15; }
 73
     2
 44
1.0
  0
MTEXT
  5
7B
330
1F
100
AcDbEntity
  8
Text
  6
Continuous
 62
     0
100
AcDbMText
 10
93.16666666666668
 20
52.16666666666668
 30
0.0
 40
3.0
 41
3.25
 46
0.0
 71
     4
 72
     5
  1
{\fHelveticaNeueLTPro|b0|i0|c1|p15; }
 73
     2
 44
1.0
  0
MTEXT
  5
85
330
1F
100
AcDbEntity
  8
Text
  6
Continuous
 62
     0
100
AcDbMText
 10
108.75
 20
52.16666666666668
 30
0.0
 40
3.0
 41
3.25
 46
0.0
 71
     4
 72
     5
  1
{\fHelveticaNeueLTPro|b0|i0|c1|p15; }
 73
     2
 44
1.0
  0
MTEXT
  5
89
330
1F
100
AcDbEntity
  8
Text
  6
Continuous
 62
     0
100
AcDbMText
 10
115.3333333333333
 20
52.16666666666668
 30
0.0
 40
3.0
 41
3.25
 46
0.0
 71
     4
 72
     5
  1
{\fHelveticaNeueLTPro|b0|i0|c1|p15; }
 73
     2
 44
1.0
  0
MTEXT
  5
92
330
1F
100
AcDbEntity
  8
Text
  6
Continuous
 62
     0
100
AcDbMText
 10
128.9166666666666
 20
52.16666666666668
 30
0.0
 40
3.0
 41
3.25
 46
0.0
 71
     4
 72
     5
  1
{\fHelveticaNeueLTPro|b0|i0|c1|p15; }
 73
     2
 44
1.0
  0
MTEXT
  5
98
330
1F
100
AcDbEntity
  8
Text
  6
Continuous
 62
     0
100
AcDbMText
 10
137.75
 20
52.16666666666668
 30
0.0
 40
3.0
 41
3.25
 46
0.0
 71
     4
 72
     5
  1
{\fHelveticaNeueLTPro|b0|i0|c1|p15; }
 73
     2
 44
1.0
  0
MTEXT
  5
E3
330
1F
100
AcDbEntity
  8
Text
  6
Continuous
 62
     7
100
AcDbMText
 10
66.16666666666667
 20
36.41666666666669
 30
0.0
 40
3.75
 41
4.0
 46
0.0
 71
     4
 72
     5
  1
{\fHelveticaNeueLTPro|b0|i0|c1|p15; }
 73
     2
 44
1.0
  0
MTEXT
  5
E7
330
1F
100
AcDbEntity
  8
Text
  6
Continuous
 62
     7
100
AcDbMText
 10
74.33333333333333
 20
36.41666666666669
 30
0.0
 40
3.75
 41
4.0
 46
0.0
 71
     4
 72
     5
  1
{\fHelveticaNeueLTPro|b0|i0|c1|p15; }
 73
     2
 44
1.0
  0
MTEXT
  5
EB
330
1F
100
AcDbEntity
  8
Text
  6
Continuous
 62
     7
100
AcDbMText
 10
82.33333333333332
 20
36.41666666666669
 30
0.0
 40
3.75
 41
4.0
 46
0.0
 71
     4
 72
     5
  1
{\fHelveticaNeueLTPro|b0|i0|c1|p15; }
 73
     2
 44
1.0
  0
MTEXT
  5
F9
330
1F
100
AcDbEntity
  8
Text
  6
Continuous
 62
     0
100
AcDbMText
 10
273.25
 20
389.1666666666666
 30
0.0
 40
3.75
 41
4.0
 46
0.0
 71
     4
 72
     5
  1
{\fHelveticaNeueLTPro|b0|i0|c1|p15; }
 73
     2
 44
1.0
  0
MTEXT
  5
FA
330
1F
100
AcDbEntity
  8
Text
  6
Continuous
 62
     0
100
AcDbMText
 10
177.1666666666666
 20
389.4166666666666
 30
0.0
 40
3.75
 41
4.0
 46
0.0
 71
     4
 72
     5
  1
{\fHelveticaNeueLTPro|b0|i0|c1|p15; }
 73
     2
 44
1.0
  0
MTEXT
  5
101122B
330
1F
100
AcDbEntity
  8
Text
  6
Continuous
 62
     0
100
AcDbMText
 10
27.82367268456346
 20
370.7964422430462
 30
0.0
 40
7.75
 41
144.0
 46
0.0
 71
     4
 72
     5
  1
{\fHelveticaNeueLTPro|b0|i0|c1|p15;Detailskizze 3.101}
 73
     2
 44
1.0
  0
MTEXT
  5
101122C
330
1F
100
AcDbEntity
  8
Text
  6
Continuous
 62
     0
100
AcDbMText
 10
27.82367268456346
 20
361.7964422430462
 30
0.0
 40
7.75
 41
344.0
 46
0.0
 71
     4
 72
     5
  1
{\fStandardCTStencil|b1|i0|c1|p15;Bewegungsfuge - Abdichtung mit DICHT FDS 2K}
 73
     2
 44
1.0
  0
MTEXT
  5
101122D
330
1F
100
AcDbEntity
  8
Text
  6
Continuous
 62
     0
100
AcDbMText
 10
27.9070060178968
 20
52.12977557637959
 30
0.0
 40
3.0
 41
3.25
 46
0.0
 71
     4
 72
     5
  1
{\fHelveticaNeueLTPro|b0|i0|c1|p15;D}
 73
     2
 44
1.0
  0
MTEXT
  5
101122E
330
1F
100
AcDbEntity
  8
Text
  6
Continuous
 62
     0
100
AcDbMText
 10
30.24033935123013
 20
52.12977557637959
 30
0.0
 40
3.0
 41
3.25
 46
0.0
 71
     4
 72
     5
  1
{\fHelveticaNeueLTPro|b0|i0|c1|p15;e}
 73
     2
 44
1.0
  0
MTEXT
  5
101122F
330
1F
100
AcDbEntity
  8
Text
  6
Continuous
 62
     0
100
AcDbMText
 10
31.99033935123013
 20
52.12977557637959
 30
0.0
 40
3.0
 41
3.25
 46
0.0
 71
     4
 72
     5
  1
{\fHelveticaNeueLTPro|b0|i0|c1|p15;t}
 73
     2
 44
1.0
  0
MTEXT
  5
1011230
330
1F
100
AcDbEntity
  8
Text
  6
Continuous
 62
     0
100
AcDbMText
 10
33.07367268456346
 20
52.12977557637959
 30
0.0
 40
3.0
 41
3.25
 46
0.0
 71
     4
 72
     5
  1
{\fHelveticaNeueLTPro|b0|i0|c1|p15;a}
 73
     2
 44
1.0
  0
MTEXT
  5
1011231
330
1F
100
AcDbEntity
  8
Text
  6
Continuous
 62
     0
100
AcDbMText
 10
34.9070060178968
 20
52.12977557637959
 30
0.0
 40
3.0
 41
3.25
 46
0.0
 71
     4
 72
     5
  1
{\fHelveticaNeueLTPro|b0|i0|c1|p15;i}
 73
     2
 44
1.0
  0
MTEXT
  5
1011232
330
1F
100
AcDbEntity
  8
Text
  6
Continuous
 62
     0
100
AcDbMText
 10
35.6570060178968
 20
52.12977557637959
 30
0.0
 40
3.0
 41
3.25
 46
0.0
 71
     4
 72
     5
  1
{\fHelveticaNeueLTPro|b0|i0|c1|p15;l}
 73
     2
 44
1.0
  0
MTEXT
  5
1011233
330
1F
100
AcDbEntity
  8
Text
  6
Continuous
 62
     0
100
AcDbMText
 10
36.4070060178968
 20
52.12977557637959
 30
0.0
 40
3.0
 41
3.25
 46
0.0
 71
     4
 72
     5
  1
{\fHelveticaNeueLTPro|b0|i0|c1|p15;z}
 73
     2
 44
1.0
  0
MTEXT
  5
1011234
330
1F
100
AcDbEntity
  8
Text
  6
Continuous
 62
     0
100
AcDbMText
 10
37.99033935123013
 20
52.12977557637959
 30
0.0
 40
3.0
 41
3.25
 46
0.0
 71
     4
 72
     5
  1
{\fHelveticaNeueLTPro|b0|i0|c1|p15;e}
 73
     2
 44
1.0
  0
MTEXT
  5
1011235
330
1F
100
AcDbEntity
  8
Text
  6
Continuous
 62
     0
100
AcDbMText
 10
39.74033935123013
 20
52.12977557637959
 30
0.0
 40
3.0
 41
3.25
 46
0.0
 71
     4
 72
     5
  1
{\fHelveticaNeueLTPro|b0|i0|c1|p15;i}
 73
     2
 44
1.0
  0
MTEXT
  5
1011236
330
1F
100
AcDbEntity
  8
Text
  6
Continuous
 62
     0
100
AcDbMText
 10
40.57367268456346
 20
52.12977557637959
 30
0.0
 40
3.0
 41
3.25
 46
0.0
 71
     4
 72
     5
  1
{\fHelveticaNeueLTPro|b0|i0|c1|p15;c}
 73
     2
 44
1.0
  0
MTEXT
  5
1011237
330
1F
100
AcDbEntity
  8
Text
  6
Continuous
 62
     0
100
AcDbMText
 10
42.32367268456346
 20
52.12977557637959
 30
0.0
 40
3.0
 41
3.25
 46
0.0
 71
     4
 72
     5
  1
{\fHelveticaNeueLTPro|b0|i0|c1|p15;h}
 73
     2
 44
1.0
  0
MTEXT
  5
1011238
330
1F
100
AcDbEntity
  8
Text
  6
Continuous
 62
     0
100
AcDbMText
 10
44.15700601789679
 20
52.12977557637959
 30
0.0
 40
3.0
 41
3.25
 46
0.0
 71
     4
 72
     5
  1
{\fHelveticaNeueLTPro|b0|i0|c1|p15;n}
 73
     2
 44
1.0
  0
MTEXT
  5
1011239
330
1F
100
AcDbEntity
  8
Text
  6
Continuous
 62
     0
100
AcDbMText
 10
45.99033935123013
 20
52.12977557637959
 30
0.0
 40
3.0
 41
3.25
 46
0.0
 71
     4
 72
     5
  1
{\fHelveticaNeueLTPro|b0|i0|c1|p15;u}
 73
     2
 44
1.0
  0
MTEXT
  5
101123A
330
1F
100
AcDbEntity
  8
Text
  6
Continuous
 62
     0
100
AcDbMText
 10
47.82367268456346
 20
52.12977557637959
 30
0.0
 40
3.0
 41
3.25
 46
0.0
 71
     4
 72
     5
  1
{\fHelveticaNeueLTPro|b0|i0|c1|p15;n}
 73
     2
 44
1.0
  0
MTEXT
  5
101123B
330
1F
100
AcDbEntity
  8
Text
  6
Continuous
 62
     0
100
AcDbMText
 10
49.74033935123013
 20
52.12977557637959
 30
0.0
 40
3.0
 41
3.25
 46
0.0
 71
     4
 72
     5
  1
{\fHelveticaNeueLTPro|b0|i0|c1|p15;g}
 73
     2
 44
1.0
  0
MTEXT
  5
101123C
330
1F
100
AcDbEntity
  8
Text
  6
Continuous
 62
     0
100
AcDbMText
 10
51.57367268456346
 20
52.12977557637959
 30
0.0
 40
3.0
 41
3.25
 46
0.0
 71
     4
 72
     5
  1
{\fHelveticaNeueLTPro|b0|i0|c1|p15;e}
 73
     2
 44
1.0
  0
MTEXT
  5
101123D
330
1F
100
AcDbEntity
  8
Text
  6
Continuous
 62
     0
100
AcDbMText
 10
53.4070060178968
 20
52.12977557637959
 30
0.0
 40
3.0
 41
3.25
 46
0.0
 71
     4
 72
     5
  1
{\fHelveticaNeueLTPro|b0|i0|c1|p15;n}
 73
     2
 44
1.0
  0
MTEXT
  5
101123E
330
1F
100
AcDbEntity
  8
Text
  6
Continuous
 62
     0
100
AcDbMText
 10
56.15700601789679
 20
52.12977557637959
 30
0.0
 40
3.0
 41
3.25
 46
0.0
 71
     4
 72
     5
  1
{\fHelveticaNeueLTPro|b0|i0|c1|p15;h}
 73
     2
 44
1.0
  0
MTEXT
  5
101123F
330
1F
100
AcDbEntity
  8
Text
  6
Continuous
 62
     0
100
AcDbMText
 10
57.99033935123013
 20
52.12977557637959
 30
0.0
 40
3.0
 41
3.25
 46
0.0
 71
     4
 72
     5
  1
{\fHelveticaNeueLTPro|b0|i0|c1|p15;a}
 73
     2
 44
1.0
  0
MTEXT
  5
1011240
330
1F
100
AcDbEntity
  8
Text
  6
Continuous
 62
     0
100
AcDbMText
 10
59.82367268456346
 20
52.12977557637959
 30
0.0
 40
3.0
 41
3.25
 46
0.0
 71
     4
 72
     5
  1
{\fHelveticaNeueLTPro|b0|i0|c1|p15;b}
 73
     2
 44
1.0
  0
MTEXT
  5
1011241
330
1F
100
AcDbEntity
  8
Text
  6
Continuous
 62
     0
100
AcDbMText
 10
61.74033935123013
 20
52.12977557637959
 30
0.0
 40
3.0
 41
3.25
 46
0.0
 71
     4
 72
     5
  1
{\fHelveticaNeueLTPro|b0|i0|c1|p15;e}
 73
     2
 44
1.0
  0
MTEXT
  5
1011242
330
1F
100
AcDbEntity
  8
Text
  6
Continuous
 62
     0
100
AcDbMText
 10
63.57367268456346
 20
52.12977557637959
 30
0.0
 40
3.0
 41
3.25
 46
0.0
 71
     4
 72
     5
  1
{\fHelveticaNeueLTPro|b0|i0|c1|p15;n}
 73
     2
 44
1.0
  0
MTEXT
  5
1011243
330
1F
100
AcDbEntity
  8
Text
  6
Continuous
 62
     0
100
AcDbMText
 10
66.32367268456346
 20
52.12977557637959
 30
0.0
 40
3.0
 41
3.25
 46
0.0
 71
     4
 72
     5
  1
{\fHelveticaNeueLTPro|b0|i0|c1|p15;n}
 73
     2
 44
1.0
  0
MTEXT
  5
1011244
330
1F
100
AcDbEntity
  8
Text
  6
Continuous
 62
     0
100
AcDbMText
 10
68.15700601789679
 20
52.12977557637959
 30
0.0
 40
3.0
 41
3.25
 46
0.0
 71
     4
 72
     5
  1
{\fHelveticaNeueLTPro|b0|i0|c1|p15;u}
 73
     2
 44
1.0
  0
MTEXT
  5
1011245
330
1F
100
AcDbEntity
  8
Text
  6
Continuous
 62
     0
100
AcDbMText
 10
69.99033935123013
 20
52.12977557637959
 30
0.0
 40
3.0
 41
3.25
 46
0.0
 71
     4
 72
     5
  1
{\fHelveticaNeueLTPro|b0|i0|c1|p15;r}
 73
     2
 44
1.0
  0
MTEXT
  5
1011246
330
1F
100
AcDbEntity
  8
Text
  6
Continuous
 62
     0
100
AcDbMText
 10
72.07367268456346
 20
52.12977557637959
 30
0.0
 40
3.0
 41
3.25
 46
0.0
 71
     4
 72
     5
  1
{\fHelveticaNeueLTPro|b0|i0|c1|p15;e}
 73
     2
 44
1.0
  0
MTEXT
  5
1011247
330
1F
100
AcDbEntity
  8
Text
  6
Continuous
 62
     0
100
AcDbMText
 10
73.90700601789679
 20
52.12977557637959
 30
0.0
 40
3.0
 41
3.25
 46
0.0
 71
     4
 72
     5
  1
{\fHelveticaNeueLTPro|b0|i0|c1|p15;m}
 73
     2
 44
1.0
  0
MTEXT
  5
1011248
330
1F
100
AcDbEntity
  8
Text
  6
Continuous
 62
     0
100
AcDbMText
 10
76.65700601789679
 20
52.12977557637959
 30
0.0
 40
3.0
 41
3.25
 46
0.0
 71
     4
 72
     5
  1
{\fHelveticaNeueLTPro|b0|i0|c1|p15;p}
 73
     2
 44
1.0
  0
MTEXT
  5
1011249
330
1F
100
AcDbEntity
  8
Text
  6
Continuous
 62
     0
100
AcDbMText
 10
78.65700601789679
 20
52.12977557637959
 30
0.0
 40
3.0
 41
3.25
 46
0.0
 71
     4
 72
     5
  1
{\fHelveticaNeueLTPro|b0|i0|c1|p15;f}
 73
     2
 44
1.0
  0
MTEXT
  5
101124A
330
1F
100
AcDbEntity
  8
Text
  6
Continuous
 62
     0
100
AcDbMText
 10
79.65700601789679
 20
52.12977557637959
 30
0.0
 40
3.0
 41
3.25
 46
0.0
 71
     4
 72
     5
  1
{\fHelveticaNeueLTPro|b0|i0|c1|p15;e}
 73
     2
 44
1.0
  0
MTEXT
  5
101124B
330
1F
100
AcDbEntity
  8
Text
  6
Continuous
 62
     0
100
AcDbMText
 10
81.4070060178968
 20
52.12977557637959
 30
0.0
 40
3.0
 41
3.25
 46
0.0
 71
     4
 72
     5
  1
{\fHelveticaNeueLTPro|b0|i0|c1|p15;h}
 73
     2
 44
1.0
  0
MTEXT
  5
101124C
330
1F
100
AcDbEntity
  8
Text
  6
Continuous
 62
     0
100
AcDbMText
 10
83.32367268456346
 20
52.12977557637959
 30
0.0
 40
3.0
 41
3.25
 46
0.0
 71
     4
 72
     5
  1
{\fHelveticaNeueLTPro|b0|i0|c1|p15;l}
 73
     2
 44
1.0
  0
MTEXT
  5
101124D
330
1F
100
AcDbEntity
  8
Text
  6
Continuous
 62
     0
100
AcDbMText
 10
84.07367268456345
 20
52.12977557637959
 30
0.0
 40
3.0
 41
3.25
 46
0.0
 71
     4
 72
     5
  1
{\fHelveticaNeueLTPro|b0|i0|c1|p15;e}
 73
     2
 44
1.0
  0
MTEXT
  5
101124E
330
1F
100
AcDbEntity
  8
Text
  6
Continuous
 62
     0
100
AcDbMText
 10
85.82367268456346
 20
52.12977557637959
 30
0.0
 40
3.0
 41
3.25
 46
0.0
 71
     4
 72
     5
  1
{\fHelveticaNeueLTPro|b0|i0|c1|p15;n}
 73
     2
 44
1.0
  0
MTEXT
  5
101124F
330
1F
100
AcDbEntity
  8
Text
  6
Continuous
 62
     0
100
AcDbMText
 10
87.6570060178968
 20
52.12977557637959
 30
0.0
 40
3.0
 41
3.25
 46
0.0
 71
     4
 72
     5
  1
{\fHelveticaNeueLTPro|b0|i0|c1|p15;d}
 73
     2
 44
1.0
  0
MTEXT
  5
1011250
330
1F
100
AcDbEntity
  8
Text
  6
Continuous
 62
     0
100
AcDbMText
 10
89.65700601789679
 20
52.12977557637959
 30
0.0
 40
3.0
 41
3.25
 46
0.0
 71
     4
 72
     5
  1
{\fHelveticaNeueLTPro|b0|i0|c1|p15;e}
 73
     2
 44
1.0
  0
MTEXT
  5
1011251
330
1F
100
AcDbEntity
  8
Text
  6
Continuous
 62
     0
100
AcDbMText
 10
91.4070060178968
 20
52.12977557637959
 30
0.0
 40
3.0
 41
3.25
 46
0.0
 71
     4
 72
     5
  1
{\fHelveticaNeueLTPro|b0|i0|c1|p15;n}
 73
     2
 44
1.0
  0
MTEXT
  5
1011252
330
1F
100
AcDbEntity
  8
Text
  6
Continuous
 62
     0
100
AcDbMText
 10
94.24033935123013
 20
52.12977557637959
 30
0.0
 40
3.0
 41
3.25
 46
0.0
 71
     4
 72
     5
  1
{\fHelveticaNeueLTPro|b0|i0|c1|p15;C}
 73
     2
 44
1.0
  0
MTEXT
  5
1011253
330
1F
100
AcDbEntity
  8
Text
  6
Continuous
 62
     0
100
AcDbMText
 10
96.57367268456347
 20
52.12977557637959
 30
0.0
 40
3.0
 41
3.25
 46
0.0
 71
     4
 72
     5
  1
{\fHelveticaNeueLTPro|b0|i0|c1|p15;h}
 73
     2
 44
1.0
  0
MTEXT
  5
1011254
330
1F
100
AcDbEntity
  8
Text
  6
Continuous
 62
     0
100
AcDbMText
 10
98.40700601789679
 20
52.12977557637959
 30
0.0
 40
3.0
 41
3.25
 46
0.0
 71
     4
 72
     5
  1
{\fHelveticaNeueLTPro|b0|i0|c1|p15;a}
 73
     2
 44
1.0
  0
MTEXT
  5
1011255
330
1F
100
AcDbEntity
  8
Text
  6
Continuous
 62
     0
100
AcDbMText
 10
100.2403393512301
 20
52.12977557637959
 30
0.0
 40
3.0
 41
3.25
 46
0.0
 71
     4
 72
     5
  1
{\fHelveticaNeueLTPro|b0|i0|c1|p15;r}
 73
     2
 44
1.0
  0
MTEXT
  5
1011256
330
1F
100
AcDbEntity
  8
Text
  6
Continuous
 62
     0
100
AcDbMText
 10
101.3236726845634
 20
52.12977557637959
 30
0.0
 40
3.0
 41
3.25
 46
0.0
 71
     4
 72
     5
  1
{\fHelveticaNeueLTPro|b0|i0|c1|p15;a}
 73
     2
 44
1.0
  0
MTEXT
  5
1011257
330
1F
100
AcDbEntity
  8
Text
  6
Continuous
 62
     0
100
AcDbMText
 10
103.1570060178968
 20
52.12977557637959
 30
0.0
 40
3.0
 41
3.25
 46
0.0
 71
     4
 72
     5
  1
{\fHelveticaNeueLTPro|b0|i0|c1|p15;k}
 73
     2
 44
1.0
  0
MTEXT
  5
1011258
330
1F
100
AcDbEntity
  8
Text
  6
Continuous
 62
     0
100
AcDbMText
 10
104.8236726845634
 20
52.12977557637959
 30
0.0
 40
3.0
 41
3.25
 46
0.0
 71
     4
 72
     5
  1
{\fHelveticaNeueLTPro|b0|i0|c1|p15;t}
 73
     2
 44
1.0
  0
MTEXT
  5
1011259
330
1F
100
AcDbEntity
  8
Text
  6
Continuous
 62
     0
100
AcDbMText
 10
105.9070060178968
 20
52.12977557637959
 30
0.0
 40
3.0
 41
3.25
 46
0.0
 71
     4
 72
     5
  1
{\fHelveticaNeueLTPro|b0|i0|c1|p15;e}
 73
     2
 44
1.0
  0
MTEXT
  5
101125A
330
1F
100
AcDbEntity
  8
Text
  6
Continuous
 62
     0
100
AcDbMText
 10
107.6570060178968
 20
52.12977557637959
 30
0.0
 40
3.0
 41
3.25
 46
0.0
 71
     4
 72
     5
  1
{\fHelveticaNeueLTPro|b0|i0|c1|p15;r}
 73
     2
 44
1.0
  0
MTEXT
  5
101125B
330
1F
100
AcDbEntity
  8
Text
  6
Continuous
 62
     0
100
AcDbMText
 10
109.7403393512301
 20
52.12977557637959
 30
0.0
 40
3.0
 41
3.25
 46
0.0
 71
     4
 72
     5
  1
{\fHelveticaNeueLTPro|b0|i0|c1|p15;u}
 73
     2
 44
1.0
  0
MTEXT
  5
101125C
330
1F
100
AcDbEntity
  8
Text
  6
Continuous
 62
     0
100
AcDbMText
 10
111.5736726845634
 20
52.12977557637959
 30
0.0
 40
3.0
 41
3.25
 46
0.0
 71
     4
 72
     5
  1
{\fHelveticaNeueLTPro|b0|i0|c1|p15;n}
 73
     2
 44
1.0
  0
MTEXT
  5
101125D
330
1F
100
AcDbEntity
  8
Text
  6
Continuous
 62
     0
100
AcDbMText
 10
113.4070060178968
 20
52.12977557637959
 30
0.0
 40
3.0
 41
3.25
 46
0.0
 71
     4
 72
     5
  1
{\fHelveticaNeueLTPro|b0|i0|c1|p15;d}
 73
     2
 44
1.0
  0
MTEXT
  5
101125E
330
1F
100
AcDbEntity
  8
Text
  6
Continuous
 62
     0
100
AcDbMText
 10
116.3236726845634
 20
52.12977557637959
 30
0.0
 40
3.0
 41
3.25
 46
0.0
 71
     4
 72
     5
  1
{\fHelveticaNeueLTPro|b0|i0|c1|p15;e}
 73
     2
 44
1.0
  0
MTEXT
  5
101125F
330
1F
100
AcDbEntity
  8
Text
  6
Continuous
 62
     0
100
AcDbMText
 10
118.1570060178968
 20
52.12977557637959
 30
0.0
 40
3.0
 41
3.25
 46
0.0
 71
     4
 72
     5
  1
{\fHelveticaNeueLTPro|b0|i0|c1|p15;r}
 73
     2
 44
1.0
  0
MTEXT
  5
1011260
330
1F
100
AcDbEntity
  8
Text
  6
Continuous
 62
     0
100
AcDbMText
 10
119.2403393512301
 20
52.12977557637959
 30
0.0
 40
3.0
 41
3.25
 46
0.0
 71
     4
 72
     5
  1
{\fHelveticaNeueLTPro|b0|i0|c1|p15;s}
 73
     2
 44
1.0
  0
MTEXT
  5
1011261
330
1F
100
AcDbEntity
  8
Text
  6
Continuous
 62
     0
100
AcDbMText
 10
120.9070060178968
 20
52.12977557637959
 30
0.0
 40
3.0
 41
3.25
 46
0.0
 71
     4
 72
     5
  1
{\fHelveticaNeueLTPro|b0|i0|c1|p15;e}
 73
     2
 44
1.0
  0
MTEXT
  5
1011262
330
1F
100
AcDbEntity
  8
Text
  6
Continuous
 62
     0
100
AcDbMText
 10
122.7403393512301
 20
52.12977557637959
 30
0.0
 40
3.0
 41
3.25
 46
0.0
 71
     4
 72
     5
  1
{\fHelveticaNeueLTPro|b0|i0|c1|p15;t}
 73
     2
 44
1.0
  0
MTEXT
  5
1011263
330
1F
100
AcDbEntity
  8
Text
  6
Continuous
 62
     0
100
AcDbMText
 10
123.7403393512301
 20
52.12977557637959
 30
0.0
 40
3.0
 41
3.25
 46
0.0
 71
     4
 72
     5
  1
{\fHelveticaNeueLTPro|b0|i0|c1|p15;z}
 73
     2
 44
1.0
  0
MTEXT
  5
1011264
330
1F
100
AcDbEntity
  8
Text
  6
Continuous
 62
     0
100
AcDbMText
 10
125.3236726845634
 20
52.12977557637959
 30
0.0
 40
3.0
 41
3.25
 46
0.0
 71
     4
 72
     5
  1
{\fHelveticaNeueLTPro|b0|i0|c1|p15;e}
 73
     2
 44
1.0
  0
MTEXT
  5
1011265
330
1F
100
AcDbEntity
  8
Text
  6
Continuous
 62
     0
100
AcDbMText
 10
127.1570060178968
 20
52.12977557637959
 30
0.0
 40
3.0
 41
3.25
 46
0.0
 71
     4
 72
     5
  1
{\fHelveticaNeueLTPro|b0|i0|c1|p15;n}
 73
     2
 44
1.0
  0
MTEXT
  5
1011266
330
1F
100
AcDbEntity
  8
Text
  6
Continuous
 62
     0
100
AcDbMText
 10
129.9070060178968
 20
52.12977557637959
 30
0.0
 40
3.0
 41
3.25
 46
0.0
 71
     4
 72
     5
  1
{\fHelveticaNeueLTPro|b0|i0|c1|p15;k}
 73
     2
 44
1.0
  0
MTEXT
  5
1011267
330
1F
100
AcDbEntity
  8
Text
  6
Continuous
 62
     0
100
AcDbMText
 10
131.6570060178968
 20
52.12977557637959
 30
0.0
 40
3.0
 41
3.25
 46
0.0
 71
     4
 72
     5
  1
{\fHelveticaNeueLTPro|b0|i0|c1|p15;e}
 73
     2
 44
1.0
  0
MTEXT
  5
1011268
330
1F
100
AcDbEntity
  8
Text
  6
Continuous
 62
     0
100
AcDbMText
 10
133.4070060178968
 20
52.12977557637959
 30
0.0
 40
3.0
 41
3.25
 46
0.0
 71
     4
 72
     5
  1
{\fHelveticaNeueLTPro|b0|i0|c1|p15;i}
 73
     2
 44
1.0
  0
MTEXT
  5
1011269
330
1F
100
AcDbEntity
  8
Text
  6
Continuous
 62
     0
100
AcDbMText
 10
134.2403393512301
 20
52.12977557637959
 30
0.0
 40
3.0
 41
3.25
 46
0.0
 71
     4
 72
     5
  1
{\fHelveticaNeueLTPro|b0|i0|c1|p15;n}
 73
     2
 44
1.0
  0
MTEXT
  5
101126A
330
1F
100
AcDbEntity
  8
Text
  6
Continuous
 62
     0
100
AcDbMText
 10
136.0736726845634
 20
52.12977557637959
 30
0.0
 40
3.0
 41
3.25
 46
0.0
 71
     4
 72
     5
  1
{\fHelveticaNeueLTPro|b0|i0|c1|p15;e}
 73
     2
 44
1.0
  0
MTEXT
  5
101126B
330
1F
100
AcDbEntity
  8
Text
  6
Continuous
 62
     0
100
AcDbMText
 10
138.7403393512301
 20
52.12977557637959
 30
0.0
 40
3.0
 41
3.25
 46
0.0
 71
     4
 72
     5
  1
{\fHelveticaNeueLTPro|b0|i0|c1|p15;F}
 73
     2
 44
1.0
  0
MTEXT
  5
101126C
330
1F
100
AcDbEntity
  8
Text
  6
Continuous
 62
     0
100
AcDbMText
 10
140.6570060178968
 20
52.12977557637959
 30
0.0
 40
3.0
 41
3.25
 46
0.0
 71
     4
 72
     5
  1
{\fHelveticaNeueLTPro|b0|i0|c1|p15;a}
 73
     2
 44
1.0
  0
MTEXT
  5
101126D
330
1F
100
AcDbEntity
  8
Text
  6
Continuous
 62
     0
100
AcDbMText
 10
142.4903393512301
 20
52.12977557637959
 30
0.0
 40
3.0
 41
3.25
 46
0.0
 71
     4
 72
     5
  1
{\fHelveticaNeueLTPro|b0|i0|c1|p15;c}
 73
     2
 44
1.0
  0
MTEXT
  5
101126E
330
1F
100
AcDbEntity
  8
Text
  6
Continuous
 62
     0
100
AcDbMText
 10
144.2403393512301
 20
52.12977557637959
 30
0.0
 40
3.0
 41
3.25
 46
0.0
 71
     4
 72
     5
  1
{\fHelveticaNeueLTPro|b0|i0|c1|p15;h}
 73
     2
 44
1.0
  0
MTEXT
  5
101126F
330
1F
100
AcDbEntity
  8
Text
  6
Continuous
 62
     0
100
AcDbMText
 10
146.0736726845634
 20
52.12977557637959
 30
0.0
 40
3.0
 41
3.25
 46
0.0
 71
     4
 72
     5
  1
{\fHelveticaNeueLTPro|b0|i0|c1|p15;p}
 73
     2
 44
1.0
  0
MTEXT
  5
1011270
330
1F
100
AcDbEntity
  8
Text
  6
Continuous
 62
     0
100
AcDbMText
 10
148.0736726845634
 20
52.12977557637959
 30
0.0
 40
3.0
 41
3.25
 46
0.0
 71
     4
 72
     5
  1
{\fHelveticaNeueLTPro|b0|i0|c1|p15;l}
 73
     2
 44
1.0
  0
MTEXT
  5
1011271
330
1F
100
AcDbEntity
  8
Text
  6
Continuous
 62
     0
100
AcDbMText
 10
148.8236726845634
 20
52.12977557637959
 30
0.0
 40
3.0
 41
3.25
 46
0.0
 71
     4
 72
     5
  1
{\fHelveticaNeueLTPro|b0|i0|c1|p15;a}
 73
     2
 44
1.0
  0
MTEXT
  5
1011272
330
1F
100
AcDbEntity
  8
Text
  6
Continuous
 62
     0
100
AcDbMText
 10
150.5736726845634
 20
52.12977557637959
 30
0.0
 40
3.0
 41
3.25
 46
0.0
 71
     4
 72
     5
  1
{\fHelveticaNeueLTPro|b0|i0|c1|p15;n}
 73
     2
 44
1.0
  0
MTEXT
  5
1011273
330
1F
100
AcDbEntity
  8
Text
  6
Continuous
 62
     0
100
AcDbMText
 10
152.4070060178968
 20
52.12977557637959
 30
0.0
 40
3.0
 41
3.25
 46
0.0
 71
     4
 72
     5
  1
{\fHelveticaNeueLTPro|b0|i0|c1|p15;u}
 73
     2
 44
1.0
  0
MTEXT
  5
1011274
330
1F
100
AcDbEntity
  8
Text
  6
Continuous
 62
     0
100
AcDbMText
 10
154.3236726845634
 20
52.12977557637959
 30
0.0
 40
3.0
 41
3.25
 46
0.0
 71
     4
 72
     5
  1
{\fHelveticaNeueLTPro|b0|i0|c1|p15;n}
 73
     2
 44
1.0
  0
MTEXT
  5
1011275
330
1F
100
AcDbEntity
  8
Text
  6
Continuous
 62
     0
100
AcDbMText
 10
156.1570060178968
 20
52.12977557637959
 30
0.0
 40
3.0
 41
3.25
 46
0.0
 71
     4
 72
     5
  1
{\fHelveticaNeueLTPro|b0|i0|c1|p15;g}
 73
     2
 44
1.0
  0
MTEXT
  5
1011276
330
1F
100
AcDbEntity
  8
Text
  6
Continuous
 62
     0
100
AcDbMText
 10
158.0736726845634
 20
52.12977557637959
 30
0.0
 40
3.0
 41
3.25
 46
0.0
 71
     4
 72
     5
  1
{\fHelveticaNeueLTPro|b0|i0|c1|p15;!}
 73
     2
 44
1.0
  0
MTEXT
  5
1011277
330
1F
100
AcDbEntity
  8
Text
  6
Continuous
 62
     7
100
AcDbMText
 10
36.57367268456346
 20
29.37977557637959
 30
0.0
 40
3.0
 41
3.25
 46
0.0
 71
     4
 72
     5
  1
{\fHelveticaNeueLTPro|b0|i0|c1|p15;w}
 73
     2
 44
1.0
  0
MTEXT
  5
1011278
330
1F
100
AcDbEntity
  8
Text
  6
Continuous
 62
     7
100
AcDbMText
 10
39.07367268456346
 20
29.37977557637959
 30
0.0
 40
3.0
 41
3.25
 46
0.0
 71
     4
 72
     5
  1
{\fHelveticaNeueLTPro|b0|i0|c1|p15;w}
 73
     2
 44
1.0
  0
MTEXT
  5
1011279
330
1F
100
AcDbEntity
  8
Text
  6
Continuous
 62
     7
100
AcDbMText
 10
41.57367268456346
 20
29.37977557637959
 30
0.0
 40
3.0
 41
3.25
 46
0.0
 71
     4
 72
     5
  1
{\fHelveticaNeueLTPro|b0|i0|c1|p15;w}
 73
     2
 44
1.0
  0
MTEXT
  5
101127A
330
1F
100
AcDbEntity
  8
Text
  6
Continuous
 62
     7
100
AcDbMText
 10
44.07367268456346
 20
29.37977557637959
 30
0.0
 40
3.0
 41
3.25
 46
0.0
 71
     4
 72
     5
  1
{\fHelveticaNeueLTPro|b0|i0|c1|p15;.}
 73
     2
 44
1.0
  0
MTEXT
  5
101127B
330
1F
100
AcDbEntity
  8
Text
  6
Continuous
 62
     7
100
AcDbMText
 10
44.99033935123012
 20
29.37977557637959
 30
0.0
 40
3.0
 41
3.25
 46
0.0
 71
     4
 72
     5
  1
{\fHelveticaNeueLTPro|b0|i0|c1|p15;s}
 73
     2
 44
1.0
  0
MTEXT
  5
101127C
330
1F
100
AcDbEntity
  8
Text
  6
Continuous
 62
     7
100
AcDbMText
 10
46.65700601789679
 20
29.37977557637959
 30
0.0
 40
3.0
 41
3.25
 46
0.0
 71
     4
 72
     5
  1
{\fHelveticaNeueLTPro|b0|i0|c1|p15;t}
 73
     2
 44
1.0
  0
MTEXT
  5
101127D
330
1F
100
AcDbEntity
  8
Text
  6
Continuous
 62
     7
100
AcDbMText
 10
47.74033935123012
 20
29.37977557637959
 30
0.0
 40
3.0
 41
3.25
 46
0.0
 71
     4
 72
     5
  1
{\fHelveticaNeueLTPro|b0|i0|c1|p15;r}
 73
     2
 44
1.0
  0
MTEXT
  5
101127E
330
1F
100
AcDbEntity
  8
Text
  6
Continuous
 62
     7
100
AcDbMText
 10
48.82367268456346
 20
29.37977557637959
 30
0.0
 40
3.0
 41
3.25
 46
0.0
 71
     4
 72
     5
  1
{\fHelveticaNeueLTPro|b0|i0|c1|p15;a}
 73
     2
 44
1.0
  0
MTEXT
  5
101127F
330
1F
100
AcDbEntity
  8
Text
  6
Continuous
 62
     7
100
AcDbMText
 10
50.65700601789679
 20
29.37977557637959
 30
0.0
 40
3.0
 41
3.25
 46
0.0
 71
     4
 72
     5
  1
{\fHelveticaNeueLTPro|b0|i0|c1|p15;s}
 73
     2
 44
1.0
  0
MTEXT
  5
1011280
330
1F
100
AcDbEntity
  8
Text
  6
Continuous
 62
     7
100
AcDbMText
 10
52.32367268456346
 20
29.37977557637959
 30
0.0
 40
3.0
 41
3.25
 46
0.0
 71
     4
 72
     5
  1
{\fHelveticaNeueLTPro|b0|i0|c1|p15;s}
 73
     2
 44
1.0
  0
MTEXT
  5
1011281
330
1F
100
AcDbEntity
  8
Text
  6
Continuous
 62
     7
100
AcDbMText
 10
53.99033935123012
 20
29.37977557637959
 30
0.0
 40
3.0
 41
3.25
 46
0.0
 71
     4
 72
     5
  1
{\fHelveticaNeueLTPro|b0|i0|c1|p15;e}
 73
     2
 44
1.0
  0
MTEXT
  5
1011282
330
1F
100
AcDbEntity
  8
Text
  6
Continuous
 62
     7
100
AcDbMText
 10
55.74033935123012
 20
29.37977557637959
 30
0.0
 40
3.0
 41
3.25
 46
0.0
 71
     4
 72
     5
  1
{\fHelveticaNeueLTPro|b0|i0|c1|p15;r}
 73
     2
 44
1.0
  0
MTEXT
  5
1011283
330
1F
100
AcDbEntity
  8
Text
  6
Continuous
 62
     7
100
AcDbMText
 10
56.82367268456346
 20
29.37977557637959
 30
0.0
 40
3.0
 41
3.25
 46
0.0
 71
     4
 72
     5
  1
{\fHelveticaNeueLTPro|b0|i0|c1|p15;-}
 73
     2
 44
1.0
  0
MTEXT
  5
1011284
330
1F
100
AcDbEntity
  8
Text
  6
Continuous
 62
     7
100
AcDbMText
 10
58.15700601789679
 20
29.37977557637959
 30
0.0
 40
3.0
 41
3.25
 46
0.0
 71
     4
 72
     5
  1
{\fHelveticaNeueLTPro|b0|i0|c1|p15;s}
 73
     2
 44
1.0
  0
MTEXT
  5
1011285
330
1F
100
AcDbEntity
  8
Text
  6
Continuous
 62
     7
100
AcDbMText
 10
59.82367268456346
 20
29.37977557637959
 30
0.0
 40
3.0
 41
3.25
 46
0.0
 71
     4
 72
     5
  1
{\fHelveticaNeueLTPro|b0|i0|c1|p15;y}
 73
     2
 44
1.0
  0
MTEXT
  5
1011286
330
1F
100
AcDbEntity
  8
Text
  6
Continuous
 62
     7
100
AcDbMText
 10
61.49033935123012
 20
29.37977557637959
 30
0.0
 40
3.0
 41
3.25
 46
0.0
 71
     4
 72
     5
  1
{\fHelveticaNeueLTPro|b0|i0|c1|p15;s}
 73
     2
 44
1.0
  0
MTEXT
  5
1011287
330
1F
100
AcDbEntity
  8
Text
  6
Continuous
 62
     7
100
AcDbMText
 10
63.15700601789679
 20
29.37977557637959
 30
0.0
 40
3.0
 41
3.25
 46
0.0
 71
     4
 72
     5
  1
{\fHelveticaNeueLTPro|b0|i0|c1|p15;t}
 73
     2
 44
1.0
  0
MTEXT
  5
1011288
330
1F
100
AcDbEntity
  8
Text
  6
Continuous
 62
     7
100
AcDbMText
 10
64.24033935123013
 20
29.37977557637959
 30
0.0
 40
3.0
 41
3.25
 46
0.0
 71
     4
 72
     5
  1
{\fHelveticaNeueLTPro|b0|i0|c1|p15;e}
 73
     2
 44
1.0
  0
MTEXT
  5
1011289
330
1F
100
AcDbEntity
  8
Text
  6
Continuous
 62
     7
100
AcDbMText
 10
65.99033935123014
 20
29.37977557637959
 30
0.0
 40
3.0
 41
3.25
 46
0.0
 71
     4
 72
     5
  1
{\fHelveticaNeueLTPro|b0|i0|c1|p15;m}
 73
     2
 44
1.0
  0
MTEXT
  5
101128A
330
1F
100
AcDbEntity
  8
Text
  6
Continuous
 62
     7
100
AcDbMText
 10
68.82367268456346
 20
29.37977557637959
 30
0.0
 40
3.0
 41
3.25
 46
0.0
 71
     4
 72
     5
  1
{\fHelveticaNeueLTPro|b0|i0|c1|p15;e}
 73
     2
 44
1.0
  0
MTEXT
  5
101128B
330
1F
100
AcDbEntity
  8
Text
  6
Continuous
 62
     7
100
AcDbMText
 10
70.57367268456346
 20
29.37977557637959
 30
0.0
 40
3.0
 41
3.25
 46
0.0
 71
     4
 72
     5
  1
{\fHelveticaNeueLTPro|b0|i0|c1|p15;.}
 73
     2
 44
1.0
  0
MTEXT
  5
101128C
330
1F
100
AcDbEntity
  8
Text
  6
Continuous
 62
     7
100
AcDbMText
 10
71.57367268456346
 20
29.37977557637959
 30
0.0
 40
3.0
 41
3.25
 46
0.0
 71
     4
 72
     5
  1
{\fHelveticaNeueLTPro|b0|i0|c1|p15;d}
 73
     2
 44
1.0
  0
MTEXT
  5
101128D
330
1F
100
AcDbEntity
  8
Text
  6
Continuous
 62
     7
100
AcDbMText
 10
73.49033935123014
 20
29.37977557637959
 30
0.0
 40
3.0
 41
3.25
 46
0.0
 71
     4
 72
     5
  1
{\fHelveticaNeueLTPro|b0|i0|c1|p15;e}
 73
     2
 44
1.0
  0
MTEXT
  5
101128E
330
1F
100
AcDbEntity
  8
Text
  6
Continuous
 62
     7
100
AcDbMText
 10
36.57367268456346
 20
25.37977557637959
 30
0.0
 40
3.0
 41
3.25
 46
0.0
 71
     4
 72
     5
  1
{\fHelveticaNeueLTPro|b0|i0|c1|p15;i}
 73
     2
 44
1.0
  0
MTEXT
  5
101128F
330
1F
100
AcDbEntity
  8
Text
  6
Continuous
 62
     7
100
AcDbMText
 10
37.32367268456346
 20
25.37977557637959
 30
0.0
 40
3.0
 41
3.25
 46
0.0
 71
     4
 72
     5
  1
{\fHelveticaNeueLTPro|b0|i0|c1|p15;n}
 73
     2
 44
1.0
  0
MTEXT
  5
1011290
330
1F
100
AcDbEntity
  8
Text
  6
Continuous
 62
     7
100
AcDbMText
 10
39.1570060178968
 20
25.37977557637959
 30
0.0
 40
3.0
 41
3.25
 46
0.0
 71
     4
 72
     5
  1
{\fHelveticaNeueLTPro|b0|i0|c1|p15;f}
 73
     2
 44
1.0
  0
MTEXT
  5
1011291
330
1F
100
AcDbEntity
  8
Text
  6
Continuous
 62
     7
100
AcDbMText
 10
40.1570060178968
 20
25.37977557637959
 30
0.0
 40
3.0
 41
3.25
 46
0.0
 71
     4
 72
     5
  1
{\fHelveticaNeueLTPro|b0|i0|c1|p15;o}
 73
     2
 44
1.0
  0
MTEXT
  5
1011292
330
1F
100
AcDbEntity
  8
Text
  6
Continuous
 62
     7
100
AcDbMText
 10
42.07367268456346
 20
25.37977557637959
 30
0.0
 40
3.0
 41
3.25
 46
0.0
 71
     4
 72
     5
  1
{\fHelveticaNeueLTPro|b0|i0|c1|p15;@}
 73
     2
 44
1.0
  0
MTEXT
  5
1011293
330
1F
100
AcDbEntity
  8
Text
  6
Continuous
 62
     7
100
AcDbMText
 10
44.74033935123013
 20
25.37977557637959
 30
0.0
 40
3.0
 41
3.25
 46
0.0
 71
     4
 72
     5
  1
{\fHelveticaNeueLTPro|b0|i0|c1|p15;s}
 73
     2
 44
1.0
  0
MTEXT
  5
1011294
330
1F
100
AcDbEntity
  8
Text
  6
Continuous
 62
     7
100
AcDbMText
 10
46.4070060178968
 20
25.37977557637959
 30
0.0
 40
3.0
 41
3.25
 46
0.0
 71
     4
 72
     5
  1
{\fHelveticaNeueLTPro|b0|i0|c1|p15;t}
 73
     2
 44
1.0
  0
MTEXT
  5
1011295
330
1F
100
AcDbEntity
  8
Text
  6
Continuous
 62
     7
100
AcDbMText
 10
47.40700601789679
 20
25.37977557637959
 30
0.0
 40
3.0
 41
3.25
 46
0.0
 71
     4
 72
     5
  1
{\fHelveticaNeueLTPro|b0|i0|c1|p15;r}
 73
     2
 44
1.0
  0
MTEXT
  5
1011296
330
1F
100
AcDbEntity
  8
Text
  6
Continuous
 62
     7
100
AcDbMText
 10
48.57367268456346
 20
25.37977557637959
 30
0.0
 40
3.0
 41
3.25
 46
0.0
 71
     4
 72
     5
  1
{\fHelveticaNeueLTPro|b0|i0|c1|p15;a}
 73
     2
 44
1.0
  0
MTEXT
  5
1011297
330
1F
100
AcDbEntity
  8
Text
  6
Continuous
 62
     7
100
AcDbMText
 10
50.32367268456346
 20
25.37977557637959
 30
0.0
 40
3.0
 41
3.25
 46
0.0
 71
     4
 72
     5
  1
{\fHelveticaNeueLTPro|b0|i0|c1|p15;s}
 73
     2
 44
1.0
  0
MTEXT
  5
1011298
330
1F
100
AcDbEntity
  8
Text
  6
Continuous
 62
     7
100
AcDbMText
 10
51.99033935123012
 20
25.37977557637959
 30
0.0
 40
3.0
 41
3.25
 46
0.0
 71
     4
 72
     5
  1
{\fHelveticaNeueLTPro|b0|i0|c1|p15;s}
 73
     2
 44
1.0
  0
MTEXT
  5
1011299
330
1F
100
AcDbEntity
  8
Text
  6
Continuous
 62
     7
100
AcDbMText
 10
53.65700601789679
 20
25.37977557637959
 30
0.0
 40
3.0
 41
3.25
 46
0.0
 71
     4
 72
     5
  1
{\fHelveticaNeueLTPro|b0|i0|c1|p15;e}
 73
     2
 44
1.0
  0
MTEXT
  5
101129A
330
1F
100
AcDbEntity
  8
Text
  6
Continuous
 62
     7
100
AcDbMText
 10
55.4070060178968
 20
25.37977557637959
 30
0.0
 40
3.0
 41
3.25
 46
0.0
 71
     4
 72
     5
  1
{\fHelveticaNeueLTPro|b0|i0|c1|p15;r}
 73
     2
 44
1.0
  0
MTEXT
  5
101129B
330
1F
100
AcDbEntity
  8
Text
  6
Continuous
 62
     7
100
AcDbMText
 10
56.57367268456346
 20
25.37977557637959
 30
0.0
 40
3.0
 41
3.25
 46
0.0
 71
     4
 72
     5
  1
{\fHelveticaNeueLTPro|b0|i0|c1|p15;-}
 73
     2
 44
1.0
  0
MTEXT
  5
101129C
330
1F
100
AcDbEntity
  8
Text
  6
Continuous
 62
     7
100
AcDbMText
 10
57.9070060178968
 20
25.37977557637959
 30
0.0
 40
3.0
 41
3.25
 46
0.0
 71
     4
 72
     5
  1
{\fHelveticaNeueLTPro|b0|i0|c1|p15;s}
 73
     2
 44
1.0
  0
MTEXT
  5
101129D
330
1F
100
AcDbEntity
  8
Text
  6
Continuous
 62
     7
100
AcDbMText
 10
59.49033935123012
 20
25.37977557637959
 30
0.0
 40
3.0
 41
3.25
 46
0.0
 71
     4
 72
     5
  1
{\fHelveticaNeueLTPro|b0|i0|c1|p15;y}
 73
     2
 44
1.0
  0
MTEXT
  5
101129E
330
1F
100
AcDbEntity
  8
Text
  6
Continuous
 62
     7
100
AcDbMText
 10
61.15700601789679
 20
25.37977557637959
 30
0.0
 40
3.0
 41
3.25
 46
0.0
 71
     4
 72
     5
  1
{\fHelveticaNeueLTPro|b0|i0|c1|p15;s}
 73
     2
 44
1.0
  0
MTEXT
  5
101129F
330
1F
100
AcDbEntity
  8
Text
  6
Continuous
 62
     7
100
AcDbMText
 10
62.82367268456346
 20
25.37977557637959
 30
0.0
 40
3.0
 41
3.25
 46
0.0
 71
     4
 72
     5
  1
{\fHelveticaNeueLTPro|b0|i0|c1|p15;t}
 73
     2
 44
1.0
  0
MTEXT
  5
10112A0
330
1F
100
AcDbEntity
  8
Text
  6
Continuous
 62
     7
100
AcDbMText
 10
63.9070060178968
 20
25.37977557637959
 30
0.0
 40
3.0
 41
3.25
 46
0.0
 71
     4
 72
     5
  1
{\fHelveticaNeueLTPro|b0|i0|c1|p15;e}
 73
     2
 44
1.0
  0
MTEXT
  5
10112A1
330
1F
100
AcDbEntity
  8
Text
  6
Continuous
 62
     7
100
AcDbMText
 10
65.74033935123013
 20
25.37977557637959
 30
0.0
 40
3.0
 41
3.25
 46
0.0
 71
     4
 72
     5
  1
{\fHelveticaNeueLTPro|b0|i0|c1|p15;m}
 73
     2
 44
1.0
  0
MTEXT
  5
10112A2
330
1F
100
AcDbEntity
  8
Text
  6
Continuous
 62
     7
100
AcDbMText
 10
68.49033935123014
 20
25.37977557637959
 30
0.0
 40
3.0
 41
3.25
 46
0.0
 71
     4
 72
     5
  1
{\fHelveticaNeueLTPro|b0|i0|c1|p15;e}
 73
     2
 44
1.0
  0
MTEXT
  5
10112A3
330
1F
100
AcDbEntity
  8
Text
  6
Continuous
 62
     7
100
AcDbMText
 10
70.32367268456346
 20
25.37977557637959
 30
0.0
 40
3.0
 41
3.25
 46
0.0
 71
     4
 72
     5
  1
{\fHelveticaNeueLTPro|b0|i0|c1|p15;.}
 73
     2
 44
1.0
  0
MTEXT
  5
10112A4
330
1F
100
AcDbEntity
  8
Text
  6
Continuous
 62
     7
100
AcDbMText
 10
71.24033935123013
 20
25.37977557637959
 30
0.0
 40
3.0
 41
3.25
 46
0.0
 71
     4
 72
     5
  1
{\fHelveticaNeueLTPro|b0|i0|c1|p15;d}
 73
     2
 44
1.0
  0
MTEXT
  5
10112A5
330
1F
100
AcDbEntity
  8
Text
  6
Continuous
 62
     7
100
AcDbMText
 10
73.24033935123013
 20
25.37977557637959
 30
0.0
 40
3.0
 41
3.25
 46
0.0
 71
     4
 72
     5
  1
{\fHelveticaNeueLTPro|b0|i0|c1|p15;e}
 73
     2
 44
1.0
  0
MTEXT
  5
10112A6
330
1F
100
AcDbEntity
  8
Text
  6
Continuous
 62
     7
100
AcDbMText
 10
36.24033935123013
 20
36.37977557637959
 30
0.0
 40
3.75
 41
4.0
 46
0.0
 71
     4
 72
     5
  1
{\fHelveticaNeueLTPro|b0|i0|c1|p15;S}
 73
     2
 44
1.0
  0
MTEXT
  5
10112A7
330
1F
100
AcDbEntity
  8
Text
  6
Continuous
 62
     7
100
AcDbMText
 10
38.9070060178968
 20
36.37977557637959
 30
0.0
 40
3.75
 41
4.0
 46
0.0
 71
     4
 72
     5
  1
{\fHelveticaNeueLTPro|b0|i0|c1|p15;e}
 73
     2
 44
1.0
  0
MTEXT
  5
10112A8
330
1F
100
AcDbEntity
  8
Text
  6
Continuous
 62
     7
100
AcDbMText
 10
41.24033935123012
 20
36.37977557637959
 30
0.0
 40
3.75
 41
4.0
 46
0.0
 71
     4
 72
     5
  1
{\fHelveticaNeueLTPro|b0|i0|c1|p15;r}
 73
     2
 44
1.0
  0
MTEXT
  5
10112A9
330
1F
100
AcDbEntity
  8
Text
  6
Continuous
 62
     7
100
AcDbMText
 10
42.82367268456346
 20
36.37977557637959
 30
0.0
 40
3.75
 41
4.0
 46
0.0
 71
     4
 72
     5
  1
{\fHelveticaNeueLTPro|b0|i0|c1|p15;v}
 73
     2
 44
1.0
  0
MTEXT
  5
10112AA
330
1F
100
AcDbEntity
  8
Text
  6
Continuous
 62
     7
100
AcDbMText
 10
44.99033935123012
 20
36.37977557637959
 30
0.0
 40
3.75
 41
4.0
 46
0.0
 71
     4
 72
     5
  1
{\fHelveticaNeueLTPro|b0|i0|c1|p15;i}
 73
     2
 44
1.0
  0
MTEXT
  5
10112AB
330
1F
100
AcDbEntity
  8
Text
  6
Continuous
 62
     7
100
AcDbMText
 10
46.07367268456346
 20
36.37977557637959
 30
0.0
 40
3.75
 41
4.0
 46
0.0
 71
     4
 72
     5
  1
{\fHelveticaNeueLTPro|b0|i0|c1|p15;c}
 73
     2
 44
1.0
  0
MTEXT
  5
10112AC
330
1F
100
AcDbEntity
  8
Text
  6
Continuous
 62
     7
100
AcDbMText
 10
48.4070060178968
 20
36.37977557637959
 30
0.0
 40
3.75
 41
4.0
 46
0.0
 71
     4
 72
     5
  1
{\fHelveticaNeueLTPro|b0|i0|c1|p15;e}
 73
     2
 44
1.0
  0
MTEXT
  5
10112AD
330
1F
100
AcDbEntity
  8
Text
  6
Continuous
 62
     7
100
AcDbMText
 10
50.74033935123012
 20
36.37977557637959
 30
0.0
 40
3.75
 41
4.0
 46
0.0
 71
     4
 72
     5
  1
{\fHelveticaNeueLTPro|b0|i0|c1|p15;-}
 73
     2
 44
1.0
  0
MTEXT
  5
10112AE
330
1F
100
AcDbEntity
  8
Text
  6
Continuous
 62
     7
100
AcDbMText
 10
52.40700601789679
 20
36.37977557637959
 30
0.0
 40
3.75
 41
4.0
 46
0.0
 71
     4
 72
     5
  1
{\fHelveticaNeueLTPro|b0|i0|c1|p15;H}
 73
     2
 44
1.0
  0
MTEXT
  5
10112AF
330
1F
100
AcDbEntity
  8
Text
  6
Continuous
 62
     7
100
AcDbMText
 10
55.4070060178968
 20
36.37977557637959
 30
0.0
 40
3.75
 41
4.0
 46
0.0
 71
     4
 72
     5
  1
{\fHelveticaNeueLTPro|b0|i0|c1|p15;o}
 73
     2
 44
1.0
  0
MTEXT
  5
10112B0
330
1F
100
AcDbEntity
  8
Text
  6
Continuous
 62
     7
100
AcDbMText
 10
57.9070060178968
 20
36.37977557637959
 30
0.0
 40
3.75
 41
4.0
 46
0.0
 71
     4
 72
     5
  1
{\fHelveticaNeueLTPro|b0|i0|c1|p15;t}
 73
     2
 44
1.0
  0
MTEXT
  5
10112B1
330
1F
100
AcDbEntity
  8
Text
  6
Continuous
 62
     7
100
AcDbMText
 10
59.32367268456346
 20
36.37977557637959
 30
0.0
 40
3.75
 41
4.0
 46
0.0
 71
     4
 72
     5
  1
{\fHelveticaNeueLTPro|b0|i0|c1|p15;l}
 73
     2
 44
1.0
  0
MTEXT
  5
10112B2
330
1F
100
AcDbEntity
  8
Text
  6
Continuous
 62
     7
100
AcDbMText
 10
60.4070060178968
 20
36.37977557637959
 30
0.0
 40
3.75
 41
4.0
 46
0.0
 71
     4
 72
     5
  1
{\fHelveticaNeueLTPro|b0|i0|c1|p15;i}
 73
     2
 44
1.0
  0
MTEXT
  5
10112B3
330
1F
100
AcDbEntity
  8
Text
  6
Continuous
 62
     7
100
AcDbMText
 10
61.49033935123012
 20
36.37977557637959
 30
0.0
 40
3.75
 41
4.0
 46
0.0
 71
     4
 72
     5
  1
{\fHelveticaNeueLTPro|b0|i0|c1|p15;n}
 73
     2
 44
1.0
  0
MTEXT
  5
10112B4
330
1F
100
AcDbEntity
  8
Text
  6
Continuous
 62
     7
100
AcDbMText
 10
63.9070060178968
 20
36.37977557637959
 30
0.0
 40
3.75
 41
4.0
 46
0.0
 71
     4
 72
     5
  1
{\fHelveticaNeueLTPro|b0|i0|c1|p15;e}
 73
     2
 44
1.0
  0
MTEXT
  5
10112B5
330
1F
100
AcDbEntity
  8
Text
  6
Continuous
 62
     7
100
AcDbMText
 10
67.40700601789679
 20
36.37977557637959
 30
0.0
 40
3.75
 41
4.0
 46
0.0
 71
     4
 72
     5
  1
{\fHelveticaNeueLTPro|b0|i0|c1|p15;+}
 73
     2
 44
1.0
  0
MTEXT
  5
10112B6
330
1F
100
AcDbEntity
  8
Text
  6
Continuous
 62
     7
100
AcDbMText
 10
69.90700601789679
 20
36.37977557637959
 30
0.0
 40
3.75
 41
4.0
 46
0.0
 71
     4
 72
     5
  1
{\fHelveticaNeueLTPro|b0|i0|c1|p15;4}
 73
     2
 44
1.0
  0
MTEXT
  5
10112B7
330
1F
100
AcDbEntity
  8
Text
  6
Continuous
 62
     7
100
AcDbMText
 10
72.15700601789679
 20
36.37977557637959
 30
0.0
 40
3.75
 41
4.0
 46
0.0
 71
     4
 72
     5
  1
{\fHelveticaNeueLTPro|b0|i0|c1|p15;9}
 73
     2
 44
1.0
  0
MTEXT
  5
10112B8
330
1F
100
AcDbEntity
  8
Text
  6
Continuous
 62
     7
100
AcDbMText
 10
75.57367268456346
 20
36.37977557637959
 30
0.0
 40
3.75
 41
4.0
 46
0.0
 71
     4
 72
     5
  1
{\fHelveticaNeueLTPro|b0|i0|c1|p15;5}
 73
     2
 44
1.0
  0
MTEXT
  5
10112B9
330
1F
100
AcDbEntity
  8
Text
  6
Continuous
 62
     7
100
AcDbMText
 10
77.82367268456346
 20
36.37977557637959
 30
0.0
 40
3.75
 41
4.0
 46
0.0
 71
     4
 72
     5
  1
{\fHelveticaNeueLTPro|b0|i0|c1|p15;4}
 73
     2
 44
1.0
  0
MTEXT
  5
10112BA
330
1F
100
AcDbEntity
  8
Text
  6
Continuous
 62
     7
100
AcDbMText
 10
80.1570060178968
 20
36.37977557637959
 30
0.0
 40
3.75
 41
4.0
 46
0.0
 71
     4
 72
     5
  1
{\fHelveticaNeueLTPro|b0|i0|c1|p15;1}
 73
     2
 44
1.0
  0
MTEXT
  5
10112BB
330
1F
100
AcDbEntity
  8
Text
  6
Continuous
 62
     7
100
AcDbMText
 10
83.57367268456346
 20
36.37977557637959
 30
0.0
 40
3.75
 41
4.0
 46
0.0
 71
     4
 72
     5
  1
{\fHelveticaNeueLTPro|b0|i0|c1|p15;6}
 73
     2
 44
1.0
  0
MTEXT
  5
10112BC
330
1F
100
AcDbEntity
  8
Text
  6
Continuous
 62
     7
100
AcDbMText
 10
85.82367268456346
 20
36.37977557637959
 30
0.0
 40
3.75
 41
4.0
 46
0.0
 71
     4
 72
     5
  1
{\fHelveticaNeueLTPro|b0|i0|c1|p15;0}
 73
     2
 44
1.0
  0
MTEXT
  5
10112BD
330
1F
100
AcDbEntity
  8
Text
  6
Continuous
 62
     7
100
AcDbMText
 10
88.07367268456346
 20
36.37977557637959
 30
0.0
 40
3.75
 41
4.0
 46
0.0
 71
     4
 72
     5
  1
{\fHelveticaNeueLTPro|b0|i0|c1|p15;1}
 73
     2
 44
1.0
  0
MTEXT
  5
10112BE
330
1F
100
AcDbEntity
  8
Text
  6
Continuous
 62
     7
100
AcDbMText
 10
90.32367268456345
 20
36.37977557637959
 30
0.0
 40
3.75
 41
4.0
 46
0.0
 71
     4
 72
     5
  1
{\fHelveticaNeueLTPro|b0|i0|c1|p15;-}
 73
     2
 44
1.0
  0
MTEXT
  5
10112BF
330
1F
100
AcDbEntity
  8
Text
  6
Continuous
 62
     7
100
AcDbMText
 10
91.99033935123013
 20
36.37977557637959
 30
0.0
 40
3.75
 41
4.0
 46
0.0
 71
     4
 72
     5
  1
{\fHelveticaNeueLTPro|b0|i0|c1|p15;2}
 73
     2
 44
1.0
  0
MTEXT
  5
10112C0
330
1F
100
AcDbEntity
  8
Text
  6
Continuous
 62
     7
100
AcDbMText
 10
94.32367268456346
 20
36.37977557637959
 30
0.0
 40
3.75
 41
4.0
 46
0.0
 71
     4
 72
     5
  1
{\fHelveticaNeueLTPro|b0|i0|c1|p15;3}
 73
     2
 44
1.0
  0
MTEXT
  5
10112C1
330
1F
100
AcDbEntity
  8
Text
  6
Continuous
 62
     7
100
AcDbMText
 10
96.57367268456347
 20
36.37977557637959
 30
0.0
 40
3.75
 41
4.0
 46
0.0
 71
     4
 72
     5
  1
{\fHelveticaNeueLTPro|b0|i0|c1|p15;5}
 73
     2
 44
1.0
  0
LWPOLYLINE
  5
10112C2
330
1F
100
AcDbEntity
  8
P
  6
Continuous
 62
     0
100
AcDbPolyline
 90
        2
 70
     0
 43
0.0
 10
28.40700601789679
 20
43.37977557637958
 10
280.6570060178968
 20
43.37977557637958
  0
LWPOLYLINE
  5
10112C3
330
1F
100
AcDbEntity
  8
P
  6
Continuous
 62
     0
100
AcDbPolyline
 90
        2
 70
     0
 43
0.0
 10
102.5736726845634
 20
380.2964422430462
 10
243.8236726845635
 20
380.2964422430462
  0
MTEXT
  5
10112C4
330
1F
100
AcDbEntity
  8
Text
  6
Continuous
 62
     0
100
AcDbMText
 10
102.4070060178968
 20
394.3797755763796
 30
0.0
 40
3.75
 41
32.0
 46
0.0
 71
     4
 72
     5
  1
{\fHelveticaNeueLTPro|b0|i0|c1|p15;Variante}
 73
     2
 44
1.0
  0
MTEXT
  5
10112C5
330
1F
100
AcDbEntity
  8
Text
  6
Continuous
 62
     0
100
AcDbMText
 10
102.4070060178968
 20
389.1297755763796
 30
0.0
 40
3.75
 41
24.0
 46
0.0
 71
     4
 72
     5
  1
{\fHelveticaNeueLTPro|b0|i0|c1|p15;Fliese}
 73
     2
 44
1.0
  0
LWPOLYLINE
  5
10112C6
330
1F
100
AcDbEntity
  8
P
  6
Continuous
 62
     0
100
AcDbPolyline
 90
        2
 70
     0
 43
0.0
 10
245.5736726845635
 20
380.2964422430462
 10
280.7403393512302
 20
380.2964422430462
  0
MTEXT
  5
10112C7
330
1F
100
AcDbEntity
  8
Text
  6
Continuous
 62
     0
100
AcDbMText
 10
245.5736726845635
 20
389.1297755763796
 30
0.0
 40
3.75
 41
56.0
 46
0.0
 71
     4
 72
     5
  1
{\fHelveticaNeueLTPro|b0|i0|c1|p15;Stand 12.2018 }
 73
     2
 44
1.0
  0
LWPOLYLINE
  5
10112C8
330
1F
100
AcDbEntity
  8
P
  6
Continuous
 62
     0
100
AcDbPolyline
 90
        2
 70
     0
 43
0.0
 10
28.40700601789679
 20
380.2964422430462
 10
100.4903393512301
 20
380.2964422430462
  0
MTEXT
  5
10112C9
330
1F
100
AcDbEntity
  8
Text
  6
Continuous
 62
     0
100
AcDbMText
 10
28.24033935123013
 20
394.3797755763796
 30
0.0
 40
3.75
 41
40.0
 46
0.0
 71
     4
 72
     5
  1
{\fHelveticaNeueLTPro|b0|i0|c1|p15;System 3  }
 73
     2
 44
1.0
  0
MTEXT
  5
10112CA
330
1F
100
AcDbEntity
  8
Text
  6
Continuous
 62
     0
100
AcDbMText
 10
28.24033935123013
 20
389.1297755763796
 30
0.0
 40
3.75
 41
68.0
 46
0.0
 71
     4
 72
     5
  1
{\fHelveticaNeueLTPro|b0|i0|c1|p15;Balkon / Terrasse}
 73
     2
 44
1.0
  0
MTEXT
  5
10112CB
330
1F
100
AcDbEntity
  8
Text
  6
Continuous
 62
     0
100
AcDbMText
 10
37.49033935123013
 20
138.7964422430462
 30
0.0
 40
3.75
 41
44.0
 46
0.0
 71
     4
 72
     5
  1
{\fHelveticaNeueLTPro|b0|i0|c1|p15;Abdichtung }
 73
     2
 44
1.0
  0
MTEXT
  5
10112CC
330
1F
100
AcDbEntity
  8
Text
  6
Continuous
 62
     0
100
AcDbMText
 10
37.49033935123013
 20
133.5464422430462
 30
0.0
 40
3.0
 41
113.75
 46
0.0
 71
     4
 72
     5
  1
{\fHelveticaNeueLTPro|b0|i0|c0|p15;DICHT FDS 2K Flexible Dichtschlämme}
 73
     2
 44
1.0
  0
MTEXT
  5
10112CD
330
1F
100
AcDbEntity
  8
Text
  6
Continuous
 62
     7
100
AcDbMText
 10
30.49033935123013
 20
138.7131089097129
 30
0.0
 40
3.25
 41
3.5
 46
0.0
 71
     4
 72
     5
  1
{\fHelveticaNeueLTPro|b0|i0|c1|p15;3}
 73
     2
 44
1.0
  0
MTEXT
  5
10112CE
330
1F
100
AcDbEntity
  8
Text
  6
Continuous
 62
     0
100
AcDbMText
 10
37.49033935123013
 20
122.6297755763796
 30
0.0
 40
3.75
 41
28.0
 46
0.0
 71
     4
 72
     5
  1
{\fHelveticaNeueLTPro|b0|i0|c1|p15;Kleber }
 73
     2
 44
1.0
  0
MTEXT
  5
10112CF
330
1F
100
AcDbEntity
  8
Text
  6
Continuous
 62
     0
100
AcDbMText
 10
37.49033935123013
 20
117.3797755763796
 30
0.0
 40
3.0
 41
162.5
 46
0.0
 71
     4
 72
     5
  1
{\fHelveticaNeueLTPro|b0|i0|c1|p15;z.B. FLEX FK-W Flexkleber wasserundurchl}
 73
     2
 44
1.0
  0
MTEXT
  5
10112D0
330
1F
100
AcDbEntity
  8
Text
  6
Continuous
 62
     0
100
AcDbMText
 10
37.49033935123013
 20
113.4631089097129
 30
0.0
 40
3.0
 41
133.25
 46
0.0
 71
     4
 72
     5
  1
{\fHelveticaNeueLTPro|b0|i0|c1|p15;FLEX FKU Flexkleber Kleber Universal oder}
 73
     2
 44
1.0
  0
MTEXT
  5
10112D1
330
1F
100
AcDbEntity
  8
Text
  6
Continuous
 62
     0
100
AcDbMText
 10
37.49033935123013
 20
109.6297755763796
 30
0.0
 40
3.0
 41
87.75
 46
0.0
 71
     4
 72
     5
  1
{\fHelveticaNeueLTPro|b0|i0|c1|p15;FLEX FKC Flexkleber Classic}
 73
     2
 44
1.0
  0
MTEXT
  5
10112D2
330
1F
100
AcDbEntity
  8
Text
  6
Continuous
 62
     7
100
AcDbMText
 10
30.49033935123013
 20
122.7131089097129
 30
0.0
 40
3.25
 41
3.5
 46
0.0
 71
     4
 72
     5
  1
{\fHelveticaNeueLTPro|b0|i0|c1|p15;4}
 73
     2
 44
1.0
  0
MTEXT
  5
10112D3
330
1F
100
AcDbEntity
  8
Text
  6
Continuous
 62
     0
100
AcDbMText
 10
37.4070060178968
 20
172.8797755763795
 30
0.0
 40
3.75
 41
124.0
 46
0.0
 71
     4
 72
     5
  1
{\fHelveticaNeueLTPro|b0|i0|c0|p15;Untergrund (fest und tragfähig)}
 73
     2
 44
1.0
  0
MTEXT
  5
10112D4
330
1F
100
AcDbEntity
  8
Text
  6
Continuous
 62
     0
100
AcDbMText
 10
37.4070060178968
 20
167.0464422430462
 30
0.0
 40
3.0
 41
45.49999999999999
 46
0.0
 71
     4
 72
     5
  1
{\fHelveticaNeueLTPro|b0|i0|c1|p15;Beton/ Estrich}
 73
     2
 44
1.0
  0
MTEXT
  5
10112D5
330
1F
100
AcDbEntity
  8
Text
  6
Continuous
 62
     7
100
AcDbMText
 10
30.4070060178968
 20
172.8797755763795
 30
0.0
 40
3.25
 41
3.5
 46
0.0
 71
     4
 72
     5
  1
{\fHelveticaNeueLTPro|b0|i0|c1|p15;1}
 73
     2
 44
1.0
  0
MTEXT
  5
10112D6
330
1F
100
AcDbEntity
  8
Text
  6
Continuous
 62
     0
100
AcDbMText
 10
37.4070060178968
 20
154.3797755763796
 30
0.0
 40
3.75
 41
88.0
 46
0.0
 71
     4
 72
     5
  1
{\fHelveticaNeueLTPro|b0|i0|c1|p15;Grundierung Abdichtung}
 73
     2
 44
1.0
  0
MTEXT
  5
10112D7
330
1F
100
AcDbEntity
  8
Text
  6
Continuous
 62
     7
100
AcDbMText
 10
30.4070060178968
 20
154.3797755763796
 30
0.0
 40
3.25
 41
3.5
 46
0.0
 71
     4
 72
     5
  1
{\fHelveticaNeueLTPro|b0|i0|c1|p15;2}
 73
     2
 44
1.0
  0
MTEXT
  5
10112D8
330
1F
100
AcDbEntity
  8
Text
  6
Continuous
 62
     0
100
AcDbMText
 10
37.4070060178968
 20
148.7131089097129
 30
0.0
 40
3.0
 41
87.75
 46
0.0
 71
     4
 72
     5
  1
{\fHelveticaNeueLTPro|b0|i0|c1|p15;nach technischem Datenblatt}
 73
     2
 44
1.0
  0
MTEXT
  5
10112D9
330
1F
100
AcDbEntity
  8
Text
  6
Continuous
 62
     0
100
AcDbMText
 10
131.9070060178968
 20
172.9631089097129
 30
0.0
 40
3.75
 41
44.0
 46
0.0
 71
     4
 72
     5
  1
{\fHelveticaNeueLTPro|b0|i0|c0|p15;Fugenmörtel}
 73
     2
 44
1.0
  0
MTEXT
  5
10112DA
330
1F
100
AcDbEntity
  8
Text
  6
Continuous
 62
     0
100
AcDbMText
 10
131.9070060178968
 20
167.7131089097129
 30
0.0
 40
3.0
 41
240.5
 46
0.0
 71
     4
 72
     5
  1
{\fHelveticaNeueLTPro|b0|i0|c1|p15;z.B. FUG FF-S Flexfuge schnell (speziell bei Feinsteinzeug verwenden) oder}
 73
     2
 44
1.0
  0
MTEXT
  5
10112DB
330
1F
100
AcDbEntity
  8
Text
  6
Continuous
 62
     0
100
AcDbMText
 10
131.9070060178968
 20
163.7964422430462
 30
0.0
 40
3.0
 41
81.25
 46
0.0
 71
     4
 72
     5
  1
{\fHelveticaNeueLTPro|b0|i0|c1|p15;FUG FF-C Flexfuge Classic}
 73
     2
 44
1.0
  0
MTEXT
  5
10112DC
330
1F
100
AcDbEntity
  8
Text
  6
Continuous
 62
     0
100
AcDbMText
 10
131.9070060178968
 20
154.9631089097129
 30
0.0
 40
3.75
 41
44.0
 46
0.0
 71
     4
 72
     5
  1
{\fHelveticaNeueLTPro|b0|i0|c1|p15;Abdichtband}
 73
     2
 44
1.0
  0
MTEXT
  5
10112DD
330
1F
100
AcDbEntity
  8
Text
  6
Continuous
 62
     7
100
AcDbMText
 10
124.9070060178968
 20
172.8797755763795
 30
0.0
 40
3.25
 41
3.5
 46
0.0
 71
     4
 72
     5
  1
{\fHelveticaNeueLTPro|b0|i0|c1|p15;6}
 73
     2
 44
1.0
  0
MTEXT
  5
10112DE
330
1F
100
AcDbEntity
  8
Text
  6
Continuous
 62
     7
100
AcDbMText
 10
124.9070060178968
 20
154.9631089097129
 30
0.0
 40
3.25
 41
3.5
 46
0.0
 71
     4
 72
     5
  1
{\fHelveticaNeueLTPro|b0|i0|c1|p15;7}
 73
     2
 44
1.0
  0
MTEXT
  5
10112DF
330
1F
100
AcDbEntity
  8
Text
  6
Continuous
 62
     0
100
AcDbMText
 10
131.9070060178968
 20
149.6297755763796
 30
0.0
 40
3.0
 41
94.25
 46
0.0
 71
     4
 72
     5
  1
{\fHelveticaNeueLTPro|b0|i0|c1|p15;DICHT FDB Flexibles Dichtband}
 73
     2
 44
1.0
  0
MTEXT
  5
10112E0
330
1F
100
AcDbEntity
  8
Text
  6
Continuous
 62
     0
100
AcDbMText
 10
131.9070060178968
 20
139.0464422430462
 30
0.0
 40
3.75
 41
140.0
 46
0.0
 71
     4
 72
     5
  1
{\fHelveticaNeueLTPro|b0|i0|c0|p15;geeignetes Fugenhinterfüllmaterial}
 73
     2
 44
1.0
  0
MTEXT
  5
10112E1
330
1F
100
AcDbEntity
  8
Text
  6
Continuous
 62
     7
100
AcDbMText
 10
124.9070060178968
 20
139.0464422430462
 30
0.0
 40
3.25
 41
3.5
 46
0.0
 71
     4
 72
     5
  1
{\fHelveticaNeueLTPro|b0|i0|c1|p15;8}
 73
     2
 44
1.0
  0
MTEXT
  5
10112E2
330
1F
100
AcDbEntity
  8
Text
  6
Continuous
 62
     0
100
AcDbMText
 10
131.9070060178968
 20
127.3797755763796
 30
0.0
 40
3.75
 41
64.0
 46
0.0
 71
     4
 72
     5
  1
{\fHelveticaNeueLTPro|b0|i0|c1|p15;Elastische Fuge }
 73
     2
 44
1.0
  0
MTEXT
  5
10112E3
330
1F
100
AcDbEntity
  8
Text
  6
Continuous
 62
     7
100
AcDbMText
 10
124.9070060178968
 20
127.3797755763796
 30
0.0
 40
3.25
 41
3.5
 46
0.0
 71
     4
 72
     5
  1
{\fHelveticaNeueLTPro|b0|i0|c1|p15;9}
 73
     2
 44
1.0
  0
MTEXT
  5
10112E4
330
1F
100
AcDbEntity
  8
Text
  6
Continuous
 62
     0
100
AcDbMText
 10
131.9070060178968
 20
121.5464422430462
 30
0.0
 40
3.0
 41
58.5
 46
0.0
 71
     4
 72
     5
  1
{\fHelveticaNeueLTPro|b0|i0|c1|p15;z.B. Ottoseal S100}
 73
     2
 44
1.0
  0
MTEXT
  5
10112E5
330
1F
100
AcDbEntity
  8
Text
  6
Continuous
 62
     0
100
AcDbMText
 10
131.9070060178968
 20
113.4631089097129
 30
0.0
 40
3.75
 41
56.0
 46
0.0
 71
     4
 72
     5
  1
{\fHelveticaNeueLTPro|b0|i0|c1|p15;Bewegungsfuge }
 73
     2
 44
1.0
  0
MTEXT
  5
10112E6
330
1F
100
AcDbEntity
  8
Text
  6
Continuous
 62
     7
100
AcDbMText
 10
123.9070060178968
 20
113.5464422430462
 30
0.0
 40
3.25
 41
7.0
 46
0.0
 71
     4
 72
     5
  1
{\fHelveticaNeueLTPro|b0|i0|c1|p15;10}
 73
     2
 44
1.0
  0
MTEXT
  5
10112E7
330
1F
100
AcDbEntity
  8
Text
  6
Continuous
 62
     0
100
AcDbMText
 10
131.9070060178968
 20
107.7131089097129
 30
0.0
 40
3.0
 41
48.75
 46
0.0
 71
     4
 72
     5
  1
{\fHelveticaNeueLTPro|b0|i0|c1|p15;z.B. Polystyrol}
 73
     2
 44
1.0
  0
MTEXT
  5
10112E8
330
1F
100
AcDbEntity
  8
Text
  6
Continuous
 62
     0
100
AcDbMText
 10
37.49033935123013
 20
100.2131089097129
 30
0.0
 40
3.75
 41
64.0
 46
0.0
 71
     4
 72
     5
  1
{\fHelveticaNeueLTPro|b0|i0|c1|p15;Fliesenbelag neu}
 73
     2
 44
1.0
  0
MTEXT
  5
10112E9
330
1F
100
AcDbEntity
  8
Text
  6
Continuous
 62
     7
100
AcDbMText
 10
30.49033935123013
 20
100.5464422430462
 30
0.0
 40
3.25
 41
3.5
 46
0.0
 71
     4
 72
     5
  1
{\fHelveticaNeueLTPro|b0|i0|c1|p15;5}
 73
     2
 44
1.0
  0
HATCH
  5
10112EA
330
1F
100
AcDbEntity
  8
H
  6
Continuous
 62
     0
100
AcDbHatch
 10
0.0
 20
0.0
 30
0.0
210
0.0
220
0.0
230
1.0
  2
SOLID
 70
     1
 71
     0
 91
        1
 92
        1
 93
        4
 72
     1
 10
212.5736726845635
 20
265.2964422430463
 11
75.24033935123014
 21
265.2964422430463
 72
     1
 10
75.24033935123013
 20
265.2964422430463
 11
81.4070060178968
 21
268.0464422430463
 72
     1
 10
81.4070060178968
 20
268.0464422430463
 11
206.4070060178968
 21
268.0464422430463
 72
     1
 10
206.4070060178968
 20
268.0464422430463
 11
212.5736726845635
 21
265.2964422430463
 97
        0
 75
     0
 76
     1
 98
        0
450
        0
451
        0
460
0.0
461
0.0
452
        1
462
0.0
453
        0
470

  0
LWPOLYLINE
  5
10112EB
330
1F
100
AcDbEntity
  8
P
  6
DASHDOT
 62
     0
100
AcDbPolyline
 90
        4
 70
     0
 43
0.0
 10
147.2403393512301
 20
268.6297755763795
 10
206.6570060178968
 20
268.6297755763795
 10
215.9070060178968
 20
264.5464422430463
 10
259.3236726845635
 20
264.5464422430463
  0
LWPOLYLINE
  5
10112EC
330
1F
100
AcDbEntity
  8
P
  6
DASHDOT
 62
     0
100
AcDbPolyline
 90
        4
 70
     0
 43
0.0
 10
28.82367268456346
 20
264.5464422430463
 10
72.15700601789679
 20
264.5464422430463
 10
81.24033935123014
 20
268.6297755763795
 10
140.7403393512301
 20
268.6297755763795
  0
LWPOLYLINE
  5
10112ED
330
1F
100
AcDbEntity
  8
P
  6
DASHDOT
 62
     0
100
AcDbPolyline
 90
        2
 70
     0
 43
0.0
 10
28.6570060178968
 20
206.2131089097129
 10
259.4070060178968
 20
206.2131089097129
  0
LWPOLYLINE
  5
10112EE
330
1F
100
AcDbEntity
  8
P
  6
DASHDOT
 62
     0
100
AcDbPolyline
 90
        2
 70
     0
 43
0.0
 10
28.6570060178968
 20
206.2131089097129
 10
28.6570060178968
 20
294.7131089097129
  0
LWPOLYLINE
  5
10112EF
330
1F
100
AcDbEntity
  8
P
  6
DASHDOT
 62
     0
100
AcDbPolyline
 90
        2
 70
     0
 43
0.0
 10
259.4070060178968
 20
206.2131089097129
 10
259.4070060178968
 20
294.7131089097129
  0
LWPOLYLINE
  5
10112F0
330
1F
100
AcDbEntity
  8
P
  6
Continuous
 62
     0
100
AcDbPolyline
 90
        2
 70
     0
 43
0.0
 10
259.4070060178968
 20
274.2964422430463
 10
237.7403393512301
 20
274.4631089097129
  0
LWPOLYLINE
  5
10112F1
330
1F
100
AcDbEntity
  8
P
  6
Continuous
 62
     0
100
AcDbPolyline
 90
        2
 70
     0
 43
0.0
 10
230.3236726845635
 20
274.5464422430463
 10
147.2403393512301
 20
275.2964422430463
  0
LWPOLYLINE
  5
10112F2
330
1F
100
AcDbEntity
  8
P
  6
Continuous
 62
     0
100
AcDbPolyline
 90
        2
 70
     0
 43
0.0
 10
230.4070060178968
 20
283.2964422430463
 10
147.2403393512301
 20
283.9631089097129
  0
LWPOLYLINE
  5
10112F3
330
1F
100
AcDbEntity
  8
P
  6
Continuous
 62
     0
100
AcDbPolyline
 90
        2
 70
     0
 43
0.0
 10
230.4070060178968
 20
283.2964422430463
 10
230.3236726845635
 20
274.5464422430463
  0
LWPOLYLINE
  5
10112F4
330
1F
100
AcDbEntity
  8
P
  6
Continuous
 62
     0
100
AcDbPolyline
 90
        2
 70
     0
 43
0.0
 10
259.3236726845635
 20
283.0464422430463
 10
237.7403393512301
 20
283.2131089097129
  0
LWPOLYLINE
  5
10112F5
330
1F
100
AcDbEntity
  8
P
  6
Continuous
 62
     0
100
AcDbPolyline
 90
        2
 70
     0
 43
0.0
 10
237.7403393512301
 20
283.2131089097129
 10
237.7403393512301
 20
274.4631089097129
  0
LWPOLYLINE
  5
10112F6
330
1F
100
AcDbEntity
  8
P
  6
Continuous
 62
     0
100
AcDbPolyline
 90
       23
 70
     0
 43
0.0
 10
230.4070060178968
 20
283.2964422430463
 10
230.7403393512301
 20
283.1297755763795
 10
231.1570060178968
 20
282.9631089097129
 10
231.6570060178968
 20
282.7964422430463
 10
232.0736726845634
 20
282.6297755763795
 10
232.5736726845635
 20
282.5464422430463
 10
232.8236726845635
 20
282.5464422430463
 10
233.0736726845635
 20
282.4631089097129
 10
233.3236726845635
 20
282.4631089097129
 10
233.5736726845635
 20
282.4631089097129
 10
233.8236726845634
 20
282.4631089097129
 10
234.0736726845634
 20
282.4631089097129
 10
234.3236726845635
 20
282.4631089097129
 10
234.5736726845635
 20
282.4631089097129
 10
234.8236726845635
 20
282.4631089097129
 10
235.0736726845635
 20
282.4631089097129
 10
235.3236726845635
 20
282.4631089097129
 10
235.5736726845635
 20
282.5464422430463
 10
236.0736726845634
 20
282.6297755763795
 10
236.4903393512301
 20
282.7131089097129
 10
236.9903393512301
 20
282.8797755763795
 10
237.4070060178968
 20
283.0464422430463
 10
237.7403393512301
 20
283.2131089097129
  0
LWPOLYLINE
  5
10112F7
330
1F
100
AcDbEntity
  8
P
  6
Continuous
 62
     0
100
AcDbPolyline
 90
        2
 70
     0
 43
0.0
 10
237.7403393512301
 20
274.4631089097129
 10
230.3236726845635
 20
274.5464422430463
  0
LWPOLYLINE
  5
10112F8
330
1F
100
AcDbEntity
  8
P
  6
Continuous
 62
     0
100
AcDbPolyline
 90
        2
 70
     0
 43
0.0
 10
215.9070060178968
 20
265.2964422430463
 10
259.4070060178968
 20
265.2964422430463
  0
LWPOLYLINE
  5
10112F9
330
1F
100
AcDbEntity
  8
P
  6
Continuous
 62
     0
100
AcDbPolyline
 90
        2
 70
     0
 43
0.0
 10
147.2403393512301
 20
268.0464422430463
 10
206.4070060178968
 20
268.0464422430463
  0
LWPOLYLINE
  5
10112FA
330
1F
100
AcDbEntity
  8
P
  6
Continuous
 62
     0
100
AcDbPolyline
 90
        2
 70
     0
 43
0.0
 10
147.2403393512301
 20
225.1297755763796
 10
186.1570060178968
 20
262.7131089097129
  0
LWPOLYLINE
  5
10112FB
330
1F
100
AcDbEntity
  8
P
  6
Continuous
 62
     0
100
AcDbPolyline
 90
        2
 70
     0
 43
0.0
 10
152.9903393512301
 20
206.3797755763796
 10
211.0736726845634
 20
262.7131089097129
  0
LWPOLYLINE
  5
10112FC
330
1F
100
AcDbEntity
  8
P
  6
Continuous
 62
     0
100
AcDbPolyline
 90
        2
 70
     0
 43
0.0
 10
177.7403393512301
 20
206.6297755763796
 10
235.8236726845635
 20
262.7131089097129
  0
LWPOLYLINE
  5
10112FD
330
1F
100
AcDbEntity
  8
P
  6
Continuous
 62
     0
100
AcDbPolyline
 90
        2
 70
     0
 43
0.0
 10
202.4903393512301
 20
206.6297755763796
 10
259.4903393512301
 20
261.7964422430463
  0
LWPOLYLINE
  5
10112FE
330
1F
100
AcDbEntity
  8
P
  6
Continuous
 62
     0
100
AcDbPolyline
 90
        2
 70
     0
 43
0.0
 10
227.4070060178968
 20
206.6297755763796
 10
259.4903393512301
 20
237.7964422430463
  0
LWPOLYLINE
  5
10112FF
330
1F
100
AcDbEntity
  8
P
  6
Continuous
 62
     0
100
AcDbPolyline
 90
        2
 70
     0
 43
0.0
 10
252.1570060178968
 20
206.6297755763796
 10
259.4903393512301
 20
213.7964422430462
  0
LWPOLYLINE
  5
1011300
330
1F
100
AcDbEntity
  8
P
  6
Continuous
 62
     0
100
AcDbPolyline
 90
        2
 70
     0
 43
0.0
 10
149.7403393512301
 20
239.3797755763796
 10
159.1570060178968
 20
248.4631089097129
  0
LWPOLYLINE
  5
1011301
330
1F
100
AcDbEntity
  8
P
  6
Continuous
 62
     0
100
AcDbPolyline
 90
        2
 70
     0
 43
0.0
 10
162.3236726845634
 20
251.7131089097129
 10
171.6570060178968
 20
260.6297755763795
  0
LWPOLYLINE
  5
1011302
330
1F
100
AcDbEntity
  8
P
  6
Continuous
 62
     0
100
AcDbPolyline
 90
        2
 70
     0
 43
0.0
 10
149.5736726845635
 20
215.2131089097129
 10
159.1570060178968
 20
224.4631089097129
  0
LWPOLYLINE
  5
1011303
330
1F
100
AcDbEntity
  8
P
  6
Continuous
 62
     0
100
AcDbPolyline
 90
        2
 70
     0
 43
0.0
 10
162.3236726845634
 20
227.3797755763796
 10
171.6570060178968
 20
236.6297755763795
  0
LWPOLYLINE
  5
1011304
330
1F
100
AcDbEntity
  8
P
  6
Continuous
 62
     0
100
AcDbPolyline
 90
        2
 70
     0
 43
0.0
 10
174.6570060178968
 20
239.5464422430463
 10
183.9903393512301
 20
248.4631089097129
  0
LWPOLYLINE
  5
1011305
330
1F
100
AcDbEntity
  8
P
  6
Continuous
 62
     0
100
AcDbPolyline
 90
        2
 70
     0
 43
0.0
 10
187.0736726845635
 20
251.7131089097129
 10
196.4070060178968
 20
260.6297755763795
  0
LWPOLYLINE
  5
1011306
330
1F
100
AcDbEntity
  8
P
  6
Continuous
 62
     0
100
AcDbPolyline
 90
        2
 70
     0
 43
0.0
 10
165.4070060178968
 20
206.3797755763796
 10
171.6570060178968
 20
212.5464422430463
  0
LWPOLYLINE
  5
1011307
330
1F
100
AcDbEntity
  8
P
  6
Continuous
 62
     0
100
AcDbPolyline
 90
        2
 70
     0
 43
0.0
 10
174.6570060178968
 20
215.5464422430462
 10
183.9903393512301
 20
224.4631089097129
  0
LWPOLYLINE
  5
1011308
330
1F
100
AcDbEntity
  8
P
  6
Continuous
 62
     0
100
AcDbPolyline
 90
        2
 70
     0
 43
0.0
 10
187.0736726845635
 20
227.3797755763796
 10
196.4070060178968
 20
236.6297755763795
  0
LWPOLYLINE
  5
1011309
330
1F
100
AcDbEntity
  8
P
  6
Continuous
 62
     0
100
AcDbPolyline
 90
        2
 70
     0
 43
0.0
 10
199.4070060178968
 20
239.5464422430463
 10
208.7403393512301
 20
248.4631089097129
  0
LWPOLYLINE
  5
101130A
330
1F
100
AcDbEntity
  8
P
  6
Continuous
 62
     0
100
AcDbPolyline
 90
        2
 70
     0
 43
0.0
 10
211.8236726845635
 20
251.7131089097129
 10
221.1570060178968
 20
260.6297755763795
  0
LWPOLYLINE
  5
101130B
330
1F
100
AcDbEntity
  8
P
  6
Continuous
 62
     0
100
AcDbPolyline
 90
        2
 70
     0
 43
0.0
 10
190.1570060178968
 20
206.6297755763796
 10
196.4070060178968
 20
212.5464422430463
  0
LWPOLYLINE
  5
101130C
330
1F
100
AcDbEntity
  8
P
  6
Continuous
 62
     0
100
AcDbPolyline
 90
        2
 70
     0
 43
0.0
 10
199.4070060178968
 20
215.5464422430462
 10
208.7403393512301
 20
224.4631089097129
  0
LWPOLYLINE
  5
101130D
330
1F
100
AcDbEntity
  8
P
  6
Continuous
 62
     0
100
AcDbPolyline
 90
        2
 70
     0
 43
0.0
 10
211.8236726845635
 20
227.3797755763796
 10
221.1570060178968
 20
236.6297755763795
  0
LWPOLYLINE
  5
101130E
330
1F
100
AcDbEntity
  8
P
  6
Continuous
 62
     0
100
AcDbPolyline
 90
        2
 70
     0
 43
0.0
 10
224.1570060178968
 20
239.5464422430463
 10
233.4903393512301
 20
248.4631089097129
  0
LWPOLYLINE
  5
101130F
330
1F
100
AcDbEntity
  8
P
  6
Continuous
 62
     0
100
AcDbPolyline
 90
        2
 70
     0
 43
0.0
 10
236.5736726845635
 20
251.7131089097129
 10
245.9070060178968
 20
260.6297755763795
  0
LWPOLYLINE
  5
1011310
330
1F
100
AcDbEntity
  8
P
  6
Continuous
 62
     0
100
AcDbPolyline
 90
        2
 70
     0
 43
0.0
 10
214.9903393512301
 20
206.6297755763796
 10
221.1570060178968
 20
212.5464422430463
  0
LWPOLYLINE
  5
1011311
330
1F
100
AcDbEntity
  8
P
  6
Continuous
 62
     0
100
AcDbPolyline
 90
        2
 70
     0
 43
0.0
 10
224.1570060178968
 20
215.5464422430462
 10
233.4903393512301
 20
224.4631089097129
  0
LWPOLYLINE
  5
1011312
330
1F
100
AcDbEntity
  8
P
  6
Continuous
 62
     0
100
AcDbPolyline
 90
        2
 70
     0
 43
0.0
 10
236.5736726845635
 20
227.3797755763796
 10
245.9070060178968
 20
236.6297755763795
  0
LWPOLYLINE
  5
1011313
330
1F
100
AcDbEntity
  8
P
  6
Continuous
 62
     0
100
AcDbPolyline
 90
        2
 70
     0
 43
0.0
 10
248.9070060178968
 20
239.5464422430463
 10
258.2403393512302
 20
248.4631089097129
  0
LWPOLYLINE
  5
1011314
330
1F
100
AcDbEntity
  8
P
  6
Continuous
 62
     0
100
AcDbPolyline
 90
        2
 70
     0
 43
0.0
 10
239.7403393512301
 20
206.6297755763796
 10
245.9070060178968
 20
212.5464422430463
  0
LWPOLYLINE
  5
1011315
330
1F
100
AcDbEntity
  8
P
  6
Continuous
 62
     0
100
AcDbPolyline
 90
        2
 70
     0
 43
0.0
 10
248.9070060178968
 20
215.5464422430462
 10
258.2403393512302
 20
224.4631089097129
  0
LWPOLYLINE
  5
1011316
330
1F
100
AcDbEntity
  8
P
  6
Continuous
 62
     0
100
AcDbPolyline
 90
        2
 70
     0
 43
0.0
 10
215.9070060178968
 20
265.2964422430463
 10
206.9070060178968
 20
269.2964422430463
  0
LWPOLYLINE
  5
1011317
330
1F
100
AcDbEntity
  8
P
  6
Continuous
 62
     0
100
AcDbPolyline
 90
        2
 70
     0
 43
0.0
 10
206.9070060178968
 20
269.2964422430463
 10
147.2403393512301
 20
269.2964422430463
  0
LWPOLYLINE
  5
1011318
330
1F
100
AcDbEntity
  8
P
  6
Continuous
 62
     0
100
AcDbPolyline
 90
        2
 70
     0
 43
0.0
 10
28.6570060178968
 20
274.2964422430463
 10
50.24033935123012
 20
274.4631089097129
  0
LWPOLYLINE
  5
1011319
330
1F
100
AcDbEntity
  8
P
  6
Continuous
 62
     0
100
AcDbPolyline
 90
        2
 70
     0
 43
0.0
 10
57.74033935123012
 20
274.5464422430463
 10
140.7403393512301
 20
275.2964422430463
  0
LWPOLYLINE
  5
101131A
330
1F
100
AcDbEntity
  8
P
  6
Continuous
 62
     0
100
AcDbPolyline
 90
        2
 70
     0
 43
0.0
 10
57.6570060178968
 20
283.2964422430463
 10
140.8236726845634
 20
283.9631089097129
  0
LWPOLYLINE
  5
101131B
330
1F
100
AcDbEntity
  8
P
  6
Continuous
 62
     0
100
AcDbPolyline
 90
        2
 70
     0
 43
0.0
 10
57.6570060178968
 20
283.2964422430463
 10
57.74033935123012
 20
274.5464422430463
  0
LWPOLYLINE
  5
101131C
330
1F
100
AcDbEntity
  8
P
  6
Continuous
 62
     0
100
AcDbPolyline
 90
        2
 70
     0
 43
0.0
 10
28.6570060178968
 20
283.0464422430463
 10
50.24033935123012
 20
283.2131089097129
  0
LWPOLYLINE
  5
101131D
330
1F
100
AcDbEntity
  8
P
  6
Continuous
 62
     0
100
AcDbPolyline
 90
        2
 70
     0
 43
0.0
 10
50.24033935123012
 20
283.2131089097129
 10
50.24033935123012
 20
274.4631089097129
  0
LWPOLYLINE
  5
101131E
330
1F
100
AcDbEntity
  8
P
  6
Continuous
 62
     0
100
AcDbPolyline
 90
       23
 70
     0
 43
0.0
 10
50.24033935123012
 20
283.2131089097129
 10
50.65700601789679
 20
283.0464422430463
 10
51.07367268456346
 20
282.8797755763795
 10
51.57367268456346
 20
282.7131089097129
 10
51.99033935123012
 20
282.6297755763795
 10
52.49033935123012
 20
282.5464422430463
 10
52.74033935123012
 20
282.4631089097129
 10
52.99033935123013
 20
282.4631089097129
 10
53.24033935123012
 20
282.4631089097129
 10
53.49033935123013
 20
282.4631089097129
 10
53.74033935123012
 20
282.4631089097129
 10
53.99033935123012
 20
282.4631089097129
 10
54.24033935123013
 20
282.4631089097129
 10
54.49033935123012
 20
282.4631089097129
 10
54.74033935123013
 20
282.4631089097129
 10
54.99033935123012
 20
282.4631089097129
 10
55.24033935123012
 20
282.5464422430463
 10
55.49033935123013
 20
282.5464422430463
 10
55.9070060178968
 20
282.6297755763795
 10
56.4070060178968
 20
282.7964422430463
 10
56.82367268456346
 20
282.9631089097129
 10
57.24033935123013
 20
283.1297755763795
 10
57.6570060178968
 20
283.2964422430463
  0
LWPOLYLINE
  5
101131F
330
1F
100
AcDbEntity
  8
P
  6
Continuous
 62
     0
100
AcDbPolyline
 90
        2
 70
     0
 43
0.0
 10
50.24033935123012
 20
274.4631089097129
 10
57.74033935123012
 20
274.5464422430463
  0
LWPOLYLINE
  5
1011320
330
1F
100
AcDbEntity
  8
P
  6
Continuous
 62
     0
100
AcDbPolyline
 90
        2
 70
     0
 43
0.0
 10
212.4070060178968
 20
265.2964422430463
 10
75.24033935123013
 20
265.2964422430463
  0
LWPOLYLINE
  5
1011321
330
1F
100
AcDbEntity
  8
P
  6
Continuous
 62
     0
100
AcDbPolyline
 90
        2
 70
     0
 43
0.0
 10
71.99033935123013
 20
265.2964422430463
 10
28.6570060178968
 20
265.2964422430463
  0
LWPOLYLINE
  5
1011322
330
1F
100
AcDbEntity
  8
P
  6
Continuous
 62
     0
100
AcDbPolyline
 90
        2
 70
     0
 43
0.0
 10
140.8236726845634
 20
263.8797755763795
 10
28.6570060178968
 20
263.8797755763795
  0
LWPOLYLINE
  5
1011323
330
1F
100
AcDbEntity
  8
P
  6
Continuous
 62
     0
100
AcDbPolyline
 90
        2
 70
     0
 43
0.0
 10
259.3236726845635
 20
263.8797755763795
 10
147.2403393512301
 20
263.8797755763795
  0
LWPOLYLINE
  5
1011324
330
1F
100
AcDbEntity
  8
P
  6
Continuous
 62
     0
100
AcDbPolyline
 90
        2
 70
     0
 43
0.0
 10
119.0736726845634
 20
268.0464422430463
 10
81.4070060178968
 20
268.0464422430463
  0
LWPOLYLINE
  5
1011325
330
1F
100
AcDbEntity
  8
P
  6
Continuous
 62
     0
100
AcDbPolyline
 90
        2
 70
     0
 43
0.0
 10
81.4070060178968
 20
268.0464422430463
 10
147.2403393512301
 20
268.0464422430463
  0
LWPOLYLINE
  5
1011326
330
1F
100
AcDbEntity
  8
P
  6
Continuous
 62
     0
100
AcDbPolyline
 90
        2
 70
     0
 43
0.0
 10
81.4070060178968
 20
268.0464422430463
 10
72.07367268456346
 20
263.8797755763795
  0
LWPOLYLINE
  5
1011327
330
1F
100
AcDbEntity
  8
P
  6
Continuous
 62
     0
100
AcDbPolyline
 90
        2
 70
     0
 43
0.0
 10
28.57367268456346
 20
253.2964422430462
 10
38.32367268456346
 20
262.7131089097129
  0
LWPOLYLINE
  5
1011328
330
1F
100
AcDbEntity
  8
P
  6
Continuous
 62
     0
100
AcDbPolyline
 90
        2
 70
     0
 43
0.0
 10
28.57367268456346
 20
229.3797755763796
 10
62.99033935123013
 20
262.7131089097129
  0
LWPOLYLINE
  5
1011329
330
1F
100
AcDbEntity
  8
P
  6
Continuous
 62
     0
100
AcDbPolyline
 90
        2
 70
     0
 43
0.0
 10
29.1570060178968
 20
206.2131089097129
 10
87.74033935123012
 20
262.7131089097129
  0
LWPOLYLINE
  5
101132A
330
1F
100
AcDbEntity
  8
P
  6
Continuous
 62
     0
100
AcDbPolyline
 90
        2
 70
     0
 43
0.0
 10
53.82367268456346
 20
206.2964422430463
 10
112.4070060178968
 20
262.7131089097129
  0
LWPOLYLINE
  5
101132B
330
1F
100
AcDbEntity
  8
P
  6
Continuous
 62
     0
100
AcDbPolyline
 90
        2
 70
     0
 43
0.0
 10
78.57367268456346
 20
206.2131089097129
 10
136.9070060178968
 20
262.7131089097129
  0
LWPOLYLINE
  5
101132C
330
1F
100
AcDbEntity
  8
P
  6
Continuous
 62
     0
100
AcDbPolyline
 90
        2
 70
     0
 43
0.0
 10
103.1570060178968
 20
206.2131089097129
 10
140.7403393512301
 20
242.5464422430462
  0
LWPOLYLINE
  5
101132D
330
1F
100
AcDbEntity
  8
P
  6
Continuous
 62
     0
100
AcDbPolyline
 90
        2
 70
     0
 43
0.0
 10
128.3236726845634
 20
206.3797755763796
 10
140.8236726845634
 20
218.3797755763796
  0
LWPOLYLINE
  5
101132E
330
1F
100
AcDbEntity
  8
P
  6
Continuous
 62
     0
100
AcDbPolyline
 90
        2
 70
     0
 43
0.0
 10
28.57367268456346
 20
241.4631089097129
 10
36.07367268456346
 20
248.5464422430462
  0
LWPOLYLINE
  5
101132F
330
1F
100
AcDbEntity
  8
P
  6
Continuous
 62
     0
100
AcDbPolyline
 90
        2
 70
     0
 43
0.0
 10
39.24033935123013
 20
251.7964422430463
 10
48.57367268456346
 20
260.6297755763795
  0
LWPOLYLINE
  5
1011330
330
1F
100
AcDbEntity
  8
P
  6
Continuous
 62
     0
100
AcDbPolyline
 90
        2
 70
     0
 43
0.0
 10
28.57367268456346
 20
217.6297755763795
 10
36.07367268456346
 20
224.7131089097129
  0
LWPOLYLINE
  5
1011331
330
1F
100
AcDbEntity
  8
P
  6
Continuous
 62
     0
100
AcDbPolyline
 90
        2
 70
     0
 43
0.0
 10
39.24033935123013
 20
227.6297755763796
 10
48.57367268456346
 20
236.7964422430462
  0
LWPOLYLINE
  5
1011332
330
1F
100
AcDbEntity
  8
P
  6
Continuous
 62
     0
100
AcDbPolyline
 90
        2
 70
     0
 43
0.0
 10
51.57367268456346
 20
239.7131089097129
 10
60.82367268456346
 20
248.5464422430462
  0
LWPOLYLINE
  5
1011333
330
1F
100
AcDbEntity
  8
P
  6
Continuous
 62
     0
100
AcDbPolyline
 90
        2
 70
     0
 43
0.0
 10
63.9070060178968
 20
251.7964422430463
 10
73.15700601789679
 20
260.6297755763795
  0
LWPOLYLINE
  5
1011334
330
1F
100
AcDbEntity
  8
P
  6
Continuous
 62
     0
100
AcDbPolyline
 90
        2
 70
     0
 43
0.0
 10
41.4070060178968
 20
206.2131089097129
 10
48.57367268456346
 20
212.9631089097129
  0
LWPOLYLINE
  5
1011335
330
1F
100
AcDbEntity
  8
P
  6
Continuous
 62
     0
100
AcDbPolyline
 90
        2
 70
     0
 43
0.0
 10
51.57367268456346
 20
215.8797755763796
 10
60.82367268456346
 20
224.7131089097129
  0
LWPOLYLINE
  5
1011336
330
1F
100
AcDbEntity
  8
P
  6
Continuous
 62
     0
100
AcDbPolyline
 90
        2
 70
     0
 43
0.0
 10
63.9070060178968
 20
227.6297755763796
 10
73.15700601789679
 20
236.7964422430462
  0
LWPOLYLINE
  5
1011337
330
1F
100
AcDbEntity
  8
P
  6
Continuous
 62
     0
100
AcDbPolyline
 90
        2
 70
     0
 43
0.0
 10
76.24033935123013
 20
239.7131089097129
 10
85.49033935123013
 20
248.5464422430462
  0
LWPOLYLINE
  5
1011338
330
1F
100
AcDbEntity
  8
P
  6
Continuous
 62
     0
100
AcDbPolyline
 90
        2
 70
     0
 43
0.0
 10
88.49033935123014
 20
251.7964422430463
 10
97.82367268456347
 20
260.6297755763795
  0
LWPOLYLINE
  5
1011339
330
1F
100
AcDbEntity
  8
P
  6
Continuous
 62
     0
100
AcDbPolyline
 90
        2
 70
     0
 43
0.0
 10
66.15700601789679
 20
206.3797755763796
 10
73.15700601789679
 20
212.9631089097129
  0
LWPOLYLINE
  5
101133A
330
1F
100
AcDbEntity
  8
P
  6
Continuous
 62
     0
100
AcDbPolyline
 90
        2
 70
     0
 43
0.0
 10
76.24033935123013
 20
215.8797755763796
 10
85.49033935123013
 20
224.7131089097129
  0
LWPOLYLINE
  5
101133B
330
1F
100
AcDbEntity
  8
P
  6
Continuous
 62
     0
100
AcDbPolyline
 90
        2
 70
     0
 43
0.0
 10
88.49033935123014
 20
227.6297755763796
 10
97.82367268456347
 20
236.7964422430462
  0
LWPOLYLINE
  5
101133C
330
1F
100
AcDbEntity
  8
P
  6
Continuous
 62
     0
100
AcDbPolyline
 90
        2
 70
     0
 43
0.0
 10
100.8236726845634
 20
239.7131089097129
 10
110.1570060178968
 20
248.5464422430462
  0
LWPOLYLINE
  5
101133D
330
1F
100
AcDbEntity
  8
P
  6
Continuous
 62
     0
100
AcDbPolyline
 90
        2
 70
     0
 43
0.0
 10
113.1570060178968
 20
251.7964422430463
 10
122.4070060178968
 20
260.6297755763795
  0
LWPOLYLINE
  5
101133E
330
1F
100
AcDbEntity
  8
P
  6
Continuous
 62
     0
100
AcDbPolyline
 90
        2
 70
     0
 43
0.0
 10
90.99033935123014
 20
206.3797755763796
 10
97.82367268456347
 20
212.9631089097129
  0
LWPOLYLINE
  5
101133F
330
1F
100
AcDbEntity
  8
P
  6
Continuous
 62
     0
100
AcDbPolyline
 90
        2
 70
     0
 43
0.0
 10
100.8236726845634
 20
215.8797755763796
 10
110.1570060178968
 20
224.7131089097129
  0
LWPOLYLINE
  5
1011340
330
1F
100
AcDbEntity
  8
P
  6
Continuous
 62
     0
100
AcDbPolyline
 90
        2
 70
     0
 43
0.0
 10
113.1570060178968
 20
227.6297755763796
 10
122.4070060178968
 20
236.7964422430462
  0
LWPOLYLINE
  5
1011341
330
1F
100
AcDbEntity
  8
P
  6
Continuous
 62
     0
100
AcDbPolyline
 90
        2
 70
     0
 43
0.0
 10
125.4903393512301
 20
239.7131089097129
 10
134.8236726845634
 20
248.5464422430462
  0
LWPOLYLINE
  5
1011342
330
1F
100
AcDbEntity
  8
P
  6
Continuous
 62
     0
100
AcDbPolyline
 90
        2
 70
     0
 43
0.0
 10
115.6570060178968
 20
206.3797755763796
 10
122.4070060178968
 20
212.9631089097129
  0
LWPOLYLINE
  5
1011343
330
1F
100
AcDbEntity
  8
P
  6
Continuous
 62
     0
100
AcDbPolyline
 90
        2
 70
     0
 43
0.0
 10
125.4903393512301
 20
215.8797755763796
 10
134.4903393512301
 20
224.3797755763796
  0
LWPOLYLINE
  5
1011344
330
1F
100
AcDbEntity
  8
P
  6
Continuous
 62
     0
100
AcDbPolyline
 90
        2
 70
     0
 43
0.0
 10
71.99033935123013
 20
265.2964422430463
 10
81.07367268456346
 20
269.2964422430463
  0
LWPOLYLINE
  5
1011345
330
1F
100
AcDbEntity
  8
P
  6
Continuous
 62
     0
100
AcDbPolyline
 90
        2
 70
     0
 43
0.0
 10
81.07367268456346
 20
269.2964422430463
 10
140.7403393512301
 20
269.2964422430463
  0
LWPOLYLINE
  5
1011346
330
1F
100
AcDbEntity
  8
P
  6
DASHDOT
 62
     0
100
AcDbPolyline
 90
        2
 70
     0
 43
0.0
 10
150.8236726845634
 20
269.2964422430463
 10
156.9903393512301
 20
275.0464422430463
  0
LWPOLYLINE
  5
1011347
330
1F
100
AcDbEntity
  8
P
  6
DASHDOT
 62
     0
100
AcDbPolyline
 90
        2
 70
     0
 43
0.0
 10
155.3236726845634
 20
269.2964422430463
 10
161.4070060178968
 20
275.0464422430463
  0
LWPOLYLINE
  5
1011348
330
1F
100
AcDbEntity
  8
P
  6
DASHDOT
 62
     0
100
AcDbPolyline
 90
        2
 70
     0
 43
0.0
 10
159.8236726845634
 20
269.2964422430463
 10
165.6570060178968
 20
275.0464422430463
  0
LWPOLYLINE
  5
1011349
330
1F
100
AcDbEntity
  8
P
  6
DASHDOT
 62
     0
100
AcDbPolyline
 90
        2
 70
     0
 43
0.0
 10
164.2403393512301
 20
269.2964422430463
 10
170.0736726845634
 20
275.0464422430463
  0
LWPOLYLINE
  5
101134A
330
1F
100
AcDbEntity
  8
P
  6
DASHDOT
 62
     0
100
AcDbPolyline
 90
        2
 70
     0
 43
0.0
 10
168.6570060178968
 20
269.2964422430463
 10
174.4903393512301
 20
275.0464422430463
  0
LWPOLYLINE
  5
101134B
330
1F
100
AcDbEntity
  8
P
  6
DASHDOT
 62
     0
100
AcDbPolyline
 90
        2
 70
     0
 43
0.0
 10
173.0736726845634
 20
269.2964422430463
 10
178.8236726845634
 20
275.0464422430463
  0
LWPOLYLINE
  5
101134C
330
1F
100
AcDbEntity
  8
P
  6
DASHDOT
 62
     0
100
AcDbPolyline
 90
        2
 70
     0
 43
0.0
 10
177.4903393512301
 20
269.2964422430463
 10
183.1570060178968
 20
275.0464422430463
  0
LWPOLYLINE
  5
101134D
330
1F
100
AcDbEntity
  8
P
  6
DASHDOT
 62
     0
100
AcDbPolyline
 90
        2
 70
     0
 43
0.0
 10
181.9070060178968
 20
269.2964422430463
 10
187.4903393512301
 20
274.7964422430463
  0
LWPOLYLINE
  5
101134E
330
1F
100
AcDbEntity
  8
P
  6
DASHDOT
 62
     0
100
AcDbPolyline
 90
        2
 70
     0
 43
0.0
 10
186.3236726845634
 20
269.2964422430463
 10
191.9070060178968
 20
274.7964422430463
  0
LWPOLYLINE
  5
101134F
330
1F
100
AcDbEntity
  8
P
  6
DASHDOT
 62
     0
100
AcDbPolyline
 90
        2
 70
     0
 43
0.0
 10
190.7403393512301
 20
269.2964422430463
 10
196.1570060178968
 20
274.7964422430463
  0
LWPOLYLINE
  5
1011350
330
1F
100
AcDbEntity
  8
P
  6
DASHDOT
 62
     0
100
AcDbPolyline
 90
        2
 70
     0
 43
0.0
 10
195.1570060178968
 20
269.2964422430463
 10
200.5736726845634
 20
274.7964422430463
  0
LWPOLYLINE
  5
1011351
330
1F
100
AcDbEntity
  8
P
  6
DASHDOT
 62
     0
100
AcDbPolyline
 90
        2
 70
     0
 43
0.0
 10
199.5736726845635
 20
269.2964422430463
 10
204.9903393512301
 20
274.7964422430463
  0
LWPOLYLINE
  5
1011352
330
1F
100
AcDbEntity
  8
P
  6
DASHDOT
 62
     0
100
AcDbPolyline
 90
        2
 70
     0
 43
0.0
 10
203.9903393512301
 20
269.2964422430463
 10
209.4070060178968
 20
274.7964422430463
  0
LWPOLYLINE
  5
1011353
330
1F
100
AcDbEntity
  8
P
  6
DASHDOT
 62
     0
100
AcDbPolyline
 90
        2
 70
     0
 43
0.0
 10
207.9903393512301
 20
268.7964422430463
 10
213.6570060178968
 20
274.7964422430463
  0
LWPOLYLINE
  5
1011354
330
1F
100
AcDbEntity
  8
P
  6
DASHDOT
 62
     0
100
AcDbPolyline
 90
        2
 70
     0
 43
0.0
 10
210.9903393512301
 20
267.4631089097129
 10
218.0736726845635
 20
274.7964422430463
  0
LWPOLYLINE
  5
1011355
330
1F
100
AcDbEntity
  8
P
  6
DASHDOT
 62
     0
100
AcDbPolyline
 90
        2
 70
     0
 43
0.0
 10
213.9903393512301
 20
266.2964422430463
 10
222.4903393512301
 20
274.4631089097129
  0
LWPOLYLINE
  5
1011356
330
1F
100
AcDbEntity
  8
P
  6
DASHDOT
 62
     0
100
AcDbPolyline
 90
        2
 70
     0
 43
0.0
 10
217.4903393512301
 20
265.3797755763795
 10
226.7403393512301
 20
274.4631089097129
  0
LWPOLYLINE
  5
1011357
330
1F
100
AcDbEntity
  8
P
  6
DASHDOT
 62
     0
100
AcDbPolyline
 90
        2
 70
     0
 43
0.0
 10
221.9070060178968
 20
265.3797755763795
 10
231.1570060178968
 20
274.4631089097129
  0
LWPOLYLINE
  5
1011358
330
1F
100
AcDbEntity
  8
P
  6
DASHDOT
 62
     0
100
AcDbPolyline
 90
        2
 70
     0
 43
0.0
 10
226.3236726845635
 20
265.3797755763795
 10
235.5736726845635
 20
274.4631089097129
  0
LWPOLYLINE
  5
1011359
330
1F
100
AcDbEntity
  8
P
  6
DASHDOT
 62
     0
100
AcDbPolyline
 90
        2
 70
     0
 43
0.0
 10
230.7403393512301
 20
265.3797755763795
 10
239.9903393512301
 20
274.4631089097129
  0
LWPOLYLINE
  5
101135A
330
1F
100
AcDbEntity
  8
P
  6
DASHDOT
 62
     0
100
AcDbPolyline
 90
        2
 70
     0
 43
0.0
 10
235.1570060178968
 20
265.3797755763795
 10
244.2403393512301
 20
274.4631089097129
  0
LWPOLYLINE
  5
101135B
330
1F
100
AcDbEntity
  8
P
  6
DASHDOT
 62
     0
100
AcDbPolyline
 90
        2
 70
     0
 43
0.0
 10
239.5736726845635
 20
265.3797755763795
 10
248.6570060178968
 20
274.4631089097129
  0
LWPOLYLINE
  5
101135C
330
1F
100
AcDbEntity
  8
P
  6
DASHDOT
 62
     0
100
AcDbPolyline
 90
        2
 70
     0
 43
0.0
 10
243.9903393512301
 20
265.3797755763795
 10
253.0736726845635
 20
274.4631089097129
  0
LWPOLYLINE
  5
101135D
330
1F
100
AcDbEntity
  8
P
  6
DASHDOT
 62
     0
100
AcDbPolyline
 90
        2
 70
     0
 43
0.0
 10
248.3236726845635
 20
265.3797755763795
 10
257.3236726845635
 20
274.1297755763795
  0
LWPOLYLINE
  5
101135E
330
1F
100
AcDbEntity
  8
P
  6
DASHDOT
 62
     0
100
AcDbPolyline
 90
        2
 70
     0
 43
0.0
 10
252.7403393512301
 20
265.3797755763795
 10
259.3236726845635
 20
271.7131089097129
  0
LWPOLYLINE
  5
101135F
330
1F
100
AcDbEntity
  8
P
  6
DASHDOT
 62
     0
100
AcDbPolyline
 90
        2
 70
     0
 43
0.0
 10
257.1570060178968
 20
265.3797755763795
 10
259.3236726845635
 20
267.4631089097129
  0
LWPOLYLINE
  5
1011360
330
1F
100
AcDbEntity
  8
P
  6
Continuous
 62
     0
100
AcDbPolyline
 90
        2
 70
     0
 43
0.0
 10
43.4070060178968
 20
302.5464422430462
 10
43.4070060178968
 20
247.0464422430462
  0
MTEXT
  5
1011361
330
1F
100
AcDbEntity
  8
Text
  6
Continuous
 62
     0
100
AcDbMText
 10
42.40700601789679
 20
307.2964422430462
 30
0.0
 40
3.25
 41
3.5
 46
0.0
 71
     4
 72
     5
  1
{\fHelveticaNeueLTPro|b0|i0|c1|p15;1}
 73
     2
 44
1.0
  0
LWPOLYLINE
  5
1011362
330
1F
100
AcDbEntity
  8
P
  6
Continuous
 62
     0
100
AcDbPolyline
 90
        2
 70
     0
 43
0.0
 10
61.90700601789679
 20
302.5464422430462
 10
61.90700601789679
 20
263.3797755763795
  0
MTEXT
  5
1011363
330
1F
100
AcDbEntity
  8
Text
  6
Continuous
 62
     0
100
AcDbMText
 10
60.9070060178968
 20
307.2131089097129
 30
0.0
 40
3.25
 41
3.5
 46
0.0
 71
     4
 72
     5
  1
{\fHelveticaNeueLTPro|b0|i0|c1|p15;2}
 73
     2
 44
1.0
  0
LWPOLYLINE
  5
1011364
330
1F
100
AcDbEntity
  8
P
  6
Continuous
 62
     0
100
AcDbPolyline
 90
        2
 70
     0
 43
0.0
 10
71.24033935123013
 20
302.5464422430462
 10
71.24033935123013
 20
264.5464422430463
  0
MTEXT
  5
1011365
330
1F
100
AcDbEntity
  8
Text
  6
Continuous
 62
     0
100
AcDbMText
 10
70.24033935123013
 20
307.2131089097129
 30
0.0
 40
3.25
 41
3.5
 46
0.0
 71
     4
 72
     5
  1
{\fHelveticaNeueLTPro|b0|i0|c1|p15;3}
 73
     2
 44
1.0
  0
LWPOLYLINE
  5
1011366
330
1F
100
AcDbEntity
  8
P
  6
Continuous
 62
     0
100
AcDbPolyline
 90
        2
 70
     0
 43
0.0
 10
80.24033935123012
 20
302.5464422430462
 10
80.24033935123012
 20
270.7964422430463
  0
MTEXT
  5
1011367
330
1F
100
AcDbEntity
  8
Text
  6
Continuous
 62
     0
100
AcDbMText
 10
79.24033935123013
 20
307.2131089097129
 30
0.0
 40
3.25
 41
3.5
 46
0.0
 71
     4
 72
     5
  1
{\fHelveticaNeueLTPro|b0|i0|c1|p15;4}
 73
     2
 44
1.0
  0
LWPOLYLINE
  5
1011368
330
1F
100
AcDbEntity
  8
P
  6
Continuous
 62
     0
100
AcDbPolyline
 90
        2
 70
     0
 43
0.0
 10
89.40700601789679
 20
302.5464422430462
 10
89.40700601789679
 20
280.5464422430463
  0
MTEXT
  5
1011369
330
1F
100
AcDbEntity
  8
Text
  6
Continuous
 62
     0
100
AcDbMText
 10
88.40700601789679
 20
307.2131089097129
 30
0.0
 40
3.25
 41
3.5
 46
0.0
 71
     4
 72
     5
  1
{\fHelveticaNeueLTPro|b0|i0|c1|p15;5}
 73
     2
 44
1.0
  0
LWPOLYLINE
  5
101136A
330
1F
100
AcDbEntity
  8
P
  6
Continuous
 62
     0
100
AcDbPolyline
 90
        2
 70
     0
 43
0.0
 10
169.5736726845634
 20
302.4631089097129
 10
169.5736726845634
 20
266.4631089097129
  0
MTEXT
  5
101136B
330
1F
100
AcDbEntity
  8
Text
  6
Continuous
 62
     0
100
AcDbMText
 10
168.5736726845634
 20
307.1297755763796
 30
0.0
 40
3.25
 41
3.5
 46
0.0
 71
     4
 72
     5
  1
{\fHelveticaNeueLTPro|b0|i0|c1|p15;7}
 73
     2
 44
1.0
  0
LWPOLYLINE
  5
101136C
330
1F
100
AcDbEntity
  8
P
  6
Continuous
 62
     0
100
AcDbPolyline
 90
        2
 70
     0
 43
0.0
 10
233.5736726845635
 20
302.4631089097129
 10
233.5736726845635
 20
277.7964422430463
  0
HATCH
  5
101136D
330
1F
100
AcDbEntity
  8
H
  6
Continuous
 62
     0
100
AcDbHatch
 10
0.0
 20
0.0
 30
0.0
210
0.0
220
0.0
230
1.0
  2
SOLID
 70
     1
 71
     0
 91
        1
 92
        1
 93
        4
 72
     1
 10
42.90700601789679
 20
246.5464422430462
 11
43.9070060178968
 21
246.5464422430462
 72
     1
 10
43.9070060178968
 20
246.5464422430462
 11
43.9070060178968
 21
247.5464422430462
 72
     1
 10
43.9070060178968
 20
247.5464422430462
 11
42.90700601789679
 21
247.5464422430462
 72
     1
 10
42.90700601789679
 20
247.5464422430462
 11
42.90700601789679
 21
246.5464422430462
 97
        0
 75
     0
 76
     1
 98
        0
450
        0
451
        0
460
0.0
461
0.0
452
        1
462
0.0
453
        0
470

  0
HATCH
  5
101136E
330
1F
100
AcDbEntity
  8
H
  6
Continuous
 62
     0
100
AcDbHatch
 10
0.0
 20
0.0
 30
0.0
210
0.0
220
0.0
230
1.0
  2
SOLID
 70
     1
 71
     0
 91
        1
 92
        1
 93
        4
 72
     1
 10
61.4070060178968
 20
262.7964422430463
 11
62.40700601789679
 21
262.7964422430463
 72
     1
 10
62.40700601789679
 20
262.7964422430463
 11
62.40700601789679
 21
263.7964422430463
 72
     1
 10
62.40700601789679
 20
263.7964422430463
 11
61.4070060178968
 21
263.7964422430463
 72
     1
 10
61.4070060178968
 20
263.7964422430463
 11
61.4070060178968
 21
262.7964422430463
 97
        0
 75
     0
 76
     1
 98
        0
450
        0
451
        0
460
0.0
461
0.0
452
        1
462
0.0
453
        0
470

  0
HATCH
  5
101136F
330
1F
100
AcDbEntity
  8
H
  6
Continuous
 62
     0
100
AcDbHatch
 10
0.0
 20
0.0
 30
0.0
210
0.0
220
0.0
230
1.0
  2
SOLID
 70
     1
 71
     0
 91
        1
 92
        1
 93
        4
 72
     1
 10
70.74033935123013
 20
264.0464422430463
 11
71.74033935123013
 21
264.0464422430463
 72
     1
 10
71.74033935123013
 20
264.0464422430463
 11
71.74033935123013
 21
265.0464422430463
 72
     1
 10
71.74033935123013
 20
265.0464422430463
 11
70.74033935123013
 21
265.0464422430463
 72
     1
 10
70.74033935123013
 20
265.0464422430463
 11
70.74033935123013
 21
264.0464422430463
 97
        0
 75
     0
 76
     1
 98
        0
450
        0
451
        0
460
0.0
461
0.0
452
        1
462
0.0
453
        0
470

  0
HATCH
  5
1011370
330
1F
100
AcDbEntity
  8
H
  6
Continuous
 62
     0
100
AcDbHatch
 10
0.0
 20
0.0
 30
0.0
210
0.0
220
0.0
230
1.0
  2
SOLID
 70
     1
 71
     0
 91
        1
 92
        1
 93
        4
 72
     1
 10
79.74033935123014
 20
270.2964422430463
 11
80.74033935123013
 21
270.2964422430463
 72
     1
 10
80.74033935123013
 20
270.2964422430463
 11
80.74033935123013
 21
271.2964422430463
 72
     1
 10
80.74033935123013
 20
271.2964422430463
 11
79.74033935123014
 21
271.2964422430463
 72
     1
 10
79.74033935123014
 20
271.2964422430463
 11
79.74033935123014
 21
270.2964422430463
 97
        0
 75
     0
 76
     1
 98
        0
450
        0
451
        0
460
0.0
461
0.0
452
        1
462
0.0
453
        0
470

  0
HATCH
  5
1011371
330
1F
100
AcDbEntity
  8
H
  6
Continuous
 62
     0
100
AcDbHatch
 10
0.0
 20
0.0
 30
0.0
210
0.0
220
0.0
230
1.0
  2
SOLID
 70
     1
 71
     0
 91
        1
 92
        1
 93
        4
 72
     1
 10
88.9070060178968
 20
280.0464422430463
 11
89.90700601789679
 21
280.0464422430463
 72
     1
 10
89.90700601789679
 20
280.0464422430463
 11
89.90700601789679
 21
281.0464422430463
 72
     1
 10
89.90700601789679
 20
281.0464422430463
 11
88.9070060178968
 21
281.0464422430463
 72
     1
 10
88.9070060178968
 20
281.0464422430463
 11
88.9070060178968
 21
280.0464422430463
 97
        0
 75
     0
 76
     1
 98
        0
450
        0
451
        0
460
0.0
461
0.0
452
        1
462
0.0
453
        0
470

  0
HATCH
  5
1011372
330
1F
100
AcDbEntity
  8
H
  6
Continuous
 62
     0
100
AcDbHatch
 10
0.0
 20
0.0
 30
0.0
210
0.0
220
0.0
230
1.0
  2
SOLID
 70
     1
 71
     0
 91
        1
 92
        1
 93
        4
 72
     1
 10
169.0736726845634
 20
266.1297755763795
 11
170.0736726845634
 21
266.1297755763795
 72
     1
 10
170.0736726845634
 20
266.1297755763795
 11
170.0736726845634
 21
267.0464422430463
 72
     1
 10
170.0736726845634
 20
267.0464422430463
 11
169.0736726845634
 21
267.0464422430463
 72
     1
 10
169.0736726845634
 20
267.0464422430463
 11
169.0736726845634
 21
266.1297755763795
 97
        0
 75
     0
 76
     1
 98
        0
450
        0
451
        0
460
0.0
461
0.0
452
        1
462
0.0
453
        0
470

  0
LWPOLYLINE
  5
1011373
330
1F
100
AcDbEntity
  8
P
  6
Continuous
 62
     0
100
AcDbPolyline
 90
        2
 70
     0
 43
0.0
 10
152.0736726845634
 20
302.4631089097129
 10
152.0736726845634
 20
272.7964422430463
  0
MTEXT
  5
1011374
330
1F
100
AcDbEntity
  8
Text
  6
Continuous
 62
     0
100
AcDbMText
 10
151.0736726845634
 20
307.2131089097129
 30
0.0
 40
3.25
 41
3.5
 46
0.0
 71
     4
 72
     5
  1
{\fHelveticaNeueLTPro|b0|i0|c1|p15;8}
 73
     2
 44
1.0
  0
HATCH
  5
1011375
330
1F
100
AcDbEntity
  8
H
  6
Continuous
 62
     0
100
AcDbHatch
 10
0.0
 20
0.0
 30
0.0
210
0.0
220
0.0
230
1.0
  2
SOLID
 70
     1
 71
     0
 91
        1
 92
        1
 93
        4
 72
     1
 10
233.0736726845635
 20
277.2964422430463
 11
234.0736726845634
 21
277.2964422430463
 72
     1
 10
234.0736726845634
 20
277.2964422430463
 11
234.0736726845634
 21
278.2964422430463
 72
     1
 10
234.0736726845634
 20
278.2964422430463
 11
233.0736726845635
 21
278.2964422430463
 72
     1
 10
233.0736726845635
 20
278.2964422430463
 11
233.0736726845635
 21
277.2964422430463
 97
        0
 75
     0
 76
     1
 98
        0
450
        0
451
        0
460
0.0
461
0.0
452
        1
462
0.0
453
        0
470

  0
MTEXT
  5
1011376
330
1F
100
AcDbEntity
  8
Text
  6
Continuous
 62
     0
100
AcDbMText
 10
232.5736726845635
 20
307.1297755763796
 30
0.0
 40
3.25
 41
3.5
 46
0.0
 71
     4
 72
     5
  1
{\fHelveticaNeueLTPro|b0|i0|c1|p15;6}
 73
     2
 44
1.0
  0
LWPOLYLINE
  5
1011377
330
1F
100
AcDbEntity
  8
P
  6
Continuous
 62
     0
100
AcDbPolyline
 90
        2
 70
     0
 43
0.0
 10
259.2403393512301
 20
262.7131089097129
 10
28.57367268456346
 20
262.7131089097129
  0
LWPOLYLINE
  5
1011378
330
1F
100
AcDbEntity
  8
P
  6
DASHDOT
 62
     0
100
AcDbPolyline
 90
        2
 70
     0
 43
0.0
 10
28.57367268456346
 20
270.2131089097129
 10
32.57367268456346
 20
274.2964422430463
  0
LWPOLYLINE
  5
1011379
330
1F
100
AcDbEntity
  8
P
  6
DASHDOT
 62
     0
100
AcDbPolyline
 90
        2
 70
     0
 43
0.0
 10
28.57367268456346
 20
265.9631089097129
 10
37.24033935123013
 20
274.4631089097129
  0
LWPOLYLINE
  5
101137A
330
1F
100
AcDbEntity
  8
P
  6
DASHDOT
 62
     0
100
AcDbPolyline
 90
        2
 70
     0
 43
0.0
 10
32.57367268456346
 20
265.3797755763795
 10
41.65700601789679
 20
274.4631089097129
  0
LWPOLYLINE
  5
101137B
330
1F
100
AcDbEntity
  8
P
  6
DASHDOT
 62
     0
100
AcDbPolyline
 90
        2
 70
     0
 43
0.0
 10
36.99033935123013
 20
265.3797755763795
 10
46.07367268456346
 20
274.4631089097129
  0
LWPOLYLINE
  5
101137C
330
1F
100
AcDbEntity
  8
P
  6
DASHDOT
 62
     0
100
AcDbPolyline
 90
        2
 70
     0
 43
0.0
 10
41.4070060178968
 20
265.3797755763795
 10
50.49033935123013
 20
274.4631089097129
  0
LWPOLYLINE
  5
101137D
330
1F
100
AcDbEntity
  8
P
  6
DASHDOT
 62
     0
100
AcDbPolyline
 90
        2
 70
     0
 43
0.0
 10
45.82367268456346
 20
265.3797755763795
 10
54.90700601789679
 20
274.4631089097129
  0
LWPOLYLINE
  5
101137E
330
1F
100
AcDbEntity
  8
P
  6
DASHDOT
 62
     0
100
AcDbPolyline
 90
        2
 70
     0
 43
0.0
 10
50.24033935123012
 20
265.3797755763795
 10
59.49033935123012
 20
274.4631089097129
  0
LWPOLYLINE
  5
101137F
330
1F
100
AcDbEntity
  8
P
  6
DASHDOT
 62
     0
100
AcDbPolyline
 90
        2
 70
     0
 43
0.0
 10
54.57367268456346
 20
265.3797755763795
 10
63.9070060178968
 20
274.4631089097129
  0
LWPOLYLINE
  5
1011380
330
1F
100
AcDbEntity
  8
P
  6
DASHDOT
 62
     0
100
AcDbPolyline
 90
        2
 70
     0
 43
0.0
 10
58.99033935123012
 20
265.3797755763795
 10
68.32367268456346
 20
274.7964422430463
  0
LWPOLYLINE
  5
1011381
330
1F
100
AcDbEntity
  8
P
  6
DASHDOT
 62
     0
100
AcDbPolyline
 90
        2
 70
     0
 43
0.0
 10
63.4070060178968
 20
265.3797755763795
 10
72.74033935123013
 20
274.7964422430463
  0
LWPOLYLINE
  5
1011382
330
1F
100
AcDbEntity
  8
P
  6
DASHDOT
 62
     0
100
AcDbPolyline
 90
        2
 70
     0
 43
0.0
 10
67.82367268456346
 20
265.3797755763795
 10
77.24033935123014
 20
274.7964422430463
  0
LWPOLYLINE
  5
1011383
330
1F
100
AcDbEntity
  8
P
  6
DASHDOT
 62
     0
100
AcDbPolyline
 90
        2
 70
     0
 43
0.0
 10
72.40700601789679
 20
265.5464422430463
 10
81.65700601789678
 20
274.7964422430463
  0
LWPOLYLINE
  5
1011384
330
1F
100
AcDbEntity
  8
P
  6
DASHDOT
 62
     0
100
AcDbPolyline
 90
        2
 70
     0
 43
0.0
 10
80.40700601789678
 20
268.9631089097129
 10
86.07367268456346
 20
274.7964422430463
  0
LWPOLYLINE
  5
1011385
330
1F
100
AcDbEntity
  8
P
  6
DASHDOT
 62
     0
100
AcDbPolyline
 90
        2
 70
     0
 43
0.0
 10
84.99033935123014
 20
269.2964422430463
 10
90.49033935123013
 20
274.7964422430463
  0
LWPOLYLINE
  5
1011386
330
1F
100
AcDbEntity
  8
P
  6
DASHDOT
 62
     0
100
AcDbPolyline
 90
        2
 70
     0
 43
0.0
 10
89.32367268456346
 20
269.2964422430463
 10
94.90700601789679
 20
274.7964422430463
  0
LWPOLYLINE
  5
1011387
330
1F
100
AcDbEntity
  8
P
  6
DASHDOT
 62
     0
100
AcDbPolyline
 90
        2
 70
     0
 43
0.0
 10
93.74033935123014
 20
269.2964422430463
 10
99.49033935123013
 20
274.7964422430463
  0
LWPOLYLINE
  5
1011388
330
1F
100
AcDbEntity
  8
P
  6
DASHDOT
 62
     0
100
AcDbPolyline
 90
        2
 70
     0
 43
0.0
 10
98.07367268456346
 20
269.2964422430463
 10
103.9070060178968
 20
275.0464422430463
  0
LWPOLYLINE
  5
1011389
330
1F
100
AcDbEntity
  8
P
  6
DASHDOT
 62
     0
100
AcDbPolyline
 90
        2
 70
     0
 43
0.0
 10
102.4903393512301
 20
269.2964422430463
 10
108.3236726845634
 20
275.0464422430463
  0
LWPOLYLINE
  5
101138A
330
1F
100
AcDbEntity
  8
P
  6
DASHDOT
 62
     0
100
AcDbPolyline
 90
        2
 70
     0
 43
0.0
 10
106.9070060178968
 20
269.2964422430463
 10
112.7403393512301
 20
275.0464422430463
  0
LWPOLYLINE
  5
101138B
330
1F
100
AcDbEntity
  8
P
  6
DASHDOT
 62
     0
100
AcDbPolyline
 90
        2
 70
     0
 43
0.0
 10
111.3236726845634
 20
269.2964422430463
 10
117.2403393512301
 20
275.0464422430463
  0
LWPOLYLINE
  5
101138C
330
1F
100
AcDbEntity
  8
P
  6
DASHDOT
 62
     0
100
AcDbPolyline
 90
        2
 70
     0
 43
0.0
 10
115.7403393512301
 20
269.2964422430463
 10
121.6570060178968
 20
275.0464422430463
  0
LWPOLYLINE
  5
101138D
330
1F
100
AcDbEntity
  8
P
  6
DASHDOT
 62
     0
100
AcDbPolyline
 90
        2
 70
     0
 43
0.0
 10
120.1570060178968
 20
269.2964422430463
 10
126.0736726845634
 20
275.0464422430463
  0
LWPOLYLINE
  5
101138E
330
1F
100
AcDbEntity
  8
P
  6
DASHDOT
 62
     0
100
AcDbPolyline
 90
        2
 70
     0
 43
0.0
 10
124.7403393512301
 20
269.2964422430463
 10
130.4903393512301
 20
275.0464422430463
  0
LWPOLYLINE
  5
101138F
330
1F
100
AcDbEntity
  8
P
  6
DASHDOT
 62
     0
100
AcDbPolyline
 90
        2
 70
     0
 43
0.0
 10
128.9903393512301
 20
269.2964422430463
 10
134.9070060178968
 20
275.2131089097129
  0
LWPOLYLINE
  5
1011390
330
1F
100
AcDbEntity
  8
P
  6
DASHDOT
 62
     0
100
AcDbPolyline
 90
        2
 70
     0
 43
0.0
 10
133.3236726845634
 20
269.2964422430463
 10
139.4903393512301
 20
275.2964422430463
  0
LWPOLYLINE
  5
1011391
330
1F
100
AcDbEntity
  8
P
  6
Continuous
 62
     0
100
AcDbPolyline
 90
        2
 70
     0
 43
0.0
 10
147.2403393512301
 20
265.2964422430463
 10
147.2403393512301
 20
206.2131089097129
  0
LWPOLYLINE
  5
1011392
330
1F
100
AcDbEntity
  8
P
  6
Continuous
 62
     0
100
AcDbPolyline
 90
        2
 70
     0
 43
0.0
 10
140.8236726845634
 20
265.2964422430463
 10
140.8236726845634
 20
206.2131089097129
  0
LWPOLYLINE
  5
1011393
330
1F
100
AcDbEntity
  8
P
  6
Continuous
 62
     0
100
AcDbPolyline
 90
       65
 70
     0
 43
0.0
 10
147.2403393512301
 20
275.1297755763795
 10
147.2403393512301
 20
275.6297755763795
 10
147.1570060178968
 20
276.0464422430463
 10
147.0736726845634
 20
276.4631089097129
 10
146.9903393512301
 20
276.9631089097129
 10
146.8236726845634
 20
277.2964422430463
 10
146.6570060178968
 20
277.7131089097129
 10
146.4903393512301
 20
278.0464422430463
 10
146.3236726845634
 20
278.3797755763795
 10
146.0736726845634
 20
278.6297755763795
 10
145.8236726845634
 20
278.9631089097129
 10
145.5736726845634
 20
279.1297755763795
 10
145.2403393512301
 20
279.3797755763795
 10
144.9903393512301
 20
279.5464422430463
 10
144.6570060178968
 20
279.6297755763795
 10
144.3236726845634
 20
279.7131089097129
 10
143.9903393512301
 20
279.7131089097129
 10
143.6570060178968
 20
279.7131089097129
 10
143.4070060178968
 20
279.6297755763795
 10
143.0736726845634
 20
279.5464422430463
 10
142.7403393512301
 20
279.3797755763795
 10
142.4903393512301
 20
279.1297755763795
 10
142.2403393512301
 20
278.9631089097129
 10
141.9903393512301
 20
278.6297755763795
 10
141.7403393512301
 20
278.3797755763795
 10
141.4903393512301
 20
278.0464422430463
 10
141.3236726845634
 20
277.7131089097129
 10
141.1570060178968
 20
277.2964422430463
 10
141.0736726845634
 20
276.9631089097129
 10
140.9070060178968
 20
276.4631089097129
 10
140.8236726845634
 20
276.0464422430463
 10
140.8236726845634
 20
275.6297755763795
 10
140.8236726845634
 20
275.1297755763795
 10
140.8236726845634
 20
274.7131089097129
 10
140.8236726845634
 20
274.2131089097129
 10
140.9070060178968
 20
273.7964422430463
 10
141.0736726845634
 20
273.3797755763795
 10
141.1570060178968
 20
272.9631089097129
 10
141.3236726845634
 20
272.6297755763795
 10
141.4903393512301
 20
272.2131089097129
 10
141.7403393512301
 20
271.8797755763795
 10
141.9903393512301
 20
271.6297755763795
 10
142.2403393512301
 20
271.3797755763796
 10
142.4903393512301
 20
271.1297755763795
 10
142.7403393512301
 20
270.9631089097129
 10
143.0736726845634
 20
270.7964422430463
 10
143.4070060178968
 20
270.6297755763795
 10
143.6570060178968
 20
270.6297755763795
 10
143.9903393512301
 20
270.5464422430463
 10
144.3236726845634
 20
270.6297755763795
 10
144.6570060178968
 20
270.6297755763795
 10
144.9903393512301
 20
270.7964422430463
 10
145.2403393512301
 20
270.9631089097129
 10
145.5736726845634
 20
271.1297755763795
 10
145.8236726845634
 20
271.3797755763796
 10
146.0736726845634
 20
271.6297755763795
 10
146.3236726845634
 20
271.8797755763795
 10
146.4903393512301
 20
272.2131089097129
 10
146.6570060178968
 20
272.6297755763795
 10
146.8236726845634
 20
272.9631089097129
 10
146.9903393512301
 20
273.3797755763795
 10
147.0736726845634
 20
273.7964422430463
 10
147.1570060178968
 20
274.2131089097129
 10
147.2403393512301
 20
274.7131089097129
 10
147.2403393512301
 20
275.1297755763795
  0
LWPOLYLINE
  5
1011394
330
1F
100
AcDbEntity
  8
P
  6
Continuous
 62
     0
100
AcDbPolyline
 90
        2
 70
     0
 43
0.0
 10
145.1570060178968
 20
270.8797755763795
 10
140.8236726845634
 20
275.1297755763795
  0
LWPOLYLINE
  5
1011395
330
1F
100
AcDbEntity
  8
P
  6
Continuous
 62
     0
100
AcDbPolyline
 90
        2
 70
     0
 43
0.0
 10
146.0736726845634
 20
271.7964422430463
 10
141.0736726845634
 20
276.9631089097129
  0
LWPOLYLINE
  5
1011396
330
1F
100
AcDbEntity
  8
P
  6
Continuous
 62
     0
100
AcDbPolyline
 90
        2
 70
     0
 43
0.0
 10
146.8236726845634
 20
273.1297755763795
 10
141.6570060178968
 20
278.2964422430463
  0
LWPOLYLINE
  5
1011397
330
1F
100
AcDbEntity
  8
P
  6
Continuous
 62
     0
100
AcDbPolyline
 90
        2
 70
     0
 43
0.0
 10
147.2403393512301
 20
274.7131089097129
 10
142.6570060178968
 20
279.2964422430463
  0
LWPOLYLINE
  5
1011398
330
1F
100
AcDbEntity
  8
P
  6
Continuous
 62
     0
100
AcDbPolyline
 90
        2
 70
     0
 43
0.0
 10
140.9070060178968
 20
274.3797755763795
 10
145.5736726845634
 20
279.1297755763795
  0
LWPOLYLINE
  5
1011399
330
1F
100
AcDbEntity
  8
P
  6
Continuous
 62
     0
100
AcDbPolyline
 90
        2
 70
     0
 43
0.0
 10
141.3236726845634
 20
272.7964422430463
 10
146.5736726845634
 20
277.9631089097129
  0
LWPOLYLINE
  5
101139A
330
1F
100
AcDbEntity
  8
P
  6
Continuous
 62
     0
100
AcDbPolyline
 90
        2
 70
     0
 43
0.0
 10
141.9903393512301
 20
271.6297755763795
 10
147.0736726845634
 20
276.6297755763795
  0
LWPOLYLINE
  5
101139B
330
1F
100
AcDbEntity
  8
P
  6
Continuous
 62
     0
100
AcDbPolyline
 90
        2
 70
     0
 43
0.0
 10
143.2403393512301
 20
270.7131089097129
 10
147.2403393512301
 20
274.6297755763795
  0
LWPOLYLINE
  5
101139C
330
1F
100
AcDbEntity
  8
P
  6
Continuous
 62
     0
100
AcDbPolyline
 90
        2
 70
     0
 43
0.0
 10
146.9903393512301
 20
276.8797755763795
 10
144.2403393512301
 20
279.6297755763795
  0
LWPOLYLINE
  5
101139D
330
1F
100
AcDbEntity
  8
P
  6
Continuous
 62
     0
100
AcDbPolyline
 90
        2
 70
     0
 43
0.0
 10
140.9070060178968
 20
276.3797755763795
 10
144.1570060178968
 20
279.7131089097129
  0
LWPOLYLINE
  5
101139E
330
1F
100
AcDbEntity
  8
P
  6
Continuous
 62
     0
100
AcDbPolyline
 90
       17
 70
     0
 43
0.0
 10
140.8236726845634
 20
283.9631089097129
 10
141.1570060178968
 20
283.8797755763796
 10
141.4903393512301
 20
283.8797755763796
 10
141.9070060178968
 20
283.7964422430463
 10
142.3236726845634
 20
283.7964422430463
 10
142.7403393512301
 20
283.7131089097129
 10
143.1570060178968
 20
283.7131089097129
 10
143.5736726845634
 20
283.7131089097129
 10
143.9903393512301
 20
283.7131089097129
 10
144.4070060178968
 20
283.7131089097129
 10
144.9070060178968
 20
283.7131089097129
 10
145.3236726845634
 20
283.7131089097129
 10
145.7403393512301
 20
283.7964422430463
 10
146.0736726845634
 20
283.7964422430463
 10
146.4903393512301
 20
283.8797755763796
 10
146.8236726845634
 20
283.9631089097129
 10
147.1570060178968
 20
283.9631089097129
  0
LWPOLYLINE
  5
101139F
330
1F
100
AcDbEntity
  8
P
  6
Continuous
 62
     0
100
AcDbPolyline
 90
        2
 70
     0
 43
0.0
 10
140.8236726845634
 20
210.7964422430463
 10
147.2403393512301
 20
214.8797755763796
  0
LWPOLYLINE
  5
10113A0
330
1F
100
AcDbEntity
  8
P
  6
Continuous
 62
     0
100
AcDbPolyline
 90
        2
 70
     0
 43
0.0
 10
147.2403393512301
 20
214.8797755763796
 10
140.8236726845634
 20
218.9631089097129
  0
LWPOLYLINE
  5
10113A1
330
1F
100
AcDbEntity
  8
P
  6
Continuous
 62
     0
100
AcDbPolyline
 90
        2
 70
     0
 43
0.0
 10
140.9070060178968
 20
218.9631089097129
 10
147.2403393512301
 20
223.0464422430463
  0
LWPOLYLINE
  5
10113A2
330
1F
100
AcDbEntity
  8
P
  6
Continuous
 62
     0
100
AcDbPolyline
 90
        2
 70
     0
 43
0.0
 10
147.2403393512301
 20
223.0464422430463
 10
140.8236726845634
 20
227.1297755763796
  0
LWPOLYLINE
  5
10113A3
330
1F
100
AcDbEntity
  8
P
  6
Continuous
 62
     0
100
AcDbPolyline
 90
        2
 70
     0
 43
0.0
 10
140.9070060178968
 20
227.1297755763796
 10
147.2403393512301
 20
231.2131089097129
  0
LWPOLYLINE
  5
10113A4
330
1F
100
AcDbEntity
  8
P
  6
Continuous
 62
     0
100
AcDbPolyline
 90
        2
 70
     0
 43
0.0
 10
147.2403393512301
 20
231.2131089097129
 10
140.8236726845634
 20
235.2964422430463
  0
LWPOLYLINE
  5
10113A5
330
1F
100
AcDbEntity
  8
P
  6
Continuous
 62
     0
100
AcDbPolyline
 90
        2
 70
     0
 43
0.0
 10
140.9070060178968
 20
235.2964422430463
 10
147.3236726845634
 20
239.3797755763796
  0
LWPOLYLINE
  5
10113A6
330
1F
100
AcDbEntity
  8
P
  6
Continuous
 62
     0
100
AcDbPolyline
 90
        2
 70
     0
 43
0.0
 10
147.3236726845634
 20
239.3797755763796
 10
140.9070060178968
 20
243.4631089097129
  0
LWPOLYLINE
  5
10113A7
330
1F
100
AcDbEntity
  8
P
  6
Continuous
 62
     0
100
AcDbPolyline
 90
        2
 70
     0
 43
0.0
 10
140.8236726845634
 20
243.4631089097129
 10
147.2403393512301
 20
247.5464422430462
  0
LWPOLYLINE
  5
10113A8
330
1F
100
AcDbEntity
  8
P
  6
Continuous
 62
     0
100
AcDbPolyline
 90
        2
 70
     0
 43
0.0
 10
147.2403393512301
 20
247.5464422430462
 10
140.8236726845634
 20
251.6297755763796
  0
LWPOLYLINE
  5
10113A9
330
1F
100
AcDbEntity
  8
P
  6
Continuous
 62
     0
100
AcDbPolyline
 90
        2
 70
     0
 43
0.0
 10
140.9070060178968
 20
251.6297755763796
 10
147.2403393512301
 20
255.7131089097129
  0
LWPOLYLINE
  5
10113AA
330
1F
100
AcDbEntity
  8
P
  6
Continuous
 62
     0
100
AcDbPolyline
 90
        2
 70
     0
 43
0.0
 10
147.2403393512301
 20
255.7131089097129
 10
140.8236726845634
 20
259.7964422430463
  0
LWPOLYLINE
  5
10113AB
330
1F
100
AcDbEntity
  8
P
  6
Continuous
 62
     0
100
AcDbPolyline
 90
        2
 70
     0
 43
0.0
 10
140.8236726845634
 20
259.7964422430463
 10
145.2403393512301
 20
262.7131089097129
  0
LWPOLYLINE
  5
10113AC
330
1F
100
AcDbEntity
  8
P
  6
DASHDOT
 62
     0
100
AcDbPolyline
 90
        2
 70
     0
 43
0.0
 10
147.2403393512301
 20
264.6297755763795
 10
212.4070060178968
 20
264.6297755763795
  0
LWPOLYLINE
  5
10113AD
330
1F
100
AcDbEntity
  8
P
  6
DASHDOT
 62
     0
100
AcDbPolyline
 90
        2
 70
     0
 43
0.0
 10
76.07367268456346
 20
264.6297755763795
 10
140.8236726845634
 20
264.6297755763795
  0
LWPOLYLINE
  5
10113AE
330
1F
100
AcDbEntity
  8
P
  6
Continuous
 62
     0
100
AcDbPolyline
 90
        2
 70
     0
 43
0.0
 10
147.2403393512301
 20
268.1297755763795
 10
147.2403393512301
 20
283.9631089097129
  0
MTEXT
  5
10113AF
330
1F
100
AcDbEntity
  8
Text
  6
Continuous
 62
     0
100
AcDbMText
 10
142.7403393512301
 20
307.1297755763796
 30
0.0
 40
3.25
 41
3.5
 46
0.0
 71
     4
 72
     5
  1
{\fHelveticaNeueLTPro|b0|i0|c1|p15;9}
 73
     2
 44
1.0
  0
LWPOLYLINE
  5
10113B0
330
1F
100
AcDbEntity
  8
P
  6
Continuous
 62
     0
100
AcDbPolyline
 90
        2
 70
     0
 43
0.0
 10
143.7403393512301
 20
302.4631089097129
 10
143.7403393512301
 20
281.5464422430462
  0
HATCH
  5
10113B1
330
1F
100
AcDbEntity
  8
H
  6
Continuous
 62
     0
100
AcDbHatch
 10
0.0
 20
0.0
 30
0.0
210
0.0
220
0.0
230
1.0
  2
SOLID
 70
     1
 71
     0
 91
        1
 92
        1
 93
        4
 72
     1
 10
143.3236726845635
 20
281.0464422430463
 11
144.2403393512301
 21
281.0464422430463
 72
     1
 10
144.2403393512301
 20
281.0464422430463
 11
144.2403393512301
 21
282.0464422430463
 72
     1
 10
144.2403393512301
 20
282.0464422430463
 11
143.3236726845635
 21
282.0464422430463
 72
     1
 10
143.3236726845635
 20
282.0464422430463
 11
143.3236726845635
 21
281.0464422430463
 97
        0
 75
     0
 76
     1
 98
        0
450
        0
451
        0
460
0.0
461
0.0
452
        1
462
0.0
453
        0
470

  0
LWPOLYLINE
  5
10113B2
330
1F
100
AcDbEntity
  8
P
  6
Continuous
 62
     0
100
AcDbPolyline
 90
        2
 70
     0
 43
0.0
 10
140.7403393512301
 20
268.1297755763795
 10
140.7403393512301
 20
283.9631089097129
  0
LWPOLYLINE
  5
10113B3
330
1F
100
AcDbEntity
  8
P
  6
DASHDOT
 62
     0
100
AcDbPolyline
 90
        2
 70
     0
 43
0.0
 10
137.4070060178968
 20
269.2964422430463
 10
140.7403393512301
 20
272.4631089097129
  0
LWPOLYLINE
  5
10113B4
330
1F
100
AcDbEntity
  8
P
  6
DASHDOT
 62
     0
100
AcDbPolyline
 90
        2
 70
     0
 43
0.0
 10
147.2403393512301
 20
270.3797755763795
 10
152.3236726845634
 20
275.2131089097129
  0
LWPOLYLINE
  5
10113B5
330
1F
100
AcDbEntity
  8
P
  6
DASHDOT
 62
     0
100
AcDbPolyline
 90
        2
 70
     0
 43
0.0
 10
147.2403393512301
 20
274.4631089097129
 10
148.0736726845634
 20
275.2964422430463
  0
LWPOLYLINE
  5
10113B6
330
1F
100
AcDbEntity
  8
P
  6
Continuous
 62
     0
100
AcDbPolyline
 90
        2
 70
     0
 43
0.0
 10
206.4070060178968
 20
268.0464422430463
 10
215.7403393512301
 20
263.9631089097129
  0
LWPOLYLINE
  5
10113B7
330
1F
100
AcDbEntity
  8
P
  6
Continuous
 62
     0
100
AcDbPolyline
 90
        2
 70
     0
 43
0.0
 10
147.2403393512301
 20
206.7131089097129
 10
140.8236726845634
 20
210.8797755763796
  0
LWPOLYLINE
  5
10113B8
330
1F
100
AcDbEntity
  8
P
  6
Continuous
 62
     0
100
AcDbPolyline
 90
        2
 70
     0
 43
0.0
 10
138.3236726845634
 20
251.7964422430463
 10
140.7403393512301
 20
254.0464422430463
  0
LWPOLYLINE
  5
10113B9
330
1F
100
AcDbEntity
  8
P
  6
Continuous
 62
     0
100
AcDbPolyline
 90
        2
 70
     0
 43
0.0
 10
138.3236726845634
 20
228.1297755763795
 10
140.8236726845634
 20
230.4631089097129
  0
LWPOLYLINE
  5
10113BA
330
1F
100
AcDbEntity
  8
P
  6
Continuous
 62
     0
100
AcDbPolyline
 90
        2
 70
     0
 43
0.0
 10
147.2403393512301
 20
248.7964422430462
 10
161.5736726845634
 20
262.7131089097129
  0
LWPOLYLINE
  5
10113BB
330
1F
100
AcDbEntity
  8
P
  6
Continuous
 62
     0
100
AcDbPolyline
 90
        2
 70
     0
 43
0.0
 10
148.9903393512301
 20
262.0464422430463
 10
149.6570060178968
 20
262.7131089097129
  0
HATCH
  5
10113BC
330
1F
100
AcDbEntity
  8
H
  6
Continuous
 62
     0
100
AcDbHatch
 10
0.0
 20
0.0
 30
0.0
210
0.0
220
0.0
230
1.0
  2
SOLID
 70
     1
 71
     0
 91
        1
 92
        1
 93
        4
 72
     1
 10
142.8236726845634
 20
272.4631089097129
 11
143.7403393512301
 21
272.4631089097129
 72
     1
 10
143.7403393512301
 20
272.4631089097129
 11
143.7403393512301
 21
273.3797755763795
 72
     1
 10
143.7403393512301
 20
273.3797755763795
 11
142.8236726845634
 21
273.3797755763795
 72
     1
 10
142.8236726845634
 20
273.3797755763795
 11
142.8236726845634
 21
272.4631089097129
 97
        0
 75
     0
 76
     1
 98
        0
450
        0
451
        0
460
0.0
461
0.0
452
        1
462
0.0
453
        0
470

  0
LWPOLYLINE
  5
10113BD
330
1F
100
AcDbEntity
  8
P
  6
Continuous
 62
     0
100
AcDbPolyline
 90
        2
 70
     0
 43
0.0
 10
143.2403393512301
 20
272.9631089097129
 10
152.2403393512301
 20
272.9631089097129
  0
LWPOLYLINE
  5
10113BE
330
1F
100
AcDbEntity
  8
P
  6
Continuous
 62
     0
100
AcDbPolyline
 90
        2
 70
     0
 43
0.0
 10
178.8236726845634
 20
302.4631089097129
 10
178.8236726845634
 20
238.1297755763795
  0
HATCH
  5
10113BF
330
1F
100
AcDbEntity
  8
H
  6
Continuous
 62
     0
100
AcDbHatch
 10
0.0
 20
0.0
 30
0.0
210
0.0
220
0.0
230
1.0
  2
SOLID
 70
     1
 71
     0
 91
        1
 92
        1
 93
        4
 72
     1
 10
143.8236726845634
 20
237.6297755763796
 11
144.7403393512301
 21
237.6297755763796
 72
     1
 10
144.7403393512301
 20
237.6297755763796
 11
144.7403393512301
 21
238.5464422430462
 72
     1
 10
144.7403393512301
 20
238.5464422430462
 11
143.8236726845634
 21
238.5464422430462
 72
     1
 10
143.8236726845634
 20
238.5464422430462
 11
143.8236726845634
 21
237.6297755763796
 97
        0
 75
     0
 76
     1
 98
        0
450
        0
451
        0
460
0.0
461
0.0
452
        1
462
0.0
453
        0
470

  0
LWPOLYLINE
  5
10113C0
330
1F
100
AcDbEntity
  8
P
  6
Continuous
 62
     0
100
AcDbPolyline
 90
        2
 70
     0
 43
0.0
 10
144.2403393512301
 20
238.1297755763795
 10
178.8236726845634
 20
238.1297755763795
  0
MTEXT
  5
10113C1
330
1F
100
AcDbEntity
  8
Text
  6
Continuous
 62
     0
100
AcDbMText
 10
176.8236726845634
 20
307.2131089097129
 30
0.0
 40
3.25
 41
7.0
 46
0.0
 71
     4
 72
     5
  1
{\fHelveticaNeueLTPro|b0|i0|c1|p15;10}
 73
     2
 44
1.0
  0
ENDSEC
  0
SECTION
  2
OBJECTS
  0
DICTIONARY
  5
C
330
0
100
AcDbDictionary
281
     1
  3
ACAD_CIP_PREVIOUS_PRODUCT_INFO
350
10051
  3
ACAD_COLOR
350
10034
  3
ACAD_DETAILVIEWSTYLE
350
1004D
  3
ACAD_GROUP
350
D
  3
ACAD_LAYOUT
350
1A
  3
ACAD_MATERIAL
350
10002
  3
ACAD_MLEADERSTYLE
350
10049
  3
ACAD_MLINESTYLE
350
17
  3
ACAD_PLOTSETTINGS
350
19
  3
ACAD_PLOTSTYLENAME
350
E
  3
ACAD_SCALELIST
350
10037
  3
ACAD_SECTIONVIEWSTYLE
350
1004B
  3
ACAD_TABLESTYLE
350
10035
  3
ACAD_VISUALSTYLE
350
1001B
  3
ACDB_RECOMPOSE_DATA
350
10113CD
  3
AcDbVariableDictionary
350
2D6
  0
DICTIONARY
  5
100FC
330
8
100
AcDbDictionary
280
     1
281
     1
  0
DICTIONARY
  5
101018B
330
2
100
AcDbDictionary
280
     1
281
     1
  3
ACAD_LAYERSTATES
360
101018C
  0
DICTIONARY
  5
10059
330
10
100
AcDbDictionary
280
     1
281
     1
  3
ADSK_XREC_LAYER_RECONCILED
360
1005A
  0
DICTIONARY
  5
1005B
330
47
100
AcDbDictionary
280
     1
281
     1
  3
ADSK_XREC_LAYER_RECONCILED
360
1005C
  0
DICTIONARY
  5
1005D
330
48
100
AcDbDictionary
280
     1
281
     1
  3
ADSK_XREC_LAYER_RECONCILED
360
1005E
  0
DICTIONARY
  5
1005F
330
49
100
AcDbDictionary
280
     1
281
     1
  3
ADSK_XREC_LAYER_RECONCILED
360
10060
  0
DICTIONARY
  5
10061
330
4A
100
AcDbDictionary
280
     1
281
     1
  3
ADSK_XREC_LAYER_RECONCILED
360
10062
  0
XRECORD
  5
10051
102
{ACAD_REACTORS
330
C
102
}
330
C
100
AcDbXrecord
280
     1
300
ACDLT
300
2017
300
ACDLT_F_S
  0
DICTIONARY
  5
10034
102
{ACAD_REACTORS
330
C
102
}
330
C
100
AcDbDictionary
281
     1
  0
DICTIONARY
  5
1004D
102
{ACAD_REACTORS
330
C
102
}
330
C
100
AcDbDictionary
281
     1
  3
Imperial24
350
1004E
  0
DICTIONARY
  5
D
330
C
100
AcDbDictionary
281
     1
  0
DICTIONARY
  5
1A
330
C
100
AcDbDictionary
281
     1
  3
Layout1
350
1E
  3
Layout2
350
26
  3
Model
350
22
  0
DICTIONARY
  5
10002
102
{ACAD_REACTORS
330
C
102
}
330
C
100
AcDbDictionary
281
     1
  3
ByBlock
350
1000B
  3
ByLayer
350
10003
  3
Global
350
10013
  0
DICTIONARY
  5
10049
102
{ACAD_REACTORS
330
C
102
}
330
C
100
AcDbDictionary
281
     1
  3
Standard
350
1004A
  0
DICTIONARY
  5
17
330
C
100
AcDbDictionary
281
     1
  3
Standard
350
18
  0
DICTIONARY
  5
19
330
C
100
AcDbDictionary
281
     1
  0
ACDBDICTIONARYWDFLT
  5
E
330
C
100
AcDbDictionary
281
     1
  3
Normal
350
F
100
AcDbDictionaryWithDefault
340
F
  0
DICTIONARY
  5
10037
102
{ACAD_REACTORS
330
C
102
}
330
C
100
AcDbDictionary
281
     1
  3
A0
350
10038
  3
A1
350
10039
  3
A2
350
1003A
  3
A3
350
1003B
  3
A4
350
1003C
  3
A5
350
1003D
  3
A6
350
1003E
  3
A7
350
1003F
  3
A8
350
10040
  3
A9
350
10041
  3
B0
350
10042
  3
B1
350
10043
  3
B2
350
10044
  3
B3
350
10045
  3
B4
350
10046
  3
B5
350
10047
  3
B6
350
10048
  0
DICTIONARY
  5
1004B
102
{ACAD_REACTORS
330
C
102
}
330
C
100
AcDbDictionary
281
     1
  3
Imperial24
350
1004C
  0
DICTIONARY
  5
10035
102
{ACAD_REACTORS
330
C
102
}
330
C
100
AcDbDictionary
281
     1
  3
Standard
350
10036
  0
DICTIONARY
  5
1001B
102
{ACAD_REACTORS
330
C
102
}
330
C
100
AcDbDictionary
281
     1
  3
2dWireframe
350
10021
  3
Basic
350
10020
  3
Brighten
350
10027
  3
ColorChange
350
1002B
  3
Conceptual
350
10024
  3
Dim
350
10026
  3
EdgeColorOff
350
10033
  3
Facepattern
350
1002A
  3
Flat
350
1001C
  3
FlatWithEdges
350
1001D
  3
Gouraud
350
1001E
  3
GouraudWithEdges
350
1001F
  3
Hidden
350
10023
  3
JitterOff
350
10031
  3
Linepattern
350
10029
  3
OverhangOff
350
10032
  3
Realistic
350
10025
  3
Shaded
350
10030
  3
Shaded with edges
350
1002F
  3
Shades of Gray
350
1002C
  3
Sketchy
350
1002D
  3
Thicken
350
10028
  3
Wireframe
350
10022
  3
X-Ray
350
1002E
  0
XRECORD
  5
10113CD
102
{ACAD_REACTORS
330
C
102
}
330
C
100
AcDbXrecord
280
     1
 90
        1
330
10036
330
1004C
330
1004E
  0
DICTIONARY
  5
2D6
330
C
100
AcDbDictionary
281
     1
  3
CANNOSCALE
350
10067
  3
CMLEADERSTYLE
350
10064
  3
CTABLESTYLE
350
10063
  3
CVIEWDETAILSTYLE
350
10065
  3
CVIEWSECTIONSTYLE
350
10066
  3
DIMASSOC
350
2D8
  3
HIDETEXT
350
2D7
  3
INDEXCTL
350
10069
  3
LAYEREVAL
350
1011082
  3
LAYERNOTIFY
350
1011083
  3
LIGHTINGUNITS
350
1011081
  3
MSLTSCALE
350
1011080
  3
SORTENTS
350
10068
  0
DICTIONARY
  5
101018C
102
{ACAD_REACTORS
330
101018B
102
}
330
101018B
100
AcDbDictionary
281
     1
  0
XRECORD
  5
1005A
102
{ACAD_REACTORS
330
10059
102
}
330
10059
100
AcDbXrecord
280
     1
290
     1
  0
XRECORD
  5
1005C
102
{ACAD_REACTORS
330
1005B
102
}
330
1005B
100
AcDbXrecord
280
     1
290
     1
  0
XRECORD
  5
1005E
102
{ACAD_REACTORS
330
1005D
102
}
330
1005D
100
AcDbXrecord
280
     1
290
     1
  0
XRECORD
  5
10060
102
{ACAD_REACTORS
330
1005F
102
}
330
1005F
100
AcDbXrecord
280
     1
290
     1
  0
XRECORD
  5
10062
102
{ACAD_REACTORS
330
10061
102
}
330
10061
100
AcDbXrecord
280
     1
290
     1
  0
ACDBDETAILVIEWSTYLE
  5
1004E
102
{ACAD_XDICTIONARY
360
101107D
102
}
102
{ACAD_REACTORS
330
1004D
102
}
330
1004D
100
AcDbModelDocViewStyle
 70
     0
  3
Imperial24
290
     0
100
AcDbDetailViewStyle
 70
     0
 71
     0
 90
        3
 71
     1
340
11
 62
   256
 40
0.24
340
0
 62
   256
 40
0.24
300

 40
0.36
280
     3
 71
     2
340
16
 90
       25
 62
   256
 71
     3
340
11
 62
   256
 40
0.24
 90
        1
 40
0.75
 90
        1
300
%<\AcVar ViewType \f "%tc1">% %<\AcVar ViewDetailId>%\PVARIA %<\AcVar ViewScale \f "%sn">%
 71
     4
340
16
 90
       25
 62
   256
340
16
 90
       25
 62
   256
280
     0
  0
LAYOUT
  5
1E
330
1A
100
AcDbPlotSettings
  1

  2
C:\Program Files\AutoCAD 2002\plotters\DWF ePlot (optimized for plotting).pc3
  4

  6

 40
0.0
 41
0.0
 42
0.0
 43
0.0
 44
0.0
 45
0.0
 46
0.0
 47
0.0
 48
0.0
 49
0.0
140
0.0
141
0.0
142
1.0
143
1.0
 70
   688
 72
     0
 73
     0
 74
     5
  7

 75
    16
147
1.0
 76
     0
 77
     2
 78
   300
148
0.0
149
0.0
100
AcDbLayout
  1
Layout1
 70
     1
 71
     1
 10
0.0
 20
0.0
 11
12.0
 21
9.0
 12
0.0
 22
0.0
 32
0.0
 14
1.000000000000000E+20
 24
1.000000000000000E+20
 34
1.000000000000000E+20
 15
-1.000000000000000E+20
 25
-1.000000000000000E+20
 35
-1.000000000000000E+20
146
0.0
 13
0.0
 23
0.0
 33
0.0
 16
1.0
 26
0.0
 36
0.0
 17
0.0
 27
1.0
 37
0.0
 76
     0
330
1B
  0
LAYOUT
  5
26
330
1A
100
AcDbPlotSettings
  1

  2
C:\Program Files\AutoCAD 2002\plotters\DWF ePlot (optimized for plotting).pc3
  4

  6

 40
0.0
 41
0.0
 42
0.0
 43
0.0
 44
0.0
 45
0.0
 46
0.0
 47
0.0
 48
0.0
 49
0.0
140
0.0
141
0.0
142
1.0
143
1.0
 70
   688
 72
     0
 73
     0
 74
     5
  7

 75
    16
147
1.0
 76
     0
 77
     2
 78
   300
148
0.0
149
0.0
100
AcDbLayout
  1
Layout2
 70
     1
 71
     2
 10
0.0
 20
0.0
 11
12.0
 21
9.0
 12
0.0
 22
0.0
 32
0.0
 14
0.0
 24
0.0
 34
0.0
 15
0.0
 25
0.0
 35
0.0
146
0.0
 13
0.0
 23
0.0
 33
0.0
 16
1.0
 26
0.0
 36
0.0
 17
0.0
 27
1.0
 37
0.0
 76
     0
330
23
  0
LAYOUT
  5
22
330
1A
100
AcDbPlotSettings
  1

  2
C:\Program Files\AutoCAD 2002\plotters\DWF ePlot (optimized for plotting).pc3
  4

  6

 40
0.0
 41
0.0
 42
0.0
 43
0.0
 44
0.0
 45
0.0
 46
0.0
 47
0.0
 48
0.0
 49
0.0
140
0.0
141
0.0
142
1.0
143
1.0
 70
  1712
 72
     0
 73
     0
 74
     0
  7

 75
     0
147
1.0
 76
     0
 77
     2
 78
   300
148
0.0
149
0.0
100
AcDbLayout
  1
Model
 70
     1
 71
     0
 10
0.0
 20
0.0
 11
12.0
 21
9.0
 12
0.0
 22
0.0
 32
0.0
 14
0.0
 24
0.0
 34
0.0
 15
0.0
 25
0.0
 35
0.0
146
0.0
 13
0.0
 23
0.0
 33
0.0
 16
1.0
 26
0.0
 36
0.0
 17
0.0
 27
1.0
 37
0.0
 76
     0
330
1F
331
30
  0
MATERIAL
  5
1000B
102
{ACAD_XDICTIONARY
360
1000C
102
}
102
{ACAD_REACTORS
330
10002
102
}
330
10002
100
AcDbMaterial
  1
ByBlock
 72
     0
 43
0.0208333333333333
 43
0.0
 43
0.0
 43
0.0
 43
0.0
 43
0.0208333333333333
 43
0.0
 43
0.0
 43
0.0
 43
0.0
 43
1.0
 43
0.0
 43
0.0
 43
0.0
 43
0.0
 43
1.0
 77
     0
 47
0.0208333333333333
 47
0.0
 47
0.0
 47
0.0
 47
0.0
 47
0.0208333333333333
 47
0.0
 47
0.0
 47
0.0
 47
0.0
 47
1.0
 47
0.0
 47
0.0
 47
0.0
 47
0.0
 47
1.0
171
     0
 49
0.0208333333333333
 49
0.0
 49
0.0
 49
0.0
 49
0.0
 49
0.0208333333333333
 49
0.0
 49
0.0
 49
0.0
 49
0.0
 49
1.0
 49
0.0
 49
0.0
 49
0.0
 49
0.0
 49
1.0
175
     0
142
0.0208333333333333
142
0.0
142
0.0
142
0.0
142
0.0
142
0.0208333333333333
142
0.0
142
0.0
142
0.0
142
0.0
142
1.0
142
0.0
142
0.0
142
0.0
142
0.0
142
1.0
179
     0
144
0.0208333333333333
144
0.0
144
0.0
144
0.0
144
0.0
144
0.0208333333333333
144
0.0
144
0.0
144
0.0
144
0.0
144
1.0
144
0.0
144
0.0
144
0.0
144
0.0
144
1.0
147
0.0208333333333333
147
0.0
147
0.0
147
0.0
147
0.0
147
0.0208333333333333
147
0.0
147
0.0
147
0.0
147
0.0
147
1.0
147
0.0
147
0.0
147
0.0
147
0.0
147
1.0
  0
MATERIAL
  5
10003
102
{ACAD_XDICTIONARY
360
10004
102
}
102
{ACAD_REACTORS
330
10002
102
}
330
10002
100
AcDbMaterial
  1
ByLayer
 72
     0
 43
0.0208333333333333
 43
0.0
 43
0.0
 43
0.0
 43
0.0
 43
0.0208333333333333
 43
0.0
 43
0.0
 43
0.0
 43
0.0
 43
1.0
 43
0.0
 43
0.0
 43
0.0
 43
0.0
 43
1.0
 77
     0
 47
0.0208333333333333
 47
0.0
 47
0.0
 47
0.0
 47
0.0
 47
0.0208333333333333
 47
0.0
 47
0.0
 47
0.0
 47
0.0
 47
1.0
 47
0.0
 47
0.0
 47
0.0
 47
0.0
 47
1.0
171
     0
 49
0.0208333333333333
 49
0.0
 49
0.0
 49
0.0
 49
0.0
 49
0.0208333333333333
 49
0.0
 49
0.0
 49
0.0
 49
0.0
 49
1.0
 49
0.0
 49
0.0
 49
0.0
 49
0.0
 49
1.0
175
     0
142
0.0208333333333333
142
0.0
142
0.0
142
0.0
142
0.0
142
0.0208333333333333
142
0.0
142
0.0
142
0.0
142
0.0
142
1.0
142
0.0
142
0.0
142
0.0
142
0.0
142
1.0
179
     0
144
0.0208333333333333
144
0.0
144
0.0
144
0.0
144
0.0
144
0.0208333333333333
144
0.0
144
0.0
144
0.0
144
0.0
144
1.0
144
0.0
144
0.0
144
0.0
144
0.0
144
1.0
147
0.0208333333333333
147
0.0
147
0.0
147
0.0
147
0.0
147
0.0208333333333333
147
0.0
147
0.0
147
0.0
147
0.0
147
1.0
147
0.0
147
0.0
147
0.0
147
0.0
147
1.0
  0
MATERIAL
  5
10013
102
{ACAD_XDICTIONARY
360
10014
102
}
102
{ACAD_REACTORS
330
10002
102
}
330
10002
100
AcDbMaterial
  1
Global
 72
     0
 43
0.0208333333333333
 43
0.0
 43
0.0
 43
0.0
 43
0.0
 43
0.0208333333333333
 43
0.0
 43
0.0
 43
0.0
 43
0.0
 43
1.0
 43
0.0
 43
0.0
 43
0.0
 43
0.0
 43
1.0
 77
     0
 47
0.0208333333333333
 47
0.0
 47
0.0
 47
0.0
 47
0.0
 47
0.0208333333333333
 47
0.0
 47
0.0
 47
0.0
 47
0.0
 47
1.0
 47
0.0
 47
0.0
 47
0.0
 47
0.0
 47
1.0
171
     0
 49
0.0208333333333333
 49
0.0
 49
0.0
 49
0.0
 49
0.0
 49
0.0208333333333333
 49
0.0
 49
0.0
 49
0.0
 49
0.0
 49
1.0
 49
0.0
 49
0.0
 49
0.0
 49
0.0
 49
1.0
175
     0
142
0.0208333333333333
142
0.0
142
0.0
142
0.0
142
0.0
142
0.0208333333333333
142
0.0
142
0.0
142
0.0
142
0.0
142
1.0
142
0.0
142
0.0
142
0.0
142
0.0
142
1.0
179
     0
144
0.0208333333333333
144
0.0
144
0.0
144
0.0
144
0.0
144
0.0208333333333333
144
0.0
144
0.0
144
0.0
144
0.0
144
1.0
144
0.0
144
0.0
144
0.0
144
0.0
144
1.0
147
0.0208333333333333
147
0.0
147
0.0
147
0.0
147
0.0
147
0.0208333333333333
147
0.0
147
0.0
147
0.0
147
0.0
147
1.0
147
0.0
147
0.0
147
0.0
147
0.0
147
1.0
  0
MLEADERSTYLE
  5
1004A
102
{ACAD_REACTORS
330
10049
102
}
330
10049
100
AcDbMLeaderStyle
179
     2
170
     2
171
     1
172
     0
 90
        2
 40
0.0
 41
0.0
173
     1
 91
-1056964608
340
14
 92
       -2
290
     1
 42
0.09
291
     1
 43
0.36
  3
Standard
 44
0.18
300

342
11
174
     1
178
     6
175
     1
176
     0
 93
-1056964608
 45
0.18
292
     0
297
     0
 46
0.18
 94
-1056964608
 47
1.0
 49
1.0
140
1.0
293
     1
141
0.0
294
     1
177
     0
142
1.0
295
     0
296
     0
143
0.125
271
     0
272
     9
273
     9
298
     0
  0
MLINESTYLE
  5
18
330
17
100
AcDbMlineStyle
  2
STANDARD
 70
     0
  3

 62
   256
 51
90.0
 52
90.0
 71
     2
 49
0.5
 62
   256
  6
BYLAYER
 49
-0.5
 62
   256
  6
BYLAYER
  0
ACDBPLACEHOLDER
  5
F
330
E
  0
SCALE
  5
10038
102
{ACAD_REACTORS
330
10037
102
}
330
10037
100
AcDbScale
 70
     0
300
1:1
140
1.0
141
1.0
290
     1
  0
SCALE
  5
10039
102
{ACAD_REACTORS
330
10037
102
}
330
10037
100
AcDbScale
 70
     0
300
1/128" = 1'-0"
140
0.0078125
141
12.0
290
     0
  0
SCALE
  5
1003A
102
{ACAD_REACTORS
330
10037
102
}
330
10037
100
AcDbScale
 70
     0
300
1/64" = 1'-0"
140
0.015625
141
12.0
290
     0
  0
SCALE
  5
1003B
102
{ACAD_REACTORS
330
10037
102
}
330
10037
100
AcDbScale
 70
     0
300
1/32" = 1'-0"
140
0.03125
141
12.0
290
     0
  0
SCALE
  5
1003C
102
{ACAD_REACTORS
330
10037
102
}
330
10037
100
AcDbScale
 70
     0
300
1/16" = 1'-0"
140
0.0625
141
12.0
290
     0
  0
SCALE
  5
1003D
102
{ACAD_REACTORS
330
10037
102
}
330
10037
100
AcDbScale
 70
     0
300
3/32" = 1'-0"
140
0.09375
141
12.0
290
     0
  0
SCALE
  5
1003E
102
{ACAD_REACTORS
330
10037
102
}
330
10037
100
AcDbScale
 70
     0
300
1/8" = 1'-0"
140
0.125
141
12.0
290
     0
  0
SCALE
  5
1003F
102
{ACAD_REACTORS
330
10037
102
}
330
10037
100
AcDbScale
 70
     0
300
3/16" = 1'-0"
140
0.1875
141
12.0
290
     0
  0
SCALE
  5
10040
102
{ACAD_REACTORS
330
10037
102
}
330
10037
100
AcDbScale
 70
     0
300
1/4" = 1'-0"
140
0.25
141
12.0
290
     0
  0
SCALE
  5
10041
102
{ACAD_REACTORS
330
10037
102
}
330
10037
100
AcDbScale
 70
     0
300
3/8" = 1'-0"
140
0.375
141
12.0
290
     0
  0
SCALE
  5
10042
102
{ACAD_REACTORS
330
10037
102
}
330
10037
100
AcDbScale
 70
     0
300
1/2" = 1'-0"
140
0.5
141
12.0
290
     0
  0
SCALE
  5
10043
102
{ACAD_REACTORS
330
10037
102
}
330
10037
100
AcDbScale
 70
     0
300
3/4" = 1'-0"
140
0.75
141
12.0
290
     0
  0
SCALE
  5
10044
102
{ACAD_REACTORS
330
10037
102
}
330
10037
100
AcDbScale
 70
     0
300
1" = 1'-0"
140
1.0
141
12.0
290
     0
  0
SCALE
  5
10045
102
{ACAD_REACTORS
330
10037
102
}
330
10037
100
AcDbScale
 70
     0
300
1-1/2" = 1'-0"
140
1.5
141
12.0
290
     0
  0
SCALE
  5
10046
102
{ACAD_REACTORS
330
10037
102
}
330
10037
100
AcDbScale
 70
     0
300
3" = 1'-0"
140
3.0
141
12.0
290
     0
  0
SCALE
  5
10047
102
{ACAD_REACTORS
330
10037
102
}
330
10037
100
AcDbScale
 70
     0
300
6" = 1'-0"
140
6.0
141
12.0
290
     0
  0
SCALE
  5
10048
102
{ACAD_REACTORS
330
10037
102
}
330
10037
100
AcDbScale
 70
     0
300
1'-0" = 1'-0"
140
12.0
141
12.0
290
     0
  0
ACDBSECTIONVIEWSTYLE
  5
1004C
102
{ACAD_XDICTIONARY
360
101107B
102
}
102
{ACAD_REACTORS
330
1004B
102
}
330
1004B
100
AcDbModelDocViewStyle
 70
     0
  3
Imperial24
290
     0
100
AcDbSectionViewStyle
 70
     0
 71
     0
 90
       78
 71
     1
340
11
 62
   256
 40
0.24
340
0
340
0
 62
   256
 40
0.24
300
I, O, Q, S, X, Z
 40
0.48
 90
        3
 40
0.18
 90
        1
 71
     2
340
16
 90
       25
 62
   256
340
16
 90
       50
 62
   256
 40
0.24
 40
0.0
 40
0.24
 71
     3
340
11
 62
   256
 40
0.24
 90
        1
 40
0.75
 90
        1
300
%<\AcVar ViewType \f "%tc1">% %<\AcVar ViewSectionStartId>%-%<\AcVar ViewSectionEndId>%\PVARIA %<\AcVar ViewScale \f "%sn">%
 71
     4
 62
   256
 62
   257
300
ANSI31
 40
1.0
 90
        0
290
     0
290
     0
 90
        6
 40
0.0
 40
1.570796326794896
 40
0.2617993877991494
 40
1.308996938995747
 40
-0.2617993877991494
 40
1.832595714594045
  0
TABLESTYLE
  5
10036
102
{ACAD_XDICTIONARY
360
1006C
102
}
102
{ACAD_REACTORS
330
10035
102
}
330
10035
100
AcDbTableStyle
280
     0
  3
Standard
 70
     0
 71
     0
 40
0.06
 41
0.06
280
     0
281
     0
  7
Standard
140
0.18
170
     2
 62
     0
 63
     7
283
     0
 90
      512
 91
        0
  1

274
    -2
284
     1
 64
     0
275
    -2
285
     1
 65
     0
276
    -2
286
     1
 66
     0
277
    -2
287
     1
 67
     0
278
    -2
288
     1
 68
     0
279
    -2
289
     1
 69
     0
  7
Standard
140
0.25
170
     5
 62
     0
 63
     7
283
     0
 90
      512
 91
        0
  1

274
    -2
284
     1
 64
     0
275
    -2
285
     1
 65
     0
276
    -2
286
     1
 66
     0
277
    -2
287
     1
 67
     0
278
    -2
288
     1
 68
     0
279
    -2
289
     1
 69
     0
  7
Standard
140
0.18
170
     5
 62
     0
 63
     7
283
     0
 90
      512
 91
        0
  1

274
    -2
284
     1
 64
     0
275
    -2
285
     1
 65
     0
276
    -2
286
     1
 66
     0
277
    -2
287
     1
 67
     0
278
    -2
288
     1
 68
     0
279
    -2
289
     1
 69
     0
  0
VISUALSTYLE
  5
10021
102
{ACAD_REACTORS
330
1001B
102
}
330
1001B
100
AcDbVisualStyle
  2

 70
     4
177
     3
291
     0
 70
    58
 90
        0
176
     1
 90
        2
176
     1
 90
        0
176
     1
 90
        0
176
     1
 40
0.6
176
     1
 40
30.0
176
     1
 62
     7
176
     1
 90
        1
176
     1
 90
        4
176
     1
 62
     7
176
     1
 62
   257
176
     1
 90
        1
176
     1
 90
        1
176
     1
 40
1.0
176
     1
 90
        0
176
     1
 62
   257
176
     1
 40
1.0
176
     1
 90
        1
176
     1
 90
        6
176
     1
 90
        2
176
     1
 62
     7
176
     1
 90
        5
176
     1
 90
        0
176
     1
 90
        0
176
     1
290
     0
176
     1
 90
        1
176
     1
 40
0.0
176
     1
 90
        0
176
     1
290
     1
176
     1
290
     1
176
     1
290
     0
176
     1
290
     0
176
     1
290
     0
176
     1
290
     0
176
     1
290
     0
176
     1
290
     0
176
     1
290
     0
176
     1
 90
       50
176
     1
 40
0.0
176
     1
 40
1.0
176
     1
 90
        0
176
     1
 62
    18
420
        0
176
     1
 90
       50
176
     1
 90
        3
176
     1
 62
     5
420
      255
176
     1
290
     0
176
     1
 90
       50
176
     1
 90
       50
176
     1
 90
       50
176
     1
290
     0
176
     1
 90
       50
176
     1
 62
   256
176
     0
 40
1.0
176
     0
 90
        2
176
     1
  1
strokes_ogs.tif
176
     1
290
     0
176
     1
 40
1.0
176
     1
 40
1.0
176
     1
  0
VISUALSTYLE
  5
10020
102
{ACAD_REACTORS
330
1001B
102
}
330
1001B
100
AcDbVisualStyle
  2

 70
     7
177
     3
291
     1
 70
    58
 90
        1
176
     1
 90
        0
176
     1
 90
        1
176
     1
 90
        0
176
     1
 40
0.6
176
     1
 40
30.0
176
     1
 62
     7
176
     1
 90
        0
176
     1
 90
        4
176
     1
 62
     7
176
     1
 62
   257
176
     1
 90
        1
176
     1
 90
        1
176
     1
 40
1.0
176
     1
 90
        8
176
     1
 62
     7
176
     1
 40
1.0
176
     1
 90
        1
176
     1
 90
        6
176
     1
 90
        2
176
     1
 62
     7
176
     1
 90
        5
176
     1
 90
        0
176
     1
 90
        0
176
     1
290
     0
176
     1
 90
        1
176
     1
 40
0.0
176
     1
 90
        0
176
     1
290
     0
176
     1
290
     1
176
     1
290
     1
176
     1
290
     0
176
     1
290
     0
176
     1
290
     0
176
     1
290
     0
176
     1
290
     0
176
     1
290
     0
176
     1
 90
       50
176
     1
 40
0.0
176
     1
 40
1.0
176
     1
 90
        0
176
     1
 62
    18
420
        0
176
     1
 90
       50
176
     1
 90
        3
176
     1
 62
     5
420
      255
176
     1
290
     0
176
     1
 90
       50
176
     1
 90
       50
176
     1
 90
       50
176
     1
290
     0
176
     1
 90
       50
176
     1
 62
   256
176
     0
 40
1.0
176
     0
 90
        2
176
     1
  1
strokes_ogs.tif
176
     1
290
     0
176
     1
 40
1.0
176
     1
 40
1.0
176
     1
  0
VISUALSTYLE
  5
10027
102
{ACAD_REACTORS
330
1001B
102
}
330
1001B
100
AcDbVisualStyle
  2

 70
    12
177
     3
291
     1
 70
    58
 90
        2
176
     1
 90
        2
176
     1
 90
        0
176
     1
 90
        0
176
     1
 40
0.6
176
     1
 40
30.0
176
     1
 62
     7
176
     1
 90
        1
176
     1
 90
        4
176
     1
 62
     7
176
     1
 62
   257
176
     1
 90
        1
176
     1
 90
        1
176
     1
 40
1.0
176
     1
 90
        8
176
     1
 62
     7
176
     1
 40
1.0
176
     1
 90
        1
176
     1
 90
        6
176
     1
 90
        2
176
     1
 62
     7
176
     1
 90
        5
176
     1
 90
        0
176
     1
 90
        0
176
     1
290
     0
176
     1
 90
        1
176
     1
 40
50.0
176
     1
 90
        0
176
     1
290
     0
176
     1
290
     1
176
     1
290
     1
176
     1
290
     0
176
     1
290
     0
176
     1
290
     0
176
     1
290
     0
176
     1
290
     0
176
     1
290
     0
176
     1
 90
       50
176
     1
 40
0.0
176
     1
 40
1.0
176
     1
 90
        0
176
     1
 62
    18
420
        0
176
     1
 90
       50
176
     1
 90
        3
176
     1
 62
     5
420
      255
176
     1
290
     0
176
     1
 90
       50
176
     1
 90
       50
176
     1
 90
       50
176
     1
290
     0
176
     1
 90
       50
176
     1
 62
   256
176
     0
 40
1.0
176
     0
 90
        2
176
     1
  1
strokes_ogs.tif
176
     1
290
     0
176
     1
 40
1.0
176
     1
 40
1.0
176
     1
  0
VISUALSTYLE
  5
1002B
102
{ACAD_REACTORS
330
1001B
102
}
330
1001B
100
AcDbVisualStyle
  2

 70
    16
177
     3
291
     1
 70
    58
 90
        2
176
     1
 90
        2
176
     1
 90
        3
176
     1
 90
        0
176
     1
 40
0.6
176
     1
 40
30.0
176
     1
 62
     8
176
     1
 90
        1
176
     1
 90
        4
176
     1
 62
     7
176
     1
 62
   257
176
     1
 90
        1
176
     1
 90
        1
176
     1
 40
1.0
176
     1
 90
        8
176
     1
 62
     8
176
     1
 40
1.0
176
     1
 90
        1
176
     1
 90
        6
176
     1
 90
        2
176
     1
 62
     7
176
     1
 90
        5
176
     1
 90
        0
176
     1
 90
        0
176
     1
290
     0
176
     1
 90
        1
176
     1
 40
0.0
176
     1
 90
        0
176
     1
290
     0
176
     1
290
     1
176
     1
290
     1
176
     1
290
     0
176
     1
290
     0
176
     1
290
     0
176
     1
290
     0
176
     1
290
     0
176
     1
290
     0
176
     1
 90
       50
176
     1
 40
0.0
176
     1
 40
1.0
176
     1
 90
        0
176
     1
 62
    18
420
        0
176
     1
 90
       50
176
     1
 90
        3
176
     1
 62
     5
420
      255
176
     1
290
     0
176
     1
 90
       50
176
     1
 90
       50
176
     1
 90
       50
176
     1
290
     0
176
     1
 90
       50
176
     1
 62
   256
176
     0
 40
1.0
176
     0
 90
        2
176
     1
  1
strokes_ogs.tif
176
     1
290
     0
176
     1
 40
1.0
176
     1
 40
1.0
176
     1
  0
VISUALSTYLE
  5
10024
102
{ACAD_REACTORS
330
1001B
102
}
330
1001B
100
AcDbVisualStyle
  2

 70
     9
177
     3
291
     0
 70
    58
 90
        3
176
     1
 90
        2
176
     1
 90
        0
176
     1
 90
        0
176
     1
 40
0.6
176
     1
 40
30.0
176
     1
 62
     7
176
     1
 90
        2
176
     1
 90
        2
176
     1
 62
     7
176
     1
 62
   257
176
     1
 90
        1
176
     1
 90
        1
176
     1
 40
179.0
176
     1
 90
        8
176
     1
 62
     7
176
     1
 40
1.0
176
     1
 90
        1
176
     1
 90
        6
176
     1
 90
        2
176
     1
 62
     7
176
     1
 90
        3
176
     1
 90
        0
176
     1
 90
        0
176
     1
290
     0
176
     1
 90
        1
176
     1
 40
0.0
176
     1
 90
        0
176
     1
290
     0
176
     1
290
     1
176
     1
290
     1
176
     1
290
     0
176
     1
290
     0
176
     1
290
     0
176
     1
290
     0
176
     1
290
     0
176
     1
290
     0
176
     1
 90
       50
176
     1
 40
0.0
176
     1
 40
1.0
176
     1
 90
        0
176
     1
 62
    18
420
        0
176
     1
 90
       50
176
     1
 90
        3
176
     1
 62
     5
420
      255
176
     1
290
     0
176
     1
 90
       50
176
     1
 90
       50
176
     1
 90
       50
176
     1
290
     0
176
     1
 90
       50
176
     1
 62
   256
176
     0
 40
1.0
176
     0
 90
        2
176
     1
  1
strokes_ogs.tif
176
     1
290
     0
176
     1
 40
1.0
176
     1
 40
1.0
176
     1
  0
VISUALSTYLE
  5
10026
102
{ACAD_REACTORS
330
1001B
102
}
330
1001B
100
AcDbVisualStyle
  2

 70
    11
177
     3
291
     1
 70
    58
 90
        2
176
     1
 90
        2
176
     1
 90
        0
176
     1
 90
        0
176
     1
 40
0.6
176
     1
 40
30.0
176
     1
 62
     7
176
     1
 90
        1
176
     1
 90
        4
176
     1
 62
     7
176
     1
 62
   257
176
     1
 90
        1
176
     1
 90
        1
176
     1
 40
1.0
176
     1
 90
        8
176
     1
 62
     7
176
     1
 40
1.0
176
     1
 90
        1
176
     1
 90
        6
176
     1
 90
        2
176
     1
 62
     7
176
     1
 90
        5
176
     1
 90
        0
176
     1
 90
        0
176
     1
290
     0
176
     1
 90
        1
176
     1
 40
-50.0
176
     1
 90
        0
176
     1
290
     0
176
     1
290
     1
176
     1
290
     1
176
     1
290
     0
176
     1
290
     0
176
     1
290
     0
176
     1
290
     0
176
     1
290
     0
176
     1
290
     0
176
     1
 90
       50
176
     1
 40
0.0
176
     1
 40
1.0
176
     1
 90
        0
176
     1
 62
    18
420
        0
176
     1
 90
       50
176
     1
 90
        3
176
     1
 62
     5
420
      255
176
     1
290
     0
176
     1
 90
       50
176
     1
 90
       50
176
     1
 90
       50
176
     1
290
     0
176
     1
 90
       50
176
     1
 62
   256
176
     0
 40
1.0
176
     0
 90
        2
176
     1
  1
strokes_ogs.tif
176
     1
290
     0
176
     1
 40
1.0
176
     1
 40
1.0
176
     1
  0
VISUALSTYLE
  5
10033
102
{ACAD_REACTORS
330
1001B
102
}
330
1001B
100
AcDbVisualStyle
  2

 70
    22
177
     3
291
     1
 70
    58
 90
        2
176
     0
 90
        2
176
     0
 90
        0
176
     0
 90
        0
176
     0
 40
0.6
176
     0
 40
30.0
176
     0
 62
     7
176
     0
 90
        1
176
     0
 90
        4
176
     0
 62
     7
176
     0
 62
   257
176
     0
 90
        1
176
     0
 90
        1
176
     0
 40
1.0
176
     0
 90
        8
176
     2
 62
     7
176
     0
 40
1.0
176
     0
 90
        1
176
     0
 90
        6
176
     0
 90
        2
176
     0
 62
     7
176
     0
 90
        5
176
     0
 90
        0
176
     0
 90
        0
176
     0
290
     0
176
     0
 90
        1
176
     0
 40
0.0
176
     0
 90
        0
176
     0
290
     0
176
     1
290
     1
176
     1
290
     1
176
     1
290
     0
176
     1
290
     0
176
     1
290
     0
176
     1
290
     0
176
     1
290
     0
176
     1
290
     0
176
     1
 90
       50
176
     0
 40
0.0
176
     0
 40
1.0
176
     0
 90
        0
176
     0
 62
    18
420
        0
176
     0
 90
       50
176
     0
 90
        3
176
     0
 62
     5
420
      255
176
     0
290
     0
176
     1
 90
       50
176
     0
 90
       50
176
     0
 90
       50
176
     0
290
     0
176
     1
 90
       50
176
     0
 62
   256
176
     0
 40
1.0
176
     0
 90
        2
176
     0
  1
strokes_ogs.tif
176
     0
290
     0
176
     1
 40
1.0
176
     0
 40
1.0
176
     0
  0
VISUALSTYLE
  5
1002A
102
{ACAD_REACTORS
330
1001B
102
}
330
1001B
100
AcDbVisualStyle
  2

 70
    15
177
     3
291
     1
 70
    58
 90
        2
176
     1
 90
        2
176
     1
 90
        0
176
     1
 90
        0
176
     1
 40
0.6
176
     1
 40
30.0
176
     1
 62
     7
176
     1
 90
        1
176
     1
 90
        4
176
     1
 62
     7
176
     1
 62
   257
176
     1
 90
        1
176
     1
 90
        1
176
     1
 40
1.0
176
     1
 90
        8
176
     1
 62
     7
176
     1
 40
1.0
176
     1
 90
        1
176
     1
 90
        6
176
     1
 90
        2
176
     1
 62
     7
176
     1
 90
        5
176
     1
 90
        0
176
     1
 90
        0
176
     1
290
     0
176
     1
 90
        1
176
     1
 40
0.0
176
     1
 90
        0
176
     1
290
     0
176
     1
290
     1
176
     1
290
     1
176
     1
290
     0
176
     1
290
     0
176
     1
290
     0
176
     1
290
     0
176
     1
290
     0
176
     1
290
     0
176
     1
 90
       50
176
     1
 40
0.0
176
     1
 40
1.0
176
     1
 90
        0
176
     1
 62
    18
420
        0
176
     1
 90
       50
176
     1
 90
        3
176
     1
 62
     5
420
      255
176
     1
290
     0
176
     1
 90
       50
176
     1
 90
       50
176
     1
 90
       50
176
     1
290
     0
176
     1
 90
       50
176
     1
 62
   256
176
     0
 40
1.0
176
     0
 90
        2
176
     1
  1
strokes_ogs.tif
176
     1
290
     0
176
     1
 40
1.0
176
     1
 40
1.0
176
     1
  0
VISUALSTYLE
  5
1001C
102
{ACAD_REACTORS
330
1001B
102
}
330
1001B
100
AcDbVisualStyle
  2

 70
     0
177
     3
291
     1
 70
    58
 90
        2
176
     1
 90
        1
176
     1
 90
        1
176
     1
 90
        2
176
     1
 40
0.6
176
     1
 40
30.0
176
     1
 62
     7
176
     1
 90
        0
176
     1
 90
        0
176
     1
 62
     7
176
     1
 62
   257
176
     1
 90
        1
176
     1
 90
        1
176
     1
 40
1.0
176
     1
 90
        8
176
     1
 62
     7
176
     1
 40
1.0
176
     1
 90
        1
176
     1
 90
        6
176
     1
 90
        2
176
     1
 62
     7
176
     1
 90
        5
176
     1
 90
        0
176
     1
 90
        0
176
     1
290
     0
176
     1
 90
       13
176
     1
 40
0.0
176
     1
 90
        0
176
     1
290
     0
176
     1
290
     1
176
     1
290
     1
176
     1
290
     0
176
     1
290
     0
176
     1
290
     0
176
     1
290
     0
176
     1
290
     0
176
     1
290
     0
176
     1
 90
       50
176
     1
 40
0.0
176
     1
 40
1.0
176
     1
 90
        0
176
     1
 62
    18
420
        0
176
     1
 90
       50
176
     1
 90
        3
176
     1
 62
     5
420
      255
176
     1
290
     0
176
     1
 90
       50
176
     1
 90
       50
176
     1
 90
       50
176
     1
290
     0
176
     1
 90
       50
176
     1
 62
   256
176
     0
 40
1.0
176
     0
 90
        2
176
     1
  1
strokes_ogs.tif
176
     1
290
     0
176
     1
 40
1.0
176
     1
 40
1.0
176
     1
  0
VISUALSTYLE
  5
1001D
102
{ACAD_REACTORS
330
1001B
102
}
330
1001B
100
AcDbVisualStyle
  2

 70
     1
177
     3
291
     1
 70
    58
 90
        2
176
     1
 90
        1
176
     1
 90
        1
176
     1
 90
        2
176
     1
 40
0.6
176
     1
 40
30.0
176
     1
 62
     7
176
     1
 90
        1
176
     1
 90
        0
176
     1
 62
     7
176
     1
 62
   257
176
     1
 90
        1
176
     1
 90
        1
176
     1
 40
1.0
176
     1
 90
        0
176
     1
 62
   257
176
     1
 40
1.0
176
     1
 90
        1
176
     1
 90
        6
176
     1
 90
        2
176
     1
 62
     7
176
     1
 90
        5
176
     1
 90
        0
176
     1
 90
        0
176
     1
290
     0
176
     1
 90
       13
176
     1
 40
0.0
176
     1
 90
        0
176
     1
290
     0
176
     1
290
     1
176
     1
290
     1
176
     1
290
     0
176
     1
290
     0
176
     1
290
     0
176
     1
290
     0
176
     1
290
     0
176
     1
290
     0
176
     1
 90
       50
176
     1
 40
0.0
176
     1
 40
1.0
176
     1
 90
        0
176
     1
 62
    18
420
        0
176
     1
 90
       50
176
     1
 90
        3
176
     1
 62
     5
420
      255
176
     1
290
     0
176
     1
 90
       50
176
     1
 90
       50
176
     1
 90
       50
176
     1
290
     0
176
     1
 90
       50
176
     1
 62
   256
176
     0
 40
1.0
176
     0
 90
        2
176
     1
  1
strokes_ogs.tif
176
     1
290
     0
176
     1
 40
1.0
176
     1
 40
1.0
176
     1
  0
VISUALSTYLE
  5
1001E
102
{ACAD_REACTORS
330
1001B
102
}
330
1001B
100
AcDbVisualStyle
  2

 70
     2
177
     3
291
     1
 70
    58
 90
        2
176
     1
 90
        2
176
     1
 90
        1
176
     1
 90
        2
176
     1
 40
0.6
176
     1
 40
30.0
176
     1
 62
     7
176
     1
 90
        0
176
     1
 90
        0
176
     1
 62
     7
176
     1
 62
   257
176
     1
 90
        1
176
     1
 90
        1
176
     1
 40
1.0
176
     1
 90
        0
176
     1
 62
     7
176
     1
 40
1.0
176
     1
 90
        1
176
     1
 90
        6
176
     1
 90
        2
176
     1
 62
     7
176
     1
 90
        5
176
     1
 90
        0
176
     1
 90
        0
176
     1
290
     0
176
     1
 90
       13
176
     1
 40
0.0
176
     1
 90
        0
176
     1
290
     0
176
     1
290
     1
176
     1
290
     1
176
     1
290
     0
176
     1
290
     0
176
     1
290
     0
176
     1
290
     0
176
     1
290
     0
176
     1
290
     0
176
     1
 90
       50
176
     1
 40
0.0
176
     1
 40
1.0
176
     1
 90
        0
176
     1
 62
    18
420
        0
176
     1
 90
       50
176
     1
 90
        3
176
     1
 62
     5
420
      255
176
     1
290
     0
176
     1
 90
       50
176
     1
 90
       50
176
     1
 90
       50
176
     1
290
     0
176
     1
 90
       50
176
     1
 62
   256
176
     0
 40
1.0
176
     0
 90
        2
176
     1
  1
strokes_ogs.tif
176
     1
290
     0
176
     1
 40
1.0
176
     1
 40
1.0
176
     1
  0
VISUALSTYLE
  5
1001F
102
{ACAD_REACTORS
330
1001B
102
}
330
1001B
100
AcDbVisualStyle
  2

 70
     3
177
     3
291
     1
 70
    58
 90
        2
176
     1
 90
        2
176
     1
 90
        1
176
     1
 90
        2
176
     1
 40
0.6
176
     1
 40
30.0
176
     1
 62
     7
176
     1
 90
        1
176
     1
 90
        0
176
     1
 62
     7
176
     1
 62
   257
176
     1
 90
        1
176
     1
 90
        1
176
     1
 40
1.0
176
     1
 90
        0
176
     1
 62
   257
176
     1
 40
1.0
176
     1
 90
        1
176
     1
 90
        6
176
     1
 90
        2
176
     1
 62
     7
176
     1
 90
        5
176
     1
 90
        0
176
     1
 90
        0
176
     1
290
     0
176
     1
 90
       13
176
     1
 40
0.0
176
     1
 90
        0
176
     1
290
     0
176
     1
290
     1
176
     1
290
     1
176
     1
290
     0
176
     1
290
     0
176
     1
290
     0
176
     1
290
     0
176
     1
290
     0
176
     1
290
     0
176
     1
 90
       50
176
     1
 40
0.0
176
     1
 40
1.0
176
     1
 90
        0
176
     1
 62
    18
420
        0
176
     1
 90
       50
176
     1
 90
        3
176
     1
 62
     5
420
      255
176
     1
290
     0
176
     1
 90
       50
176
     1
 90
       50
176
     1
 90
       50
176
     1
290
     0
176
     1
 90
       50
176
     1
 62
   256
176
     0
 40
1.0
176
     0
 90
        2
176
     1
  1
strokes_ogs.tif
176
     1
290
     0
176
     1
 40
1.0
176
     1
 40
1.0
176
     1
  0
VISUALSTYLE
  5
10023
102
{ACAD_REACTORS
330
1001B
102
}
330
1001B
100
AcDbVisualStyle
  2

 70
     6
177
     3
291
     0
 70
    58
 90
        1
176
     1
 90
        2
176
     1
 90
        2
176
     1
 90
        0
176
     1
 40
0.6
176
     1
 40
30.0
176
     1
 62
     7
176
     1
 90
        2
176
     1
 90
        2
176
     1
 62
     7
176
     1
 62
   257
176
     1
 90
        2
176
     1
 90
        1
176
     1
 40
40.0
176
     1
 90
        0
176
     1
 62
   257
176
     1
 40
1.0
176
     1
 90
        1
176
     1
 90
        6
176
     1
 90
        2
176
     1
 62
     7
176
     1
 90
        3
176
     1
 90
        0
176
     1
 90
        0
176
     1
290
     0
176
     1
 90
        1
176
     1
 40
0.0
176
     1
 90
        0
176
     1
290
     0
176
     1
290
     1
176
     1
290
     1
176
     1
290
     0
176
     1
290
     0
176
     1
290
     0
176
     1
290
     0
176
     1
290
     0
176
     1
290
     0
176
     1
 90
       50
176
     1
 40
0.0
176
     1
 40
1.0
176
     1
 90
        0
176
     1
 62
    18
420
        0
176
     1
 90
       50
176
     1
 90
        3
176
     1
 62
     5
420
      255
176
     1
290
     0
176
     1
 90
       50
176
     1
 90
       50
176
     1
 90
       50
176
     1
290
     0
176
     1
 90
       50
176
     1
 62
   256
176
     0
 40
1.0
176
     0
 90
        2
176
     1
  1
strokes_ogs.tif
176
     1
290
     0
176
     1
 40
1.0
176
     1
 40
1.0
176
     1
  0
VISUALSTYLE
  5
10031
102
{ACAD_REACTORS
330
1001B
102
}
330
1001B
100
AcDbVisualStyle
  2

 70
    20
177
     3
291
     1
 70
    58
 90
        2
176
     0
 90
        2
176
     0
 90
        0
176
     0
 90
        0
176
     0
 40
0.6
176
     0
 40
30.0
176
     0
 62
     7
176
     0
 90
        1
176
     0
 90
        4
176
     0
 62
     7
176
     0
 62
   257
176
     0
 90
        1
176
     0
 90
        1
176
     0
 40
1.0
176
     0
 90
       10
176
     2
 62
     7
176
     0
 40
1.0
176
     0
 90
        1
176
     0
 90
        6
176
     0
 90
        2
176
     0
 62
     7
176
     0
 90
        5
176
     0
 90
        0
176
     0
 90
        0
176
     0
290
     0
176
     0
 90
        1
176
     0
 40
0.0
176
     0
 90
        0
176
     0
290
     0
176
     1
290
     1
176
     1
290
     1
176
     1
290
     0
176
     1
290
     0
176
     1
290
     0
176
     1
290
     0
176
     1
290
     0
176
     1
290
     0
176
     1
 90
       50
176
     0
 40
0.0
176
     0
 40
1.0
176
     0
 90
        0
176
     0
 62
    18
420
        0
176
     0
 90
       50
176
     0
 90
        3
176
     0
 62
     5
420
      255
176
     0
290
     0
176
     1
 90
       50
176
     0
 90
       50
176
     0
 90
       50
176
     0
290
     0
176
     1
 90
       50
176
     0
 62
   256
176
     0
 40
1.0
176
     0
 90
        2
176
     0
  1
strokes_ogs.tif
176
     0
290
     0
176
     1
 40
1.0
176
     0
 40
1.0
176
     0
  0
VISUALSTYLE
  5
10029
102
{ACAD_REACTORS
330
1001B
102
}
330
1001B
100
AcDbVisualStyle
  2

 70
    14
177
     3
291
     1
 70
    58
 90
        2
176
     1
 90
        2
176
     1
 90
        0
176
     1
 90
        0
176
     1
 40
0.6
176
     1
 40
30.0
176
     1
 62
     7
176
     1
 90
        1
176
     1
 90
        4
176
     1
 62
     7
176
     1
 62
   257
176
     1
 90
        7
176
     1
 90
        7
176
     1
 40
1.0
176
     1
 90
        8
176
     1
 62
     7
176
     1
 40
1.0
176
     1
 90
        1
176
     1
 90
        6
176
     1
 90
        2
176
     1
 62
     7
176
     1
 90
        5
176
     1
 90
        0
176
     1
 90
        0
176
     1
290
     0
176
     1
 90
        1
176
     1
 40
0.0
176
     1
 90
        0
176
     1
290
     0
176
     1
290
     1
176
     1
290
     1
176
     1
290
     0
176
     1
290
     0
176
     1
290
     0
176
     1
290
     0
176
     1
290
     0
176
     1
290
     0
176
     1
 90
       50
176
     1
 40
0.0
176
     1
 40
1.0
176
     1
 90
        0
176
     1
 62
    18
420
        0
176
     1
 90
       50
176
     1
 90
        3
176
     1
 62
     5
420
      255
176
     1
290
     0
176
     1
 90
       50
176
     1
 90
       50
176
     1
 90
       50
176
     1
290
     0
176
     1
 90
       50
176
     1
 62
   256
176
     0
 40
1.0
176
     0
 90
        2
176
     1
  1
strokes_ogs.tif
176
     1
290
     0
176
     1
 40
1.0
176
     1
 40
1.0
176
     1
  0
VISUALSTYLE
  5
10032
102
{ACAD_REACTORS
330
1001B
102
}
330
1001B
100
AcDbVisualStyle
  2

 70
    21
177
     3
291
     1
 70
    58
 90
        2
176
     0
 90
        2
176
     0
 90
        0
176
     0
 90
        0
176
     0
 40
0.6
176
     0
 40
30.0
176
     0
 62
     7
176
     0
 90
        1
176
     0
 90
        4
176
     0
 62
     7
176
     0
 62
   257
176
     0
 90
        1
176
     0
 90
        1
176
     0
 40
1.0
176
     0
 90
        9
176
     2
 62
     7
176
     0
 40
1.0
176
     0
 90
        1
176
     0
 90
        6
176
     0
 90
        2
176
     0
 62
     7
176
     0
 90
        5
176
     0
 90
        0
176
     0
 90
        0
176
     0
290
     0
176
     0
 90
        1
176
     0
 40
0.0
176
     0
 90
        0
176
     0
290
     0
176
     1
290
     1
176
     1
290
     1
176
     1
290
     0
176
     1
290
     0
176
     1
290
     0
176
     1
290
     0
176
     1
290
     0
176
     1
290
     0
176
     1
 90
       50
176
     0
 40
0.0
176
     0
 40
1.0
176
     0
 90
        0
176
     0
 62
    18
420
        0
176
     0
 90
       50
176
     0
 90
        3
176
     0
 62
     5
420
      255
176
     0
290
     0
176
     1
 90
       50
176
     0
 90
       50
176
     0
 90
       50
176
     0
290
     0
176
     1
 90
       50
176
     0
 62
   256
176
     0
 40
1.0
176
     0
 90
        2
176
     0
  1
strokes_ogs.tif
176
     0
290
     0
176
     1
 40
1.0
176
     0
 40
1.0
176
     0
  0
VISUALSTYLE
  5
10025
102
{ACAD_REACTORS
330
1001B
102
}
330
1001B
100
AcDbVisualStyle
  2

 70
     8
177
     3
291
     0
 70
    58
 90
        2
176
     1
 90
        2
176
     1
 90
        0
176
     1
 90
        2
176
     1
 40
0.6
176
     1
 40
30.0
176
     1
 62
     7
176
     1
 90
        0
176
     1
 90
        0
176
     1
 62
     7
176
     1
 62
   257
176
     1
 90
        1
176
     1
 90
        1
176
     1
 40
1.0
176
     1
 90
        8
176
     1
 62
   257
176
     1
 40
1.0
176
     1
 90
        1
176
     1
 90
        6
176
     1
 90
        2
176
     1
 62
     7
176
     1
 90
        3
176
     1
 90
        0
176
     1
 90
        0
176
     1
290
     0
176
     1
 90
       13
176
     1
 40
0.0
176
     1
 90
        0
176
     1
290
     0
176
     1
290
     1
176
     1
290
     1
176
     1
290
     0
176
     1
290
     0
176
     1
290
     0
176
     1
290
     0
176
     1
290
     0
176
     1
290
     0
176
     1
 90
       50
176
     1
 40
0.0
176
     1
 40
1.0
176
     1
 90
        0
176
     1
 62
    18
420
        0
176
     1
 90
       50
176
     1
 90
        3
176
     1
 62
     5
420
      255
176
     1
290
     0
176
     1
 90
       50
176
     1
 90
       50
176
     1
 90
       50
176
     1
290
     0
176
     1
 90
       50
176
     1
 62
   256
176
     0
 40
1.0
176
     0
 90
        2
176
     1
  1
strokes_ogs.tif
176
     1
290
     0
176
     1
 40
1.0
176
     1
 40
1.0
176
     1
  0
VISUALSTYLE
  5
10030
102
{ACAD_REACTORS
330
1001B
102
}
330
1001B
100
AcDbVisualStyle
  2

 70
    27
177
     3
291
     0
 70
    58
 90
        2
176
     1
 90
        2
176
     1
 90
        1
176
     1
 90
        2
176
     1
 40
0.6
176
     1
 40
30.0
176
     1
 62
     7
176
     1
 90
        0
176
     1
 90
        4
176
     1
 62
     7
176
     1
 62
   257
176
     1
 90
        1
176
     1
 90
        1
176
     1
 40
1.0
176
     1
 90
        8
176
     1
 62
   257
176
     1
 40
1.0
176
     1
 90
        1
176
     1
 90
        6
176
     1
 90
        2
176
     1
 62
     8
176
     1
 90
        3
176
     1
 90
        0
176
     1
 90
        0
176
     1
290
     0
176
     1
 90
        5
176
     1
 40
0.0
176
     1
 90
        0
176
     1
290
     0
176
     1
290
     1
176
     1
290
     1
176
     1
290
     0
176
     1
290
     0
176
     1
290
     0
176
     1
290
     0
176
     1
290
     0
176
     1
290
     0
176
     1
 90
       50
176
     1
 40
0.0
176
     1
 40
1.0
176
     1
 90
        0
176
     1
 62
    18
420
        0
176
     1
 90
       50
176
     1
 90
        3
176
     1
 62
     5
420
      255
176
     1
290
     0
176
     1
 90
       50
176
     1
 90
       50
176
     1
 90
       50
176
     1
290
     0
176
     1
 90
       50
176
     1
 62
   256
176
     0
 40
1.0
176
     0
 90
        2
176
     1
  1
strokes_ogs.tif
176
     1
290
     0
176
     1
 40
1.0
176
     1
 40
1.0
176
     1
  0
VISUALSTYLE
  5
1002F
102
{ACAD_REACTORS
330
1001B
102
}
330
1001B
100
AcDbVisualStyle
  2

 70
    26
177
     3
291
     0
 70
    58
 90
        2
176
     1
 90
        2
176
     1
 90
        1
176
     1
 90
        2
176
     1
 40
0.6
176
     1
 40
30.0
176
     1
 62
     7
176
     1
 90
        1
176
     1
 90
        2
176
     1
 62
     7
176
     1
 62
   257
176
     1
 90
        2
176
     1
 90
        1
176
     1
 40
1.0
176
     1
 90
        8
176
     1
 62
   257
176
     1
 40
1.0
176
     1
 90
        1
176
     1
 90
        6
176
     1
 90
        2
176
     1
 62
     7
176
     1
 90
        3
176
     1
 90
        0
176
     1
 90
        0
176
     1
290
     0
176
     1
 90
        5
176
     1
 40
0.0
176
     1
 90
        0
176
     1
290
     0
176
     1
290
     1
176
     1
290
     1
176
     1
290
     0
176
     1
290
     0
176
     1
290
     0
176
     1
290
     0
176
     1
290
     0
176
     1
290
     0
176
     1
 90
       50
176
     1
 40
0.0
176
     1
 40
1.0
176
     1
 90
        0
176
     1
 62
    18
420
        0
176
     1
 90
       50
176
     1
 90
        3
176
     1
 62
     5
420
      255
176
     1
290
     0
176
     1
 90
       50
176
     1
 90
       50
176
     1
 90
       50
176
     1
290
     0
176
     1
 90
       50
176
     1
 62
   256
176
     0
 40
1.0
176
     0
 90
        2
176
     1
  1
strokes_ogs.tif
176
     1
290
     0
176
     1
 40
1.0
176
     1
 40
1.0
176
     1
  0
VISUALSTYLE
  5
1002C
102
{ACAD_REACTORS
330
1001B
102
}
330
1001B
100
AcDbVisualStyle
  2

 70
    23
177
     3
291
     0
 70
    58
 90
        2
176
     1
 90
        2
176
     1
 90
        3
176
     1
 90
        0
176
     1
 40
0.6
176
     1
 40
30.0
176
     1
 62
     7
176
     1
 90
        2
176
     1
 90
        2
176
     1
 62
     7
176
     1
 62
     7
176
     1
 90
        1
176
     1
 90
        1
176
     1
 40
40.0
176
     1
 90
        8
176
     1
 62
     7
176
     1
 40
1.0
176
     1
 90
        1
176
     1
 90
        6
176
     1
 90
        2
176
     1
 62
     7
176
     1
 90
        3
176
     1
 90
        0
176
     1
 90
        0
176
     1
290
     0
176
     1
 90
        1
176
     1
 40
0.0
176
     1
 90
        0
176
     1
290
     0
176
     1
290
     1
176
     1
290
     1
176
     1
290
     0
176
     1
290
     0
176
     1
290
     0
176
     1
290
     0
176
     1
290
     0
176
     1
290
     0
176
     1
 90
       50
176
     1
 40
0.0
176
     1
 40
1.0
176
     1
 90
        0
176
     1
 62
    18
420
        0
176
     1
 90
       50
176
     1
 90
        3
176
     1
 62
     5
420
      255
176
     1
290
     0
176
     1
 90
       50
176
     1
 90
       50
176
     1
 90
       50
176
     1
290
     0
176
     1
 90
       50
176
     1
 62
   256
176
     0
 40
1.0
176
     0
 90
        2
176
     1
  1
strokes_ogs.tif
176
     1
290
     0
176
     1
 40
1.0
176
     1
 40
1.0
176
     1
  0
VISUALSTYLE
  5
1002D
102
{ACAD_REACTORS
330
1001B
102
}
330
1001B
100
AcDbVisualStyle
  2

 70
    24
177
     3
291
     0
 70
    58
 90
        1
176
     1
 90
        2
176
     1
 90
        2
176
     1
 90
        0
176
     1
 40
0.6
176
     1
 40
30.0
176
     1
 62
     7
176
     1
 90
        2
176
     1
 90
        2
176
     1
 62
     7
176
     1
 62
     7
176
     1
 90
        1
176
     1
 90
        1
176
     1
 40
40.0
176
     1
 90
       11
176
     1
 62
     7
176
     1
 40
1.0
176
     1
 90
        1
176
     1
 90
        6
176
     1
 90
        2
176
     1
 62
     7
176
     1
 90
        6
176
     1
 90
        0
176
     1
 90
        0
176
     1
290
     0
176
     1
 90
        1
176
     1
 40
0.0
176
     1
 90
        0
176
     1
290
     0
176
     1
290
     1
176
     1
290
     1
176
     1
290
     0
176
     1
290
     0
176
     1
290
     0
176
     1
290
     0
176
     1
290
     0
176
     1
290
     0
176
     1
 90
       50
176
     1
 40
0.0
176
     1
 40
1.0
176
     1
 90
        0
176
     1
 62
    18
420
        0
176
     1
 90
       50
176
     1
 90
        3
176
     1
 62
     5
420
      255
176
     1
290
     0
176
     1
 90
       50
176
     1
 90
       50
176
     1
 90
       50
176
     1
290
     0
176
     1
 90
       50
176
     1
 62
   256
176
     0
 40
1.0
176
     0
 90
        2
176
     1
  1
strokes_ogs.tif
176
     1
290
     0
176
     1
 40
1.0
176
     1
 40
1.0
176
     1
  0
VISUALSTYLE
  5
10028
102
{ACAD_REACTORS
330
1001B
102
}
330
1001B
100
AcDbVisualStyle
  2

 70
    13
177
     3
291
     1
 70
    58
 90
        2
176
     1
 90
        2
176
     1
 90
        0
176
     1
 90
        0
176
     1
 40
0.6
176
     1
 40
30.0
176
     1
 62
     7
176
     1
 90
        1
176
     1
 90
        4
176
     1
 62
     7
176
     1
 62
   257
176
     1
 90
        1
176
     1
 90
        1
176
     1
 40
1.0
176
     1
 90
       12
176
     1
 62
     7
176
     1
 40
1.0
176
     1
 90
        1
176
     1
 90
        6
176
     1
 90
        2
176
     1
 62
     7
176
     1
 90
        5
176
     1
 90
        0
176
     1
 90
        0
176
     1
290
     0
176
     1
 90
        1
176
     1
 40
0.0
176
     1
 90
        0
176
     1
290
     0
176
     1
290
     1
176
     1
290
     1
176
     1
290
     0
176
     1
290
     0
176
     1
290
     0
176
     1
290
     0
176
     1
290
     0
176
     1
290
     0
176
     1
 90
       50
176
     1
 40
0.0
176
     1
 40
1.0
176
     1
 90
        0
176
     1
 62
    18
420
        0
176
     1
 90
       50
176
     1
 90
        3
176
     1
 62
     5
420
      255
176
     1
290
     0
176
     1
 90
       50
176
     1
 90
       50
176
     1
 90
       50
176
     1
290
     0
176
     1
 90
       50
176
     1
 62
   256
176
     0
 40
1.0
176
     0
 90
        2
176
     1
  1
strokes_ogs.tif
176
     1
290
     0
176
     1
 40
1.0
176
     1
 40
1.0
176
     1
  0
VISUALSTYLE
  5
10022
102
{ACAD_REACTORS
330
1001B
102
}
330
1001B
100
AcDbVisualStyle
  2

 70
     5
177
     3
291
     0
 70
    58
 90
        0
176
     1
 90
        2
176
     1
 90
        0
176
     1
 90
        0
176
     1
 40
0.6
176
     1
 40
30.0
176
     1
 62
     7
176
     1
 90
        1
176
     1
 90
        4
176
     1
 62
     7
176
     1
 62
   257
176
     1
 90
        1
176
     1
 90
        1
176
     1
 40
1.0
176
     1
 90
        0
176
     1
 62
   257
176
     1
 40
1.0
176
     1
 90
        1
176
     1
 90
        6
176
     1
 90
        2
176
     1
 62
     7
176
     1
 90
        3
176
     1
 90
        0
176
     1
 90
        0
176
     1
290
     0
176
     1
 90
        1
176
     1
 40
0.0
176
     1
 90
        0
176
     1
290
     0
176
     1
290
     1
176
     1
290
     1
176
     1
290
     0
176
     1
290
     0
176
     1
290
     0
176
     1
290
     0
176
     1
290
     0
176
     1
290
     0
176
     1
 90
       50
176
     1
 40
0.0
176
     1
 40
1.0
176
     1
 90
        0
176
     1
 62
    18
420
        0
176
     1
 90
       50
176
     1
 90
        3
176
     1
 62
     5
420
      255
176
     1
290
     0
176
     1
 90
       50
176
     1
 90
       50
176
     1
 90
       50
176
     1
290
     0
176
     1
 90
       50
176
     1
 62
   256
176
     0
 40
1.0
176
     0
 90
        2
176
     1
  1
strokes_ogs.tif
176
     1
290
     0
176
     1
 40
1.0
176
     1
 40
1.0
176
     1
  0
VISUALSTYLE
  5
1002E
102
{ACAD_REACTORS
330
1001B
102
}
330
1001B
100
AcDbVisualStyle
  2

 70
    25
177
     3
291
     0
 70
    58
 90
        2
176
     1
 90
        2
176
     1
 90
        1
176
     1
 90
        1
176
     1
 40
0.5
176
     1
 40
30.0
176
     1
 62
     7
176
     1
 90
        1
176
     1
 90
        0
176
     1
 62
     7
176
     1
 62
   257
176
     1
 90
        1
176
     1
 90
        1
176
     1
 40
1.0
176
     1
 90
        8
176
     1
 62
     7
176
     1
 40
1.0
176
     1
 90
        1
176
     1
 90
        6
176
     1
 90
        2
176
     1
 62
     7
176
     1
 90
        3
176
     1
 90
        0
176
     1
 90
        0
176
     1
290
     0
176
     1
 90
       13
176
     1
 40
0.0
176
     1
 90
        0
176
     1
290
     0
176
     1
290
     1
176
     1
290
     1
176
     1
290
     0
176
     1
290
     0
176
     1
290
     0
176
     1
290
     0
176
     1
290
     0
176
     1
290
     0
176
     1
 90
       50
176
     1
 40
0.0
176
     1
 40
1.0
176
     1
 90
        0
176
     1
 62
    18
420
        0
176
     1
 90
       50
176
     1
 90
        3
176
     1
 62
     5
420
      255
176
     1
290
     0
176
     1
 90
       50
176
     1
 90
       50
176
     1
 90
       50
176
     1
290
     0
176
     1
 90
       50
176
     1
 62
   256
176
     0
 40
1.0
176
     0
 90
        2
176
     1
  1
strokes_ogs.tif
176
     1
290
     0
176
     1
 40
1.0
176
     1
 40
1.0
176
     1
  0
DICTIONARYVAR
  5
10067
102
{ACAD_REACTORS
330
2D6
102
}
330
2D6
100
DictionaryVariables
280
     0
  1
1:1
  0
DICTIONARYVAR
  5
10064
102
{ACAD_REACTORS
330
2D6
102
}
330
2D6
100
DictionaryVariables
280
     0
  1
STANDARD
  0
DICTIONARYVAR
  5
10063
102
{ACAD_REACTORS
330
2D6
102
}
330
2D6
100
DictionaryVariables
280
     0
  1
STANDARD
  0
DICTIONARYVAR
  5
10065
102
{ACAD_REACTORS
330
2D6
102
}
330
2D6
100
DictionaryVariables
280
     0
  1
Imperial24
  0
DICTIONARYVAR
  5
10066
102
{ACAD_REACTORS
330
2D6
102
}
330
2D6
100
DictionaryVariables
280
     0
  1
Imperial24
  0
DICTIONARYVAR
  5
2D8
330
2D6
100
DictionaryVariables
280
     0
  1
1
  0
DICTIONARYVAR
  5
2D7
330
2D6
100
DictionaryVariables
280
     0
  1
0
  0
DICTIONARYVAR
  5
10069
102
{ACAD_REACTORS
330
2D6
102
}
330
2D6
100
DictionaryVariables
280
     0
  1
0
  0
DICTIONARYVAR
  5
1011082
102
{ACAD_REACTORS
330
2D6
102
}
330
2D6
100
DictionaryVariables
280
     0
  1
1
  0
DICTIONARYVAR
  5
1011083
102
{ACAD_REACTORS
330
2D6
102
}
330
2D6
100
DictionaryVariables
280
     0
  1
15
  0
DICTIONARYVAR
  5
1011081
102
{ACAD_REACTORS
330
2D6
102
}
330
2D6
100
DictionaryVariables
280
     0
  1
0
  0
DICTIONARYVAR
  5
1011080
102
{ACAD_REACTORS
330
2D6
102
}
330
2D6
100
DictionaryVariables
280
     0
  1
0
  0
DICTIONARYVAR
  5
10068
102
{ACAD_REACTORS
330
2D6
102
}
330
2D6
100
DictionaryVariables
280
     0
  1
127
  0
DICTIONARY
  5
101107D
330
1004E
100
AcDbDictionary
280
     1
281
     1
  3
ACAD_XREC_ROUNDTRIP
360
10113CC
  0
DICTIONARY
  5
1000C
330
1000B
100
AcDbDictionary
280
     1
281
     1
  3
BUMPTILE
360
1000E
  3
DIFFUSETILE
360
1000D
  3
OPACITYTILE
360
10011
  3
REFLECTIONTILE
360
10010
  3
REFRACTIONTILE
360
10012
  3
SPECULARTILE
360
1000F
  0
DICTIONARY
  5
10004
330
10003
100
AcDbDictionary
280
     1
281
     1
  3
BUMPTILE
360
10006
  3
DIFFUSETILE
360
10005
  3
OPACITYTILE
360
10009
  3
REFLECTIONTILE
360
10008
  3
REFRACTIONTILE
360
1000A
  3
SPECULARTILE
360
10007
  0
DICTIONARY
  5
10014
330
10013
100
AcDbDictionary
280
     1
281
     1
  3
BUMPTILE
360
10016
  3
DIFFUSETILE
360
10015
  3
OPACITYTILE
360
10019
  3
REFLECTIONTILE
360
10018
  3
REFRACTIONTILE
360
1001A
  3
SPECULARTILE
360
10017
  0
DICTIONARY
  5
101107B
330
1004C
100
AcDbDictionary
280
     1
281
     1
  3
ACAD_XREC_ROUNDTRIP
360
10113CB
  0
DICTIONARY
  5
1006C
330
10036
100
AcDbDictionary
280
     1
281
     1
  3
ACAD_ROUNDTRIP_2008_TABLESTYLE_CELLSTYLEMAP
360
10113CA
  0
XRECORD
  5
10113CC
102
{ACAD_REACTORS
330
101107D
102
}
330
101107D
100
AcDbXrecord
280
     1
102
DISPLAYNAME
  1
Imperial24
102
FLAGS
 90
        0
  0
XRECORD
  5
1000E
102
{ACAD_REACTORS
330
1000C
102
}
330
1000C
100
AcDbXrecord
280
     1
270
     1
271
     1
  0
XRECORD
  5
1000D
102
{ACAD_REACTORS
330
1000C
102
}
330
1000C
100
AcDbXrecord
280
     1
270
     1
271
     1
  0
XRECORD
  5
10011
102
{ACAD_REACTORS
330
1000C
102
}
330
1000C
100
AcDbXrecord
280
     1
270
     1
271
     1
  0
XRECORD
  5
10010
102
{ACAD_REACTORS
330
1000C
102
}
330
1000C
100
AcDbXrecord
280
     1
270
     1
271
     1
  0
XRECORD
  5
10012
102
{ACAD_REACTORS
330
1000C
102
}
330
1000C
100
AcDbXrecord
280
     1
270
     1
271
     1
  0
XRECORD
  5
1000F
102
{ACAD_REACTORS
330
1000C
102
}
330
1000C
100
AcDbXrecord
280
     1
270
     1
271
     1
  0
XRECORD
  5
10006
102
{ACAD_REACTORS
330
10004
102
}
330
10004
100
AcDbXrecord
280
     1
270
     1
271
     1
  0
XRECORD
  5
10005
102
{ACAD_REACTORS
330
10004
102
}
330
10004
100
AcDbXrecord
280
     1
270
     1
271
     1
  0
XRECORD
  5
10009
102
{ACAD_REACTORS
330
10004
102
}
330
10004
100
AcDbXrecord
280
     1
270
     1
271
     1
  0
XRECORD
  5
10008
102
{ACAD_REACTORS
330
10004
102
}
330
10004
100
AcDbXrecord
280
     1
270
     1
271
     1
  0
XRECORD
  5
1000A
102
{ACAD_REACTORS
330
10004
102
}
330
10004
100
AcDbXrecord
280
     1
270
     1
271
     1
  0
XRECORD
  5
10007
102
{ACAD_REACTORS
330
10004
102
}
330
10004
100
AcDbXrecord
280
     1
270
     1
271
     1
  0
XRECORD
  5
10016
102
{ACAD_REACTORS
330
10014
102
}
330
10014
100
AcDbXrecord
280
     1
270
     1
271
     1
  0
XRECORD
  5
10015
102
{ACAD_REACTORS
330
10014
102
}
330
10014
100
AcDbXrecord
280
     1
270
     1
271
     1
  0
XRECORD
  5
10019
102
{ACAD_REACTORS
330
10014
102
}
330
10014
100
AcDbXrecord
280
     1
270
     1
271
     1
  0
XRECORD
  5
10018
102
{ACAD_REACTORS
330
10014
102
}
330
10014
100
AcDbXrecord
280
     1
270
     1
271
     1
  0
XRECORD
  5
1001A
102
{ACAD_REACTORS
330
10014
102
}
330
10014
100
AcDbXrecord
280
     1
270
     1
271
     1
  0
XRECORD
  5
10017
102
{ACAD_REACTORS
330
10014
102
}
330
10014
100
AcDbXrecord
280
     1
270
     1
271
     1
  0
XRECORD
  5
10113CB
102
{ACAD_REACTORS
330
101107B
102
}
330
101107B
100
AcDbXrecord
280
     1
102
DISPLAYNAME
  1
Imperial24
102
FLAGS
 90
        0
  0
CELLSTYLEMAP
  5
10113CA
102
{ACAD_REACTORS
330
1006C
102
}
330
1006C
100
AcDbCellStyleMap
 90
        3
300
CELLSTYLE
  1
TABLEFORMAT_BEGIN
 90
        5
170
     1
 91
        0
 92
    32768
 62
   257
 93
        1
300
CONTENTFORMAT
  1
CONTENTFORMAT_BEGIN
 90
        0
 91
        0
 92
      512
 93
        0
300

 40
0.0
140
1.0
 94
        5
 62
     0
340
11
144
0.25
309
CONTENTFORMAT_END
171
     1
301
MARGIN
  1
CELLMARGIN_BEGIN
 40
0.06
 40
0.06
 40
0.06
 40
0.06
 40
0.18
 40
0.18
309
CELLMARGIN_END
 94
        6
 95
        1
302
GRIDFORMAT
  1
GRIDFORMAT_BEGIN
 90
        0
 91
        1
 62
     0
 92
       -2
340
0
 93
        0
 40
0.045
309
GRIDFORMAT_END
 95
        2
302
GRIDFORMAT
  1
GRIDFORMAT_BEGIN
 90
        0
 91
        1
 62
     0
 92
       -2
340
0
 93
        0
 40
0.045
309
GRIDFORMAT_END
 95
        4
302
GRIDFORMAT
  1
GRIDFORMAT_BEGIN
 90
        0
 91
        1
 62
     0
 92
       -2
340
0
 93
        0
 40
0.045
309
GRIDFORMAT_END
 95
        8
302
GRIDFORMAT
  1
GRIDFORMAT_BEGIN
 90
        0
 91
        1
 62
     0
 92
       -2
340
0
 93
        0
 40
0.045
309
GRIDFORMAT_END
 95
       16
302
GRIDFORMAT
  1
GRIDFORMAT_BEGIN
 90
        0
 91
        1
 62
     0
 92
       -2
340
0
 93
        0
 40
0.045
309
GRIDFORMAT_END
 95
       32
302
GRIDFORMAT
  1
GRIDFORMAT_BEGIN
 90
        0
 91
        1
 62
     0
 92
       -2
340
0
 93
        0
 40
0.045
309
GRIDFORMAT_END
309
TABLEFORMAT_END
  1
CELLSTYLE_BEGIN
 90
        1
 91
        1
300
_TITLE
309
CELLSTYLE_END
300
CELLSTYLE
  1
TABLEFORMAT_BEGIN
 90
        5
170
     1
 91
        0
 92
        0
 62
   257
 93
        1
300
CONTENTFORMAT
  1
CONTENTFORMAT_BEGIN
 90
        0
 91
        0
 92
      512
 93
        0
300

 40
0.0
140
1.0
 94
        5
 62
     0
340
11
144
0.18
309
CONTENTFORMAT_END
171
     1
301
MARGIN
  1
CELLMARGIN_BEGIN
 40
0.06
 40
0.06
 40
0.06
 40
0.06
 40
0.18
 40
0.18
309
CELLMARGIN_END
 94
        6
 95
        1
302
GRIDFORMAT
  1
GRIDFORMAT_BEGIN
 90
        0
 91
        1
 62
     0
 92
       -2
340
0
 93
        0
 40
0.045
309
GRIDFORMAT_END
 95
        2
302
GRIDFORMAT
  1
GRIDFORMAT_BEGIN
 90
        0
 91
        1
 62
     0
 92
       -2
340
0
 93
        0
 40
0.045
309
GRIDFORMAT_END
 95
        4
302
GRIDFORMAT
  1
GRIDFORMAT_BEGIN
 90
        0
 91
        1
 62
     0
 92
       -2
340
0
 93
        0
 40
0.045
309
GRIDFORMAT_END
 95
        8
302
GRIDFORMAT
  1
GRIDFORMAT_BEGIN
 90
        0
 91
        1
 62
     0
 92
       -2
340
0
 93
        0
 40
0.045
309
GRIDFORMAT_END
 95
       16
302
GRIDFORMAT
  1
GRIDFORMAT_BEGIN
 90
        0
 91
        1
 62
     0
 92
       -2
340
0
 93
        0
 40
0.045
309
GRIDFORMAT_END
 95
       32
302
GRIDFORMAT
  1
GRIDFORMAT_BEGIN
 90
        0
 91
        1
 62
     0
 92
       -2
340
0
 93
        0
 40
0.045
309
GRIDFORMAT_END
309
TABLEFORMAT_END
  1
CELLSTYLE_BEGIN
 90
        2
 91
        1
300
_HEADER
309
CELLSTYLE_END
300
CELLSTYLE
  1
TABLEFORMAT_BEGIN
 90
        5
170
     1
 91
        0
 92
        0
 62
   257
 93
        1
300
CONTENTFORMAT
  1
CONTENTFORMAT_BEGIN
 90
        0
 91
        0
 92
      512
 93
        0
300

 40
0.0
140
1.0
 94
        2
 62
     0
340
11
144
0.18
309
CONTENTFORMAT_END
171
     1
301
MARGIN
  1
CELLMARGIN_BEGIN
 40
0.06
 40
0.06
 40
0.06
 40
0.06
 40
0.18
 40
0.18
309
CELLMARGIN_END
 94
        6
 95
        1
302
GRIDFORMAT
  1
GRIDFORMAT_BEGIN
 90
        0
 91
        1
 62
     0
 92
       -2
340
0
 93
        0
 40
0.045
309
GRIDFORMAT_END
 95
        2
302
GRIDFORMAT
  1
GRIDFORMAT_BEGIN
 90
        0
 91
        1
 62
     0
 92
       -2
340
0
 93
        0
 40
0.045
309
GRIDFORMAT_END
 95
        4
302
GRIDFORMAT
  1
GRIDFORMAT_BEGIN
 90
        0
 91
        1
 62
     0
 92
       -2
340
0
 93
        0
 40
0.045
309
GRIDFORMAT_END
 95
        8
302
GRIDFORMAT
  1
GRIDFORMAT_BEGIN
 90
        0
 91
        1
 62
     0
 92
       -2
340
0
 93
        0
 40
0.045
309
GRIDFORMAT_END
 95
       16
302
GRIDFORMAT
  1
GRIDFORMAT_BEGIN
 90
        0
 91
        1
 62
     0
 92
       -2
340
0
 93
        0
 40
0.045
309
GRIDFORMAT_END
 95
       32
302
GRIDFORMAT
  1
GRIDFORMAT_BEGIN
 90
        0
 91
        1
 62
     0
 92
       -2
340
0
 93
        0
 40
0.045
309
GRIDFORMAT_END
309
TABLEFORMAT_END
  1
CELLSTYLE_BEGIN
 90
        3
 91
        2
300
_DATA
309
CELLSTYLE_END
  0
ENDSEC
  0
EOF
