  0
SECTION
  2
HEADER
  9
$ACADVER
  1
AC1027
  9
$ACADMAINTVER
 70
   125
  9
$DWGCODEPAGE
  3
ANSI_1252
  9
$LASTSAVEDBY
  1
Peter
  9
$REQUIREDVERSIONS
160
                 0
  9
$INSBASE
 10
0.0
 20
0.0
 30
0.0
  9
$EXTMIN
 10
27.74901328601504
 20
23.41500052103271
 30
0.0
  9
$EXTMAX
 10
280.6656799526817
 20
396.9150005210328
 30
0.0
  9
$LIMMIN
 10
0.0
 20
0.0
  9
$LIMMAX
 10
12.0
 20
9.0
  9
$ORTHOMODE
 70
     0
  9
$REGENMODE
 70
     1
  9
$FILLMODE
 70
     1
  9
$QTEXTMODE
 70
     0
  9
$MIRRTEXT
 70
     0
  9
$LTSCALE
 40
1.0
  9
$ATTMODE
 70
     1
  9
$TEXTSIZE
 40
0.2
  9
$TRACEWID
 40
0.05
  9
$TEXTSTYLE
  7
Roman
  9
$CLAYER
  8
0
  9
$CELTYPE
  6
CONTINUOUS
  9
$CECOLOR
 62
   256
  9
$CELTSCALE
 40
1.0
  9
$DISPSILH
 70
     0
  9
$DIMSCALE
 40
1.0
  9
$DIMASZ
 40
0.18
  9
$DIMEXO
 40
0.0625
  9
$DIMDLI
 40
0.38
  9
$DIMRND
 40
0.0
  9
$DIMDLE
 40
0.0
  9
$DIMEXE
 40
0.18
  9
$DIMTP
 40
0.0
  9
$DIMTM
 40
0.0
  9
$DIMTXT
 40
0.18
  9
$DIMCEN
 40
0.09
  9
$DIMTSZ
 40
0.0
  9
$DIMTOL
 70
     0
  9
$DIMLIM
 70
     0
  9
$DIMTIH
 70
     1
  9
$DIMTOH
 70
     1
  9
$DIMSE1
 70
     0
  9
$DIMSE2
 70
     0
  9
$DIMTAD
 70
     0
  9
$DIMZIN
 70
     0
  9
$DIMBLK
  1

  9
$DIMASO
 70
     1
  9
$DIMSHO
 70
     1
  9
$DIMPOST
  1

  9
$DIMAPOST
  1

  9
$DIMALT
 70
     0
  9
$DIMALTD
 70
     2
  9
$DIMALTF
 40
25.4
  9
$DIMLFAC
 40
1.0
  9
$DIMTOFL
 70
     0
  9
$DIMTVP
 40
0.0
  9
$DIMTIX
 70
     0
  9
$DIMSOXD
 70
     0
  9
$DIMSAH
 70
     0
  9
$DIMBLK1
  1

  9
$DIMBLK2
  1

  9
$DIMSTYLE
  2
Standard
  9
$DIMCLRD
 70
     0
  9
$DIMCLRE
 70
     0
  9
$DIMCLRT
 70
     0
  9
$DIMTFAC
 40
1.0
  9
$DIMGAP
 40
0.09
  9
$DIMJUST
 70
     0
  9
$DIMSD1
 70
     0
  9
$DIMSD2
 70
     0
  9
$DIMTOLJ
 70
     1
  9
$DIMTZIN
 70
     0
  9
$DIMALTZ
 70
     0
  9
$DIMALTTZ
 70
     0
  9
$DIMUPT
 70
     0
  9
$DIMDEC
 70
     4
  9
$DIMTDEC
 70
     4
  9
$DIMALTU
 70
     2
  9
$DIMALTTD
 70
     2
  9
$DIMTXSTY
  7
Standard
  9
$DIMAUNIT
 70
     0
  9
$DIMADEC
 70
     0
  9
$DIMALTRND
 40
0.0
  9
$DIMAZIN
 70
     0
  9
$DIMDSEP
 70
    46
  9
$DIMATFIT
 70
     3
  9
$DIMFRAC
 70
     0
  9
$DIMLDRBLK
  1

  9
$DIMLUNIT
 70
     2
  9
$DIMLWD
 70
    -2
  9
$DIMLWE
 70
    -2
  9
$DIMTMOVE
 70
     0
  9
$DIMFXL
 40
1.0
  9
$DIMFXLON
 70
     0
  9
$DIMJOGANG
 40
0.7853981633974483
  9
$DIMTFILL
 70
     0
  9
$DIMTFILLCLR
 70
     0
  9
$DIMARCSYM
 70
     0
  9
$DIMLTYPE
  6

  9
$DIMLTEX1
  6

  9
$DIMLTEX2
  6

  9
$DIMTXTDIRECTION
 70
     0
  9
$LUNITS
 70
     2
  9
$LUPREC
 70
     4
  9
$SKETCHINC
 40
0.1
  9
$FILLETRAD
 40
0.0
  9
$AUNITS
 70
     0
  9
$AUPREC
 70
     0
  9
$MENU
  1
.
  9
$ELEVATION
 40
0.0
  9
$PELEVATION
 40
0.0
  9
$THICKNESS
 40
0.0
  9
$LIMCHECK
 70
     0
  9
$CHAMFERA
 40
0.0
  9
$CHAMFERB
 40
0.0
  9
$CHAMFERC
 40
0.0
  9
$CHAMFERD
 40
0.0
  9
$SKPOLY
 70
     0
  9
$TDCREATE
 40
2458354.663275463
  9
$TDUCREATE
 40
2458354.579942130
  9
$TDUPDATE
 40
2458946.707928241
  9
$TDUUPDATE
 40
2458946.624594907
  9
$TDINDWG
 40
0.0081481481
  9
$TDUSRTIMER
 40
0.0081481481
  9
$USRTIMER
 70
     1
  9
$ANGBASE
 50
0.0
  9
$ANGDIR
 70
     0
  9
$PDMODE
 70
     0
  9
$PDSIZE
 40
0.0
  9
$PLINEWID
 40
0.0
  9
$SPLFRAME
 70
     0
  9
$SPLINETYPE
 70
     6
  9
$SPLINESEGS
 70
     8
  9
$HANDSEED
  5
101160A
  9
$SURFTAB1
 70
     6
  9
$SURFTAB2
 70
     6
  9
$SURFTYPE
 70
     6
  9
$SURFU
 70
     6
  9
$SURFV
 70
     6
  9
$UCSBASE
  2

  9
$UCSNAME
  2

  9
$UCSORG
 10
0.0
 20
0.0
 30
0.0
  9
$UCSXDIR
 10
1.0
 20
0.0
 30
0.0
  9
$UCSYDIR
 10
0.0
 20
1.0
 30
0.0
  9
$UCSORTHOREF
  2

  9
$UCSORTHOVIEW
 70
     0
  9
$UCSORGTOP
 10
0.0
 20
0.0
 30
0.0
  9
$UCSORGBOTTOM
 10
0.0
 20
0.0
 30
0.0
  9
$UCSORGLEFT
 10
0.0
 20
0.0
 30
0.0
  9
$UCSORGRIGHT
 10
0.0
 20
0.0
 30
0.0
  9
$UCSORGFRONT
 10
0.0
 20
0.0
 30
0.0
  9
$UCSORGBACK
 10
0.0
 20
0.0
 30
0.0
  9
$PUCSBASE
  2

  9
$PUCSNAME
  2

  9
$PUCSORG
 10
0.0
 20
0.0
 30
0.0
  9
$PUCSXDIR
 10
1.0
 20
0.0
 30
0.0
  9
$PUCSYDIR
 10
0.0
 20
1.0
 30
0.0
  9
$PUCSORTHOREF
  2

  9
$PUCSORTHOVIEW
 70
     0
  9
$PUCSORGTOP
 10
0.0
 20
0.0
 30
0.0
  9
$PUCSORGBOTTOM
 10
0.0
 20
0.0
 30
0.0
  9
$PUCSORGLEFT
 10
0.0
 20
0.0
 30
0.0
  9
$PUCSORGRIGHT
 10
0.0
 20
0.0
 30
0.0
  9
$PUCSORGFRONT
 10
0.0
 20
0.0
 30
0.0
  9
$PUCSORGBACK
 10
0.0
 20
0.0
 30
0.0
  9
$USERI1
 70
     0
  9
$USERI2
 70
     0
  9
$USERI3
 70
     0
  9
$USERI4
 70
     0
  9
$USERI5
 70
     0
  9
$USERR1
 40
0.0
  9
$USERR2
 40
0.0
  9
$USERR3
 40
0.0
  9
$USERR4
 40
0.0
  9
$USERR5
 40
0.0
  9
$WORLDVIEW
 70
     1
  9
$SHADEDGE
 70
     3
  9
$SHADEDIF
 70
    70
  9
$TILEMODE
 70
     1
  9
$MAXACTVP
 70
    64
  9
$PINSBASE
 10
0.0
 20
0.0
 30
0.0
  9
$PLIMCHECK
 70
     0
  9
$PEXTMIN
 10
1.000000000000000E+20
 20
1.000000000000000E+20
 30
1.000000000000000E+20
  9
$PEXTMAX
 10
-1.000000000000000E+20
 20
-1.000000000000000E+20
 30
-1.000000000000000E+20
  9
$PLIMMIN
 10
0.0
 20
0.0
  9
$PLIMMAX
 10
12.0
 20
9.0
  9
$UNITMODE
 70
     0
  9
$VISRETAIN
 70
     1
  9
$PLINEGEN
 70
     0
  9
$PSLTSCALE
 70
     1
  9
$TREEDEPTH
 70
  3020
  9
$CMLSTYLE
  2
Standard
  9
$CMLJUST
 70
     0
  9
$CMLSCALE
 40
1.0
  9
$PROXYGRAPHICS
 70
     1
  9
$MEASUREMENT
 70
     0
  9
$CELWEIGHT
370
    -1
  9
$ENDCAPS
280
     0
  9
$JOINSTYLE
280
     0
  9
$LWDISPLAY
290
     0
  9
$INSUNITS
 70
     1
  9
$HYPERLINKBASE
  1

  9
$STYLESHEET
  1

  9
$XEDIT
290
     1
  9
$CEPSNTYPE
380
     0
  9
$PSTYLEMODE
290
     1
  9
$FINGERPRINTGUID
  2
{1DB9D1DE-789F-E248-BE97-F7CD108A34F9}
  9
$VERSIONGUID
  2
{71D4A6A3-D2D0-9E46-8192-EAE5A25FCFC6}
  9
$EXTNAMES
290
     1
  9
$PSVPSCALE
 40
0.0
  9
$OLESTARTUP
290
     0
  9
$SORTENTS
280
   127
  9
$INDEXCTL
280
     0
  9
$HIDETEXT
280
     0
  9
$XCLIPFRAME
280
     2
  9
$HALOGAP
280
     0
  9
$OBSCOLOR
 70
   257
  9
$OBSLTYPE
280
     0
  9
$INTERSECTIONDISPLAY
280
     0
  9
$INTERSECTIONCOLOR
 70
   257
  9
$DIMASSOC
280
     1
  9
$PROJECTNAME
  1

  9
$CAMERADISPLAY
290
     0
  9
$LENSLENGTH
 40
50.0
  9
$CAMERAHEIGHT
 40
0.0
  9
$STEPSPERSEC
 40
2.0
  9
$STEPSIZE
 40
6.0
  9
$3DDWFPREC
 40
2.0
  9
$PSOLWIDTH
 40
0.25
  9
$PSOLHEIGHT
 40
4.0
  9
$LOFTANG1
 40
1.570796326794896
  9
$LOFTANG2
 40
1.570796326794896
  9
$LOFTMAG1
 40
0.0
  9
$LOFTMAG2
 40
0.0
  9
$LOFTPARAM
 70
     7
  9
$LOFTNORMALS
280
     1
  9
$LATITUDE
 40
37.795
  9
$LONGITUDE
 40
-122.394
  9
$NORTHDIRECTION
 40
0.0
  9
$TIMEZONE
 70
 -8000
  9
$LIGHTGLYPHDISPLAY
280
     1
  9
$TILEMODELIGHTSYNCH
280
     1
  9
$CMATERIAL
347
10003
  9
$SOLIDHIST
280
     0
  9
$SHOWHIST
280
     1
  9
$DWFFRAME
280
     2
  9
$DGNFRAME
280
     0
  9
$REALWORLDSCALE
290
     1
  9
$INTERFERECOLOR
 62
     1
  9
$INTERFEREOBJVS
345
10025
  9
$INTERFEREVPVS
346
10022
  9
$CSHADOW
280
     0
  9
$SHADOWPLANELOCATION
 40
0.0
  0
ENDSEC
  0
SECTION
  2
CLASSES
  0
CLASS
  1
ACDBDICTIONARYWDFLT
  2
AcDbDictionaryWithDefault
  3
ObjectDBX Classes
 90
        0
 91
        1
280
     0
281
     0
  0
CLASS
  1
DICTIONARYVAR
  2
AcDbDictionaryVar
  3
ObjectDBX Classes
 90
        0
 91
       13
280
     0
281
     0
  0
CLASS
  1
MATERIAL
  2
AcDbMaterial
  3
ObjectDBX Classes
 90
     1153
 91
        3
280
     0
281
     0
  0
CLASS
  1
VISUALSTYLE
  2
AcDbVisualStyle
  3
ObjectDBX Classes
 90
     4095
 91
       24
280
     0
281
     0
  0
CLASS
  1
TABLESTYLE
  2
AcDbTableStyle
  3
ObjectDBX Classes
 90
     4095
 91
        1
280
     0
281
     0
  0
CLASS
  1
SCALE
  2
AcDbScale
  3
ObjectDBX Classes
 90
     1153
 91
       17
280
     0
281
     0
  0
CLASS
  1
MLEADERSTYLE
  2
AcDbMLeaderStyle
  3
ACDB_MLEADERSTYLE_CLASS
 90
     4095
 91
        1
280
     0
281
     0
  0
CLASS
  1
ACDBSECTIONVIEWSTYLE
  2
AcDbSectionViewStyle
  3
ObjectDBX Classes
 90
     1025
 91
        1
280
     0
281
     0
  0
CLASS
  1
ACDBDETAILVIEWSTYLE
  2
AcDbDetailViewStyle
  3
ObjectDBX Classes
 90
     1025
 91
        1
280
     0
281
     0
  0
CLASS
  1
CELLSTYLEMAP
  2
AcDbCellStyleMap
  3
ObjectDBX Classes
 90
     1152
 91
        1
280
     0
281
     0
  0
ENDSEC
  0
SECTION
  2
TABLES
  0
TABLE
  2
VPORT
  5
8
102
{ACAD_XDICTIONARY
360
100FC
102
}
330
0
100
AcDbSymbolTable
 70
     1
1001
ACAD
1000
DbSaveVer
1071
        5
  0
VPORT
  5
30
330
8
100
AcDbSymbolTableRecord
100
AcDbViewportTableRecord
  2
*Active
 70
     0
 10
0.0
 20
0.0
 11
1.0
 21
1.0
 12
154.2132561962742
 22
216.6786908351264
 13
0.0
 23
0.0
 14
0.0
 24
0.0
 15
10.0
 25
10.0
 16
0.0
 26
0.0
 36
1.0
 17
0.0
 27
0.0
 37
0.0
 40
376.2301142982438
 41
2.283154121863799
 42
50.0
 43
0.0
 44
0.0
 50
0.0
 51
0.0
 71
     0
 72
   100
 73
     1
 74
     3
 75
     1
 76
     1
 77
     0
 78
     0
281
     0
 65
     1
110
0.0
120
0.0
130
0.0
111
1.0
121
0.0
131
0.0
112
0.0
122
1.0
132
0.0
 79
     0
146
0.0
348
10021
 60
     3
 61
     5
292
     1
282
     1
141
0.0
142
0.0
 63
   250
421
  3355443
1001
ACAD_NAV_VCDISPLAY
1070
     3
  0
ENDTAB
  0
TABLE
  2
LTYPE
  5
5
330
0
100
AcDbSymbolTable
 70
    23
  0
LTYPE
  5
14
330
5
100
AcDbSymbolTableRecord
100
AcDbLinetypeTableRecord
  2
BYBLOCK
 70
     0
  3

 72
    65
 73
     0
 40
0.0
  0
LTYPE
  5
15
330
5
100
AcDbSymbolTableRecord
100
AcDbLinetypeTableRecord
  2
BYLAYER
 70
     0
  3

 72
    65
 73
     0
 40
0.0
  0
LTYPE
  5
16
330
5
100
AcDbSymbolTableRecord
100
AcDbLinetypeTableRecord
  2
CONTINUOUS
 70
     0
  3
Solid line
 72
    65
 73
     0
 40
0.0
  0
LTYPE
  5
31
330
5
100
AcDbSymbolTableRecord
100
AcDbLinetypeTableRecord
  2
ACAD_ISO02W100
 70
     0
  3
ISO Dashed __ __ __ __ __ __ __ __ __ __ _
 72
    65
 73
     2
 40
15.0
 49
12.0
 74
     0
 49
-3.0
 74
     0
  0
LTYPE
  5
32
330
5
100
AcDbSymbolTableRecord
100
AcDbLinetypeTableRecord
  2
ACAD_ISO03W100
 70
     0
  3
ISO Dashed with Distance __    __    __    _
 72
    65
 73
     2
 40
30.0
 49
12.0
 74
     0
 49
-18.0
 74
     0
  0
LTYPE
  5
33
330
5
100
AcDbSymbolTableRecord
100
AcDbLinetypeTableRecord
  2
ACAD_ISO04W100
 70
     0
  3
ISO Long Dashed Dotted ____ . ____ . __
 72
    65
 73
     4
 40
30.0
 49
24.0
 74
     0
 49
-3.0
 74
     0
 49
0.0
 74
     0
 49
-3.0
 74
     0
  0
LTYPE
  5
34
330
5
100
AcDbSymbolTableRecord
100
AcDbLinetypeTableRecord
  2
ACAD_ISO05W100
 70
     0
  3
ISO Long Dashed Double Dotted ____ .. __
 72
    65
 73
     6
 40
33.0
 49
24.0
 74
     0
 49
-3.0
 74
     0
 49
0.0
 74
     0
 49
-3.0
 74
     0
 49
0.0
 74
     0
 49
-3.0
 74
     0
  0
LTYPE
  5
35
330
5
100
AcDbSymbolTableRecord
100
AcDbLinetypeTableRecord
  2
BORDER
 70
     0
  3
Border __ __ . __ __ . __ __ . __ __ . __ __ .
 72
    65
 73
     6
 40
44.45
 49
12.7
 74
     0
 49
-6.349999999999998
 74
     0
 49
12.7
 74
     0
 49
-6.349999999999998
 74
     0
 49
0.0
 74
     0
 49
-6.349999999999998
 74
     0
  0
LTYPE
  5
36
330
5
100
AcDbSymbolTableRecord
100
AcDbLinetypeTableRecord
  2
BORDER2
 70
     0
  3
Border (.5x) __.__.__.__.__.__.__.__.__.__.__.
 72
    65
 73
     6
 40
22.225
 49
6.349999999999998
 74
     0
 49
-3.174999999999998
 74
     0
 49
6.349999999999998
 74
     0
 49
-3.174999999999998
 74
     0
 49
0.0
 74
     0
 49
-3.174999999999998
 74
     0
  0
LTYPE
  5
37
330
5
100
AcDbSymbolTableRecord
100
AcDbLinetypeTableRecord
  2
BORDERX2
 70
     0
  3
Border (2x) ____  ____  .  ____  ____  .  ___
 72
    65
 73
     6
 40
88.9
 49
25.4
 74
     0
 49
-12.7
 74
     0
 49
25.4
 74
     0
 49
-12.7
 74
     0
 49
0.0
 74
     0
 49
-12.7
 74
     0
  0
LTYPE
  5
38
330
5
100
AcDbSymbolTableRecord
100
AcDbLinetypeTableRecord
  2
CENTER
 70
     0
  3
Center ____ _ ____ _ ____ _ ____ _ ____ _ ____
 72
    65
 73
     4
 40
50.8
 49
31.75
 74
     0
 49
-6.349999999999998
 74
     0
 49
6.349999999999998
 74
     0
 49
-6.349999999999998
 74
     0
  0
LTYPE
  5
39
330
5
100
AcDbSymbolTableRecord
100
AcDbLinetypeTableRecord
  2
CENTER2
 70
     0
  3
Center (.5x) ___ _ ___ _ ___ _ ___ _ ___ _ ___
 72
    65
 73
     4
 40
28.575
 49
19.05
 74
     0
 49
-3.174999999999998
 74
     0
 49
3.174999999999998
 74
     0
 49
-3.174999999999998
 74
     0
  0
LTYPE
  5
3A
330
5
100
AcDbSymbolTableRecord
100
AcDbLinetypeTableRecord
  2
CENTERX2
 70
     0
  3
Center (2x) ________  __  ________  __  _____
 72
    65
 73
     4
 40
101.6
 49
63.5
 74
     0
 49
-12.7
 74
     0
 49
12.7
 74
     0
 49
-12.7
 74
     0
  0
LTYPE
  5
3B
330
5
100
AcDbSymbolTableRecord
100
AcDbLinetypeTableRecord
  2
DASHDOT
 70
     0
  3
Dash dot __ . __ . __ . __ . __ . __ . __ . __
 72
    65
 73
     4
 40
25.4
 49
12.7
 74
     0
 49
-6.349999999999998
 74
     0
 49
0.0
 74
     0
 49
-6.349999999999998
 74
     0
  0
LTYPE
  5
3C
330
5
100
AcDbSymbolTableRecord
100
AcDbLinetypeTableRecord
  2
DASHDOT2
 70
     0
  3
Dash dot (.5x) _._._._._._._._._._._._._._._.
 72
    65
 73
     4
 40
12.7
 49
6.349999999999998
 74
     0
 49
-3.174999999999998
 74
     0
 49
0.0
 74
     0
 49
-3.174999999999998
 74
     0
  0
LTYPE
  5
3D
330
5
100
AcDbSymbolTableRecord
100
AcDbLinetypeTableRecord
  2
DASHDOTX2
 70
     0
  3
Dash dot (2x) ____  .  ____  .  ____  .  ___
 72
    65
 73
     4
 40
50.8
 49
25.4
 74
     0
 49
-12.7
 74
     0
 49
0.0
 74
     0
 49
-12.7
 74
     0
  0
LTYPE
  5
3E
330
5
100
AcDbSymbolTableRecord
100
AcDbLinetypeTableRecord
  2
DASHED
 70
     0
  3
Dashed __ __ __ __ __ __ __ __ __ __ __ __ __ _
 72
    65
 73
     2
 40
19.05
 49
12.7
 74
     0
 49
-6.349999999999998
 74
     0
  0
LTYPE
  5
3F
330
5
100
AcDbSymbolTableRecord
100
AcDbLinetypeTableRecord
  2
DASHED2
 70
     0
  3
Dashed (.5x) _ _ _ _ _ _ _ _ _ _ _ _ _ _ _ _ _
 72
    65
 73
     2
 40
9.525
 49
6.349999999999998
 74
     0
 49
-3.174999999999998
 74
     0
  0
LTYPE
  5
40
330
5
100
AcDbSymbolTableRecord
100
AcDbLinetypeTableRecord
  2
DASHEDX2
 70
     0
  3
Dashed (2x) ____  ____  ____  ____  ____  ___
 72
    65
 73
     2
 40
38.1
 49
25.4
 74
     0
 49
-12.7
 74
     0
  0
LTYPE
  5
41
330
5
100
AcDbSymbolTableRecord
100
AcDbLinetypeTableRecord
  2
DIVIDE
 70
     0
  3
Divide ____ . . ____ . . ____ . . ____ . . ____
 72
    65
 73
     6
 40
31.75
 49
12.7
 74
     0
 49
-6.349999999999998
 74
     0
 49
0.0
 74
     0
 49
-6.349999999999998
 74
     0
 49
0.0
 74
     0
 49
-6.349999999999998
 74
     0
  0
LTYPE
  5
42
330
5
100
AcDbSymbolTableRecord
100
AcDbLinetypeTableRecord
  2
DIVIDE2
 70
     0
  3
Divide (.5x) __..__..__..__..__..__..__..__.._
 72
    65
 73
     6
 40
15.875
 49
6.349999999999998
 74
     0
 49
-3.174999999999998
 74
     0
 49
0.0
 74
     0
 49
-3.174999999999998
 74
     0
 49
0.0
 74
     0
 49
-3.174999999999998
 74
     0
  0
LTYPE
  5
43
330
5
100
AcDbSymbolTableRecord
100
AcDbLinetypeTableRecord
  2
DIVIDEX2
 70
     0
  3
Divide (2x) ________  .  .  ________  .  .  _
 72
    65
 73
     6
 40
63.5
 49
25.4
 74
     0
 49
-12.7
 74
     0
 49
0.0
 74
     0
 49
-12.7
 74
     0
 49
0.0
 74
     0
 49
-12.7
 74
     0
  0
LTYPE
  5
44
330
5
100
AcDbSymbolTableRecord
100
AcDbLinetypeTableRecord
  2
DOT
 70
     0
  3
Dot . . . . . . . . . . . . . . . . . . . . . .
 72
    65
 73
     2
 40
6.349999999999998
 49
0.0
 74
     0
 49
-6.349999999999998
 74
     0
  0
LTYPE
  5
45
330
5
100
AcDbSymbolTableRecord
100
AcDbLinetypeTableRecord
  2
DOT2
 70
     0
  3
Dot (.5x) .....................................
 72
    65
 73
     2
 40
3.174999999999998
 49
0.0
 74
     0
 49
-3.174999999999998
 74
     0
  0
LTYPE
  5
46
330
5
100
AcDbSymbolTableRecord
100
AcDbLinetypeTableRecord
  2
DOTX2
 70
     0
  3
Dot (2x) .  .  .  .  .  .  .  .  .  .  .  .  .
 72
    65
 73
     2
 40
12.7
 49
0.0
 74
     0
 49
-12.7
 74
     0
  0
ENDTAB
  0
TABLE
  2
LAYER
  5
2
102
{ACAD_XDICTIONARY
360
101018B
102
}
330
0
100
AcDbSymbolTable
 70
     5
  0
LAYER
  5
10
102
{ACAD_XDICTIONARY
360
10059
102
}
330
2
100
AcDbSymbolTableRecord
100
AcDbLayerTableRecord
  2
0
 70
     0
 62
   250
  6
CONTINUOUS
370
   100
390
F
347
10013
348
0
  0
LAYER
  5
47
102
{ACAD_XDICTIONARY
360
1005B
102
}
330
2
100
AcDbSymbolTableRecord
100
AcDbLayerTableRecord
  2
H
 70
     0
 62
     7
  6
CONTINUOUS
370
   100
390
F
347
10013
348
0
  0
LAYER
  5
48
102
{ACAD_XDICTIONARY
360
1005D
102
}
330
2
100
AcDbSymbolTableRecord
100
AcDbLayerTableRecord
  2
P
 70
     0
 62
   250
  6
CONTINUOUS
370
   100
390
F
347
10013
348
0
  0
LAYER
  5
49
102
{ACAD_XDICTIONARY
360
1005F
102
}
330
2
100
AcDbSymbolTableRecord
100
AcDbLayerTableRecord
  2
Text
 70
     0
 62
   250
  6
CONTINUOUS
370
   100
390
F
347
10013
348
0
  0
LAYER
  5
4A
102
{ACAD_XDICTIONARY
360
10061
102
}
330
2
100
AcDbSymbolTableRecord
100
AcDbLayerTableRecord
  2
Images
 70
     0
 62
   250
  6
CONTINUOUS
370
   100
390
F
347
10013
348
0
  0
ENDTAB
  0
TABLE
  2
STYLE
  5
3
330
0
100
AcDbSymbolTable
 70
     2
  0
STYLE
  5
11
330
3
100
AcDbSymbolTableRecord
100
AcDbTextStyleTableRecord
  2
Standard
 70
     0
 40
0.0
 41
0.75
 50
0.0
 71
     0
 42
2.5
  3
txt
  4

  0
STYLE
  5
10001
330
3
100
AcDbSymbolTableRecord
100
AcDbTextStyleTableRecord
  2
Roman
 70
     0
 40
0.0
 41
1.0
 50
0.0
 71
     0
 42
0.2
  3

  4

  0
ENDTAB
  0
TABLE
  2
VIEW
  5
6
330
0
100
AcDbSymbolTable
 70
     0
  0
ENDTAB
  0
TABLE
  2
UCS
  5
7
330
0
100
AcDbSymbolTable
 70
     0
  0
ENDTAB
  0
TABLE
  2
APPID
  5
9
330
0
100
AcDbSymbolTable
 70
     4
  0
APPID
  5
12
330
9
100
AcDbSymbolTableRecord
100
AcDbRegAppTableRecord
  2
ACAD
 70
     0
  0
APPID
  5
10052
330
9
100
AcDbSymbolTableRecord
100
AcDbRegAppTableRecord
  2
ACAD_EXEMPT_FROM_CAD_STANDARDS
 70
     0
  0
APPID
  5
1006B
330
9
100
AcDbSymbolTableRecord
100
AcDbRegAppTableRecord
  2
ACAD_NAV_VCDISPLAY
 70
     0
  0
APPID
  5
100AA
330
9
100
AcDbSymbolTableRecord
100
AcDbRegAppTableRecord
  2
ACAD_MLEADERVER
 70
     0
  0
ENDTAB
  0
TABLE
  2
DIMSTYLE
  5
A
330
0
100
AcDbSymbolTable
 70
     1
100
AcDbDimStyleTable
 71
     1
340
27
  0
DIMSTYLE
105
27
330
A
100
AcDbSymbolTableRecord
100
AcDbDimStyleTableRecord
  2
Standard
 70
     0
 41
1.0
 42
1.0
 43
3.75
 44
1.0
 73
     0
 74
     0
 77
     1
 78
     8
140
1.0
141
2.5
143
0.03937007874016
147
1.0
171
     3
172
     1
271
     2
272
     2
274
     3
278
    44
283
     0
284
     8
340
11
  0
ENDTAB
  0
TABLE
  2
BLOCK_RECORD
  5
1
330
0
100
AcDbSymbolTable
 70
     1
  0
BLOCK_RECORD
  5
1F
330
1
100
AcDbSymbolTableRecord
100
AcDbBlockTableRecord
  2
*Model_Space
340
22
 70
     0
280
     1
281
     0
  0
BLOCK_RECORD
  5
1B
330
1
100
AcDbSymbolTableRecord
100
AcDbBlockTableRecord
  2
*Paper_Space
340
1E
 70
     0
280
     1
281
     0
  0
BLOCK_RECORD
  5
23
330
1
100
AcDbSymbolTableRecord
100
AcDbBlockTableRecord
  2
*Paper_Space0
340
26
 70
     0
280
     1
281
     0
  0
ENDTAB
  0
ENDSEC
  0
SECTION
  2
BLOCKS
  0
BLOCK
  5
20
330
1F
100
AcDbEntity
  8
0
100
AcDbBlockBegin
  2
*Model_Space
 70
     0
 10
0.0
 20
0.0
 30
0.0
  3
*Model_Space
  1

  0
ENDBLK
  5
21
330
1F
100
AcDbEntity
  8
0
100
AcDbBlockEnd
  0
BLOCK
  5
1C
330
1B
100
AcDbEntity
 67
     1
  8
0
100
AcDbBlockBegin
  2
*Paper_Space
 70
     0
 10
0.0
 20
0.0
 30
0.0
  3
*Paper_Space
  1

  0
ENDBLK
  5
1D
330
1B
100
AcDbEntity
 67
     1
  8
0
100
AcDbBlockEnd
  0
BLOCK
  5
24
330
23
100
AcDbEntity
 67
     1
  8
0
100
AcDbBlockBegin
  2
*Paper_Space0
 70
     0
 10
0.0
 20
0.0
 30
0.0
  3
*Paper_Space0
  1

  0
ENDBLK
  5
25
330
23
100
AcDbEntity
 67
     1
  8
0
100
AcDbBlockEnd
  0
ENDSEC
  0
SECTION
  2
ENTITIES
  0
MTEXT
  5
52
330
1F
100
AcDbEntity
  8
Text
  6
Continuous
 62
     0
100
AcDbMText
 10
170.5
 20
36.58333333333331
 30
0.0
 40
3.25
 41
3.5
 46
0.0
 71
     4
 72
     5
  1
{\fHelveticaNeueLTPro|b0|i0|c1|p15; }
 73
     2
 44
1.0
  0
MTEXT
  5
64
330
1F
100
AcDbEntity
  8
Text
  6
Continuous
 62
     0
100
AcDbMText
 10
55.16666666666665
 20
52.16666666666668
 30
0.0
 40
3.0
 41
3.25
 46
0.0
 71
     4
 72
     5
  1
{\fHelveticaNeueLTPro|b0|i0|c1|p15; }
 73
     2
 44
1.0
  0
MTEXT
  5
6A
330
1F
100
AcDbEntity
  8
Text
  6
Continuous
 62
     0
100
AcDbMText
 10
65.33333333333333
 20
52.16666666666668
 30
0.0
 40
3.0
 41
3.25
 46
0.0
 71
     4
 72
     5
  1
{\fHelveticaNeueLTPro|b0|i0|c1|p15; }
 73
     2
 44
1.0
  0
MTEXT
  5
6E
330
1F
100
AcDbEntity
  8
Text
  6
Continuous
 62
     0
100
AcDbMText
 10
71.08333333333333
 20
52.16666666666668
 30
0.0
 40
3.0
 41
3.25
 46
0.0
 71
     4
 72
     5
  1
{\fHelveticaNeueLTPro|b0|i0|c1|p15; }
 73
     2
 44
1.0
  0
MTEXT
  5
7B
330
1F
100
AcDbEntity
  8
Text
  6
Continuous
 62
     0
100
AcDbMText
 10
93.16666666666668
 20
52.16666666666668
 30
0.0
 40
3.0
 41
3.25
 46
0.0
 71
     4
 72
     5
  1
{\fHelveticaNeueLTPro|b0|i0|c1|p15; }
 73
     2
 44
1.0
  0
MTEXT
  5
85
330
1F
100
AcDbEntity
  8
Text
  6
Continuous
 62
     0
100
AcDbMText
 10
108.75
 20
52.16666666666668
 30
0.0
 40
3.0
 41
3.25
 46
0.0
 71
     4
 72
     5
  1
{\fHelveticaNeueLTPro|b0|i0|c1|p15; }
 73
     2
 44
1.0
  0
MTEXT
  5
89
330
1F
100
AcDbEntity
  8
Text
  6
Continuous
 62
     0
100
AcDbMText
 10
115.3333333333333
 20
52.16666666666668
 30
0.0
 40
3.0
 41
3.25
 46
0.0
 71
     4
 72
     5
  1
{\fHelveticaNeueLTPro|b0|i0|c1|p15; }
 73
     2
 44
1.0
  0
MTEXT
  5
92
330
1F
100
AcDbEntity
  8
Text
  6
Continuous
 62
     0
100
AcDbMText
 10
128.9166666666666
 20
52.16666666666668
 30
0.0
 40
3.0
 41
3.25
 46
0.0
 71
     4
 72
     5
  1
{\fHelveticaNeueLTPro|b0|i0|c1|p15; }
 73
     2
 44
1.0
  0
MTEXT
  5
98
330
1F
100
AcDbEntity
  8
Text
  6
Continuous
 62
     0
100
AcDbMText
 10
137.75
 20
52.16666666666668
 30
0.0
 40
3.0
 41
3.25
 46
0.0
 71
     4
 72
     5
  1
{\fHelveticaNeueLTPro|b0|i0|c1|p15; }
 73
     2
 44
1.0
  0
MTEXT
  5
E3
330
1F
100
AcDbEntity
  8
Text
  6
Continuous
 62
     7
100
AcDbMText
 10
66.16666666666667
 20
36.41666666666669
 30
0.0
 40
3.75
 41
4.0
 46
0.0
 71
     4
 72
     5
  1
{\fHelveticaNeueLTPro|b0|i0|c1|p15; }
 73
     2
 44
1.0
  0
MTEXT
  5
E7
330
1F
100
AcDbEntity
  8
Text
  6
Continuous
 62
     7
100
AcDbMText
 10
74.33333333333333
 20
36.41666666666669
 30
0.0
 40
3.75
 41
4.0
 46
0.0
 71
     4
 72
     5
  1
{\fHelveticaNeueLTPro|b0|i0|c1|p15; }
 73
     2
 44
1.0
  0
MTEXT
  5
EB
330
1F
100
AcDbEntity
  8
Text
  6
Continuous
 62
     7
100
AcDbMText
 10
82.33333333333332
 20
36.41666666666669
 30
0.0
 40
3.75
 41
4.0
 46
0.0
 71
     4
 72
     5
  1
{\fHelveticaNeueLTPro|b0|i0|c1|p15; }
 73
     2
 44
1.0
  0
MTEXT
  5
F9
330
1F
100
AcDbEntity
  8
Text
  6
Continuous
 62
     0
100
AcDbMText
 10
273.25
 20
389.1666666666666
 30
0.0
 40
3.75
 41
4.0
 46
0.0
 71
     4
 72
     5
  1
{\fHelveticaNeueLTPro|b0|i0|c1|p15; }
 73
     2
 44
1.0
  0
MTEXT
  5
FA
330
1F
100
AcDbEntity
  8
Text
  6
Continuous
 62
     0
100
AcDbMText
 10
177.1666666666666
 20
389.4166666666666
 30
0.0
 40
3.75
 41
4.0
 46
0.0
 71
     4
 72
     5
  1
{\fHelveticaNeueLTPro|b0|i0|c1|p15; }
 73
     2
 44
1.0
  0
HATCH
  5
1011349
330
1F
100
AcDbEntity
  8
H
  6
Continuous
 62
     0
370
     0
100
AcDbHatch
 10
0.0
 20
0.0
 30
0.0
210
0.0
220
0.0
230
1.0
  2
SOLID
 70
     1
 71
     0
 91
        1
 92
        1
 93
        4
 72
     1
 10
115.6656799526817
 20
289.5816671876994
 11
111.8323466193483
 21
288.748333854366
 72
     1
 10
111.8323466193483
 20
288.748333854366
 11
138.749013286015
 21
288.3316671876994
 72
     1
 10
138.749013286015
 20
288.3316671876994
 11
135.4156799526817
 21
289.248333854366
 72
     1
 10
135.4156799526817
 20
289.248333854366
 11
115.6656799526817
 21
289.5816671876994
 97
        0
 75
     0
 76
     1
 98
        0
450
        0
451
        0
460
0.0
461
0.0
452
        0
462
0.0
453
        0
470

  0
MTEXT
  5
101134A
330
1F
100
AcDbEntity
  8
Text
  6
Continuous
 62
     0
370
     0
100
AcDbMText
 10
27.74901328601504
 20
370.8316671876993
 30
0.0
 40
7.75
 41
144.0
 46
0.0
 71
     4
 72
     5
  1
{\fHelveticaNeueLTPro|b0|i0|c1|p15;Detailskizze 3.105}
 73
     2
 44
1.0
  0
MTEXT
  5
101134B
330
1F
100
AcDbEntity
  8
Text
  6
Continuous
 62
     0
370
     0
100
AcDbMText
 10
27.83234661934838
 20
52.1650005210327
 30
0.0
 40
3.0
 41
3.25
 46
0.0
 71
     4
 72
     5
  1
{\fHelveticaNeueLTPro|b0|i0|c1|p15;D}
 73
     2
 44
1.0
  0
MTEXT
  5
101134C
330
1F
100
AcDbEntity
  8
Text
  6
Continuous
 62
     0
370
     0
100
AcDbMText
 10
30.16567995268171
 20
52.1650005210327
 30
0.0
 40
3.0
 41
3.25
 46
0.0
 71
     4
 72
     5
  1
{\fHelveticaNeueLTPro|b0|i0|c1|p15;e}
 73
     2
 44
1.0
  0
MTEXT
  5
101134D
330
1F
100
AcDbEntity
  8
Text
  6
Continuous
 62
     0
370
     0
100
AcDbMText
 10
31.91567995268171
 20
52.1650005210327
 30
0.0
 40
3.0
 41
3.25
 46
0.0
 71
     4
 72
     5
  1
{\fHelveticaNeueLTPro|b0|i0|c1|p15;t}
 73
     2
 44
1.0
  0
MTEXT
  5
101134E
330
1F
100
AcDbEntity
  8
Text
  6
Continuous
 62
     0
370
     0
100
AcDbMText
 10
32.99901328601504
 20
52.1650005210327
 30
0.0
 40
3.0
 41
3.25
 46
0.0
 71
     4
 72
     5
  1
{\fHelveticaNeueLTPro|b0|i0|c1|p15;a}
 73
     2
 44
1.0
  0
MTEXT
  5
101134F
330
1F
100
AcDbEntity
  8
Text
  6
Continuous
 62
     0
370
     0
100
AcDbMText
 10
34.83234661934838
 20
52.1650005210327
 30
0.0
 40
3.0
 41
3.25
 46
0.0
 71
     4
 72
     5
  1
{\fHelveticaNeueLTPro|b0|i0|c1|p15;i}
 73
     2
 44
1.0
  0
MTEXT
  5
1011350
330
1F
100
AcDbEntity
  8
Text
  6
Continuous
 62
     0
370
     0
100
AcDbMText
 10
35.58234661934838
 20
52.1650005210327
 30
0.0
 40
3.0
 41
3.25
 46
0.0
 71
     4
 72
     5
  1
{\fHelveticaNeueLTPro|b0|i0|c1|p15;l}
 73
     2
 44
1.0
  0
MTEXT
  5
1011351
330
1F
100
AcDbEntity
  8
Text
  6
Continuous
 62
     0
370
     0
100
AcDbMText
 10
36.33234661934838
 20
52.1650005210327
 30
0.0
 40
3.0
 41
3.25
 46
0.0
 71
     4
 72
     5
  1
{\fHelveticaNeueLTPro|b0|i0|c1|p15;z}
 73
     2
 44
1.0
  0
MTEXT
  5
1011352
330
1F
100
AcDbEntity
  8
Text
  6
Continuous
 62
     0
370
     0
100
AcDbMText
 10
37.91567995268171
 20
52.1650005210327
 30
0.0
 40
3.0
 41
3.25
 46
0.0
 71
     4
 72
     5
  1
{\fHelveticaNeueLTPro|b0|i0|c1|p15;e}
 73
     2
 44
1.0
  0
MTEXT
  5
1011353
330
1F
100
AcDbEntity
  8
Text
  6
Continuous
 62
     0
370
     0
100
AcDbMText
 10
39.66567995268171
 20
52.1650005210327
 30
0.0
 40
3.0
 41
3.25
 46
0.0
 71
     4
 72
     5
  1
{\fHelveticaNeueLTPro|b0|i0|c1|p15;i}
 73
     2
 44
1.0
  0
MTEXT
  5
1011354
330
1F
100
AcDbEntity
  8
Text
  6
Continuous
 62
     0
370
     0
100
AcDbMText
 10
40.49901328601504
 20
52.1650005210327
 30
0.0
 40
3.0
 41
3.25
 46
0.0
 71
     4
 72
     5
  1
{\fHelveticaNeueLTPro|b0|i0|c1|p15;c}
 73
     2
 44
1.0
  0
MTEXT
  5
1011355
330
1F
100
AcDbEntity
  8
Text
  6
Continuous
 62
     0
370
     0
100
AcDbMText
 10
42.24901328601504
 20
52.1650005210327
 30
0.0
 40
3.0
 41
3.25
 46
0.0
 71
     4
 72
     5
  1
{\fHelveticaNeueLTPro|b0|i0|c1|p15;h}
 73
     2
 44
1.0
  0
MTEXT
  5
1011356
330
1F
100
AcDbEntity
  8
Text
  6
Continuous
 62
     0
370
     0
100
AcDbMText
 10
44.08234661934837
 20
52.1650005210327
 30
0.0
 40
3.0
 41
3.25
 46
0.0
 71
     4
 72
     5
  1
{\fHelveticaNeueLTPro|b0|i0|c1|p15;n}
 73
     2
 44
1.0
  0
MTEXT
  5
1011357
330
1F
100
AcDbEntity
  8
Text
  6
Continuous
 62
     0
370
     0
100
AcDbMText
 10
45.9156799526817
 20
52.1650005210327
 30
0.0
 40
3.0
 41
3.25
 46
0.0
 71
     4
 72
     5
  1
{\fHelveticaNeueLTPro|b0|i0|c1|p15;u}
 73
     2
 44
1.0
  0
MTEXT
  5
1011358
330
1F
100
AcDbEntity
  8
Text
  6
Continuous
 62
     0
370
     0
100
AcDbMText
 10
47.74901328601504
 20
52.1650005210327
 30
0.0
 40
3.0
 41
3.25
 46
0.0
 71
     4
 72
     5
  1
{\fHelveticaNeueLTPro|b0|i0|c1|p15;n}
 73
     2
 44
1.0
  0
MTEXT
  5
1011359
330
1F
100
AcDbEntity
  8
Text
  6
Continuous
 62
     0
370
     0
100
AcDbMText
 10
49.66567995268171
 20
52.1650005210327
 30
0.0
 40
3.0
 41
3.25
 46
0.0
 71
     4
 72
     5
  1
{\fHelveticaNeueLTPro|b0|i0|c1|p15;g}
 73
     2
 44
1.0
  0
MTEXT
  5
101135A
330
1F
100
AcDbEntity
  8
Text
  6
Continuous
 62
     0
370
     0
100
AcDbMText
 10
51.49901328601504
 20
52.1650005210327
 30
0.0
 40
3.0
 41
3.25
 46
0.0
 71
     4
 72
     5
  1
{\fHelveticaNeueLTPro|b0|i0|c1|p15;e}
 73
     2
 44
1.0
  0
MTEXT
  5
101135B
330
1F
100
AcDbEntity
  8
Text
  6
Continuous
 62
     0
370
     0
100
AcDbMText
 10
53.33234661934838
 20
52.1650005210327
 30
0.0
 40
3.0
 41
3.25
 46
0.0
 71
     4
 72
     5
  1
{\fHelveticaNeueLTPro|b0|i0|c1|p15;n}
 73
     2
 44
1.0
  0
MTEXT
  5
101135C
330
1F
100
AcDbEntity
  8
Text
  6
Continuous
 62
     0
370
     0
100
AcDbMText
 10
56.08234661934837
 20
52.1650005210327
 30
0.0
 40
3.0
 41
3.25
 46
0.0
 71
     4
 72
     5
  1
{\fHelveticaNeueLTPro|b0|i0|c1|p15;h}
 73
     2
 44
1.0
  0
MTEXT
  5
101135D
330
1F
100
AcDbEntity
  8
Text
  6
Continuous
 62
     0
370
     0
100
AcDbMText
 10
57.9156799526817
 20
52.1650005210327
 30
0.0
 40
3.0
 41
3.25
 46
0.0
 71
     4
 72
     5
  1
{\fHelveticaNeueLTPro|b0|i0|c1|p15;a}
 73
     2
 44
1.0
  0
MTEXT
  5
101135E
330
1F
100
AcDbEntity
  8
Text
  6
Continuous
 62
     0
370
     0
100
AcDbMText
 10
59.74901328601504
 20
52.1650005210327
 30
0.0
 40
3.0
 41
3.25
 46
0.0
 71
     4
 72
     5
  1
{\fHelveticaNeueLTPro|b0|i0|c1|p15;b}
 73
     2
 44
1.0
  0
MTEXT
  5
101135F
330
1F
100
AcDbEntity
  8
Text
  6
Continuous
 62
     0
370
     0
100
AcDbMText
 10
61.6656799526817
 20
52.1650005210327
 30
0.0
 40
3.0
 41
3.25
 46
0.0
 71
     4
 72
     5
  1
{\fHelveticaNeueLTPro|b0|i0|c1|p15;e}
 73
     2
 44
1.0
  0
MTEXT
  5
1011360
330
1F
100
AcDbEntity
  8
Text
  6
Continuous
 62
     0
370
     0
100
AcDbMText
 10
63.49901328601504
 20
52.1650005210327
 30
0.0
 40
3.0
 41
3.25
 46
0.0
 71
     4
 72
     5
  1
{\fHelveticaNeueLTPro|b0|i0|c1|p15;n}
 73
     2
 44
1.0
  0
MTEXT
  5
1011361
330
1F
100
AcDbEntity
  8
Text
  6
Continuous
 62
     0
370
     0
100
AcDbMText
 10
66.24901328601504
 20
52.1650005210327
 30
0.0
 40
3.0
 41
3.25
 46
0.0
 71
     4
 72
     5
  1
{\fHelveticaNeueLTPro|b0|i0|c1|p15;n}
 73
     2
 44
1.0
  0
MTEXT
  5
1011362
330
1F
100
AcDbEntity
  8
Text
  6
Continuous
 62
     0
370
     0
100
AcDbMText
 10
68.08234661934837
 20
52.1650005210327
 30
0.0
 40
3.0
 41
3.25
 46
0.0
 71
     4
 72
     5
  1
{\fHelveticaNeueLTPro|b0|i0|c1|p15;u}
 73
     2
 44
1.0
  0
MTEXT
  5
1011363
330
1F
100
AcDbEntity
  8
Text
  6
Continuous
 62
     0
370
     0
100
AcDbMText
 10
69.91567995268171
 20
52.1650005210327
 30
0.0
 40
3.0
 41
3.25
 46
0.0
 71
     4
 72
     5
  1
{\fHelveticaNeueLTPro|b0|i0|c1|p15;r}
 73
     2
 44
1.0
  0
MTEXT
  5
1011364
330
1F
100
AcDbEntity
  8
Text
  6
Continuous
 62
     0
370
     0
100
AcDbMText
 10
71.99901328601504
 20
52.1650005210327
 30
0.0
 40
3.0
 41
3.25
 46
0.0
 71
     4
 72
     5
  1
{\fHelveticaNeueLTPro|b0|i0|c1|p15;e}
 73
     2
 44
1.0
  0
MTEXT
  5
1011365
330
1F
100
AcDbEntity
  8
Text
  6
Continuous
 62
     0
370
     0
100
AcDbMText
 10
73.83234661934837
 20
52.1650005210327
 30
0.0
 40
3.0
 41
3.25
 46
0.0
 71
     4
 72
     5
  1
{\fHelveticaNeueLTPro|b0|i0|c1|p15;m}
 73
     2
 44
1.0
  0
MTEXT
  5
1011366
330
1F
100
AcDbEntity
  8
Text
  6
Continuous
 62
     0
370
     0
100
AcDbMText
 10
76.58234661934837
 20
52.1650005210327
 30
0.0
 40
3.0
 41
3.25
 46
0.0
 71
     4
 72
     5
  1
{\fHelveticaNeueLTPro|b0|i0|c1|p15;p}
 73
     2
 44
1.0
  0
MTEXT
  5
1011367
330
1F
100
AcDbEntity
  8
Text
  6
Continuous
 62
     0
370
     0
100
AcDbMText
 10
78.58234661934837
 20
52.1650005210327
 30
0.0
 40
3.0
 41
3.25
 46
0.0
 71
     4
 72
     5
  1
{\fHelveticaNeueLTPro|b0|i0|c1|p15;f}
 73
     2
 44
1.0
  0
MTEXT
  5
1011368
330
1F
100
AcDbEntity
  8
Text
  6
Continuous
 62
     0
370
     0
100
AcDbMText
 10
79.58234661934837
 20
52.1650005210327
 30
0.0
 40
3.0
 41
3.25
 46
0.0
 71
     4
 72
     5
  1
{\fHelveticaNeueLTPro|b0|i0|c1|p15;e}
 73
     2
 44
1.0
  0
MTEXT
  5
1011369
330
1F
100
AcDbEntity
  8
Text
  6
Continuous
 62
     0
370
     0
100
AcDbMText
 10
81.33234661934837
 20
52.1650005210327
 30
0.0
 40
3.0
 41
3.25
 46
0.0
 71
     4
 72
     5
  1
{\fHelveticaNeueLTPro|b0|i0|c1|p15;h}
 73
     2
 44
1.0
  0
MTEXT
  5
101136A
330
1F
100
AcDbEntity
  8
Text
  6
Continuous
 62
     0
370
     0
100
AcDbMText
 10
83.24901328601503
 20
52.1650005210327
 30
0.0
 40
3.0
 41
3.25
 46
0.0
 71
     4
 72
     5
  1
{\fHelveticaNeueLTPro|b0|i0|c1|p15;l}
 73
     2
 44
1.0
  0
MTEXT
  5
101136B
330
1F
100
AcDbEntity
  8
Text
  6
Continuous
 62
     0
370
     0
100
AcDbMText
 10
83.99901328601504
 20
52.1650005210327
 30
0.0
 40
3.0
 41
3.25
 46
0.0
 71
     4
 72
     5
  1
{\fHelveticaNeueLTPro|b0|i0|c1|p15;e}
 73
     2
 44
1.0
  0
MTEXT
  5
101136C
330
1F
100
AcDbEntity
  8
Text
  6
Continuous
 62
     0
370
     0
100
AcDbMText
 10
85.74901328601503
 20
52.1650005210327
 30
0.0
 40
3.0
 41
3.25
 46
0.0
 71
     4
 72
     5
  1
{\fHelveticaNeueLTPro|b0|i0|c1|p15;n}
 73
     2
 44
1.0
  0
MTEXT
  5
101136D
330
1F
100
AcDbEntity
  8
Text
  6
Continuous
 62
     0
370
     0
100
AcDbMText
 10
87.58234661934837
 20
52.1650005210327
 30
0.0
 40
3.0
 41
3.25
 46
0.0
 71
     4
 72
     5
  1
{\fHelveticaNeueLTPro|b0|i0|c1|p15;d}
 73
     2
 44
1.0
  0
MTEXT
  5
101136E
330
1F
100
AcDbEntity
  8
Text
  6
Continuous
 62
     0
370
     0
100
AcDbMText
 10
89.58234661934836
 20
52.1650005210327
 30
0.0
 40
3.0
 41
3.25
 46
0.0
 71
     4
 72
     5
  1
{\fHelveticaNeueLTPro|b0|i0|c1|p15;e}
 73
     2
 44
1.0
  0
MTEXT
  5
101136F
330
1F
100
AcDbEntity
  8
Text
  6
Continuous
 62
     0
370
     0
100
AcDbMText
 10
91.33234661934837
 20
52.1650005210327
 30
0.0
 40
3.0
 41
3.25
 46
0.0
 71
     4
 72
     5
  1
{\fHelveticaNeueLTPro|b0|i0|c1|p15;n}
 73
     2
 44
1.0
  0
MTEXT
  5
1011370
330
1F
100
AcDbEntity
  8
Text
  6
Continuous
 62
     0
370
     0
100
AcDbMText
 10
94.16567995268172
 20
52.1650005210327
 30
0.0
 40
3.0
 41
3.25
 46
0.0
 71
     4
 72
     5
  1
{\fHelveticaNeueLTPro|b0|i0|c1|p15;C}
 73
     2
 44
1.0
  0
MTEXT
  5
1011371
330
1F
100
AcDbEntity
  8
Text
  6
Continuous
 62
     0
370
     0
100
AcDbMText
 10
96.49901328601504
 20
52.1650005210327
 30
0.0
 40
3.0
 41
3.25
 46
0.0
 71
     4
 72
     5
  1
{\fHelveticaNeueLTPro|b0|i0|c1|p15;h}
 73
     2
 44
1.0
  0
MTEXT
  5
1011372
330
1F
100
AcDbEntity
  8
Text
  6
Continuous
 62
     0
370
     0
100
AcDbMText
 10
98.33234661934838
 20
52.1650005210327
 30
0.0
 40
3.0
 41
3.25
 46
0.0
 71
     4
 72
     5
  1
{\fHelveticaNeueLTPro|b0|i0|c1|p15;a}
 73
     2
 44
1.0
  0
MTEXT
  5
1011373
330
1F
100
AcDbEntity
  8
Text
  6
Continuous
 62
     0
370
     0
100
AcDbMText
 10
100.1656799526817
 20
52.1650005210327
 30
0.0
 40
3.0
 41
3.25
 46
0.0
 71
     4
 72
     5
  1
{\fHelveticaNeueLTPro|b0|i0|c1|p15;r}
 73
     2
 44
1.0
  0
MTEXT
  5
1011374
330
1F
100
AcDbEntity
  8
Text
  6
Continuous
 62
     0
370
     0
100
AcDbMText
 10
101.249013286015
 20
52.1650005210327
 30
0.0
 40
3.0
 41
3.25
 46
0.0
 71
     4
 72
     5
  1
{\fHelveticaNeueLTPro|b0|i0|c1|p15;a}
 73
     2
 44
1.0
  0
MTEXT
  5
1011375
330
1F
100
AcDbEntity
  8
Text
  6
Continuous
 62
     0
370
     0
100
AcDbMText
 10
103.0823466193483
 20
52.1650005210327
 30
0.0
 40
3.0
 41
3.25
 46
0.0
 71
     4
 72
     5
  1
{\fHelveticaNeueLTPro|b0|i0|c1|p15;k}
 73
     2
 44
1.0
  0
MTEXT
  5
1011376
330
1F
100
AcDbEntity
  8
Text
  6
Continuous
 62
     0
370
     0
100
AcDbMText
 10
104.749013286015
 20
52.1650005210327
 30
0.0
 40
3.0
 41
3.25
 46
0.0
 71
     4
 72
     5
  1
{\fHelveticaNeueLTPro|b0|i0|c1|p15;t}
 73
     2
 44
1.0
  0
MTEXT
  5
1011377
330
1F
100
AcDbEntity
  8
Text
  6
Continuous
 62
     0
370
     0
100
AcDbMText
 10
105.8323466193483
 20
52.1650005210327
 30
0.0
 40
3.0
 41
3.25
 46
0.0
 71
     4
 72
     5
  1
{\fHelveticaNeueLTPro|b0|i0|c1|p15;e}
 73
     2
 44
1.0
  0
MTEXT
  5
1011378
330
1F
100
AcDbEntity
  8
Text
  6
Continuous
 62
     0
370
     0
100
AcDbMText
 10
107.5823466193484
 20
52.1650005210327
 30
0.0
 40
3.0
 41
3.25
 46
0.0
 71
     4
 72
     5
  1
{\fHelveticaNeueLTPro|b0|i0|c1|p15;r}
 73
     2
 44
1.0
  0
MTEXT
  5
1011379
330
1F
100
AcDbEntity
  8
Text
  6
Continuous
 62
     0
370
     0
100
AcDbMText
 10
109.6656799526817
 20
52.1650005210327
 30
0.0
 40
3.0
 41
3.25
 46
0.0
 71
     4
 72
     5
  1
{\fHelveticaNeueLTPro|b0|i0|c1|p15;u}
 73
     2
 44
1.0
  0
MTEXT
  5
101137A
330
1F
100
AcDbEntity
  8
Text
  6
Continuous
 62
     0
370
     0
100
AcDbMText
 10
111.499013286015
 20
52.1650005210327
 30
0.0
 40
3.0
 41
3.25
 46
0.0
 71
     4
 72
     5
  1
{\fHelveticaNeueLTPro|b0|i0|c1|p15;n}
 73
     2
 44
1.0
  0
MTEXT
  5
101137B
330
1F
100
AcDbEntity
  8
Text
  6
Continuous
 62
     0
370
     0
100
AcDbMText
 10
113.3323466193483
 20
52.1650005210327
 30
0.0
 40
3.0
 41
3.25
 46
0.0
 71
     4
 72
     5
  1
{\fHelveticaNeueLTPro|b0|i0|c1|p15;d}
 73
     2
 44
1.0
  0
MTEXT
  5
101137C
330
1F
100
AcDbEntity
  8
Text
  6
Continuous
 62
     0
370
     0
100
AcDbMText
 10
116.249013286015
 20
52.1650005210327
 30
0.0
 40
3.0
 41
3.25
 46
0.0
 71
     4
 72
     5
  1
{\fHelveticaNeueLTPro|b0|i0|c1|p15;e}
 73
     2
 44
1.0
  0
MTEXT
  5
101137D
330
1F
100
AcDbEntity
  8
Text
  6
Continuous
 62
     0
370
     0
100
AcDbMText
 10
118.0823466193483
 20
52.1650005210327
 30
0.0
 40
3.0
 41
3.25
 46
0.0
 71
     4
 72
     5
  1
{\fHelveticaNeueLTPro|b0|i0|c1|p15;r}
 73
     2
 44
1.0
  0
MTEXT
  5
101137E
330
1F
100
AcDbEntity
  8
Text
  6
Continuous
 62
     0
370
     0
100
AcDbMText
 10
119.1656799526817
 20
52.1650005210327
 30
0.0
 40
3.0
 41
3.25
 46
0.0
 71
     4
 72
     5
  1
{\fHelveticaNeueLTPro|b0|i0|c1|p15;s}
 73
     2
 44
1.0
  0
MTEXT
  5
101137F
330
1F
100
AcDbEntity
  8
Text
  6
Continuous
 62
     0
370
     0
100
AcDbMText
 10
120.8323466193483
 20
52.1650005210327
 30
0.0
 40
3.0
 41
3.25
 46
0.0
 71
     4
 72
     5
  1
{\fHelveticaNeueLTPro|b0|i0|c1|p15;e}
 73
     2
 44
1.0
  0
MTEXT
  5
1011380
330
1F
100
AcDbEntity
  8
Text
  6
Continuous
 62
     0
370
     0
100
AcDbMText
 10
122.6656799526817
 20
52.1650005210327
 30
0.0
 40
3.0
 41
3.25
 46
0.0
 71
     4
 72
     5
  1
{\fHelveticaNeueLTPro|b0|i0|c1|p15;t}
 73
     2
 44
1.0
  0
MTEXT
  5
1011381
330
1F
100
AcDbEntity
  8
Text
  6
Continuous
 62
     0
370
     0
100
AcDbMText
 10
123.6656799526817
 20
52.1650005210327
 30
0.0
 40
3.0
 41
3.25
 46
0.0
 71
     4
 72
     5
  1
{\fHelveticaNeueLTPro|b0|i0|c1|p15;z}
 73
     2
 44
1.0
  0
MTEXT
  5
1011382
330
1F
100
AcDbEntity
  8
Text
  6
Continuous
 62
     0
370
     0
100
AcDbMText
 10
125.249013286015
 20
52.1650005210327
 30
0.0
 40
3.0
 41
3.25
 46
0.0
 71
     4
 72
     5
  1
{\fHelveticaNeueLTPro|b0|i0|c1|p15;e}
 73
     2
 44
1.0
  0
MTEXT
  5
1011383
330
1F
100
AcDbEntity
  8
Text
  6
Continuous
 62
     0
370
     0
100
AcDbMText
 10
127.0823466193483
 20
52.1650005210327
 30
0.0
 40
3.0
 41
3.25
 46
0.0
 71
     4
 72
     5
  1
{\fHelveticaNeueLTPro|b0|i0|c1|p15;n}
 73
     2
 44
1.0
  0
MTEXT
  5
1011384
330
1F
100
AcDbEntity
  8
Text
  6
Continuous
 62
     0
370
     0
100
AcDbMText
 10
129.8323466193484
 20
52.1650005210327
 30
0.0
 40
3.0
 41
3.25
 46
0.0
 71
     4
 72
     5
  1
{\fHelveticaNeueLTPro|b0|i0|c1|p15;k}
 73
     2
 44
1.0
  0
MTEXT
  5
1011385
330
1F
100
AcDbEntity
  8
Text
  6
Continuous
 62
     0
370
     0
100
AcDbMText
 10
131.5823466193484
 20
52.1650005210327
 30
0.0
 40
3.0
 41
3.25
 46
0.0
 71
     4
 72
     5
  1
{\fHelveticaNeueLTPro|b0|i0|c1|p15;e}
 73
     2
 44
1.0
  0
MTEXT
  5
1011386
330
1F
100
AcDbEntity
  8
Text
  6
Continuous
 62
     0
370
     0
100
AcDbMText
 10
133.3323466193484
 20
52.1650005210327
 30
0.0
 40
3.0
 41
3.25
 46
0.0
 71
     4
 72
     5
  1
{\fHelveticaNeueLTPro|b0|i0|c1|p15;i}
 73
     2
 44
1.0
  0
MTEXT
  5
1011387
330
1F
100
AcDbEntity
  8
Text
  6
Continuous
 62
     0
370
     0
100
AcDbMText
 10
134.1656799526817
 20
52.1650005210327
 30
0.0
 40
3.0
 41
3.25
 46
0.0
 71
     4
 72
     5
  1
{\fHelveticaNeueLTPro|b0|i0|c1|p15;n}
 73
     2
 44
1.0
  0
MTEXT
  5
1011388
330
1F
100
AcDbEntity
  8
Text
  6
Continuous
 62
     0
370
     0
100
AcDbMText
 10
135.999013286015
 20
52.1650005210327
 30
0.0
 40
3.0
 41
3.25
 46
0.0
 71
     4
 72
     5
  1
{\fHelveticaNeueLTPro|b0|i0|c1|p15;e}
 73
     2
 44
1.0
  0
MTEXT
  5
1011389
330
1F
100
AcDbEntity
  8
Text
  6
Continuous
 62
     0
370
     0
100
AcDbMText
 10
138.6656799526817
 20
52.1650005210327
 30
0.0
 40
3.0
 41
3.25
 46
0.0
 71
     4
 72
     5
  1
{\fHelveticaNeueLTPro|b0|i0|c1|p15;F}
 73
     2
 44
1.0
  0
MTEXT
  5
101138A
330
1F
100
AcDbEntity
  8
Text
  6
Continuous
 62
     0
370
     0
100
AcDbMText
 10
140.5823466193484
 20
52.1650005210327
 30
0.0
 40
3.0
 41
3.25
 46
0.0
 71
     4
 72
     5
  1
{\fHelveticaNeueLTPro|b0|i0|c1|p15;a}
 73
     2
 44
1.0
  0
MTEXT
  5
101138B
330
1F
100
AcDbEntity
  8
Text
  6
Continuous
 62
     0
370
     0
100
AcDbMText
 10
142.4156799526817
 20
52.1650005210327
 30
0.0
 40
3.0
 41
3.25
 46
0.0
 71
     4
 72
     5
  1
{\fHelveticaNeueLTPro|b0|i0|c1|p15;c}
 73
     2
 44
1.0
  0
MTEXT
  5
101138C
330
1F
100
AcDbEntity
  8
Text
  6
Continuous
 62
     0
370
     0
100
AcDbMText
 10
144.1656799526817
 20
52.1650005210327
 30
0.0
 40
3.0
 41
3.25
 46
0.0
 71
     4
 72
     5
  1
{\fHelveticaNeueLTPro|b0|i0|c1|p15;h}
 73
     2
 44
1.0
  0
MTEXT
  5
101138D
330
1F
100
AcDbEntity
  8
Text
  6
Continuous
 62
     0
370
     0
100
AcDbMText
 10
145.999013286015
 20
52.1650005210327
 30
0.0
 40
3.0
 41
3.25
 46
0.0
 71
     4
 72
     5
  1
{\fHelveticaNeueLTPro|b0|i0|c1|p15;p}
 73
     2
 44
1.0
  0
MTEXT
  5
101138E
330
1F
100
AcDbEntity
  8
Text
  6
Continuous
 62
     0
370
     0
100
AcDbMText
 10
147.999013286015
 20
52.1650005210327
 30
0.0
 40
3.0
 41
3.25
 46
0.0
 71
     4
 72
     5
  1
{\fHelveticaNeueLTPro|b0|i0|c1|p15;l}
 73
     2
 44
1.0
  0
MTEXT
  5
101138F
330
1F
100
AcDbEntity
  8
Text
  6
Continuous
 62
     0
370
     0
100
AcDbMText
 10
148.749013286015
 20
52.1650005210327
 30
0.0
 40
3.0
 41
3.25
 46
0.0
 71
     4
 72
     5
  1
{\fHelveticaNeueLTPro|b0|i0|c1|p15;a}
 73
     2
 44
1.0
  0
MTEXT
  5
1011390
330
1F
100
AcDbEntity
  8
Text
  6
Continuous
 62
     0
370
     0
100
AcDbMText
 10
150.499013286015
 20
52.1650005210327
 30
0.0
 40
3.0
 41
3.25
 46
0.0
 71
     4
 72
     5
  1
{\fHelveticaNeueLTPro|b0|i0|c1|p15;n}
 73
     2
 44
1.0
  0
MTEXT
  5
1011391
330
1F
100
AcDbEntity
  8
Text
  6
Continuous
 62
     0
370
     0
100
AcDbMText
 10
152.3323466193484
 20
52.1650005210327
 30
0.0
 40
3.0
 41
3.25
 46
0.0
 71
     4
 72
     5
  1
{\fHelveticaNeueLTPro|b0|i0|c1|p15;u}
 73
     2
 44
1.0
  0
MTEXT
  5
1011392
330
1F
100
AcDbEntity
  8
Text
  6
Continuous
 62
     0
370
     0
100
AcDbMText
 10
154.249013286015
 20
52.1650005210327
 30
0.0
 40
3.0
 41
3.25
 46
0.0
 71
     4
 72
     5
  1
{\fHelveticaNeueLTPro|b0|i0|c1|p15;n}
 73
     2
 44
1.0
  0
MTEXT
  5
1011393
330
1F
100
AcDbEntity
  8
Text
  6
Continuous
 62
     0
370
     0
100
AcDbMText
 10
156.0823466193484
 20
52.1650005210327
 30
0.0
 40
3.0
 41
3.25
 46
0.0
 71
     4
 72
     5
  1
{\fHelveticaNeueLTPro|b0|i0|c1|p15;g}
 73
     2
 44
1.0
  0
MTEXT
  5
1011394
330
1F
100
AcDbEntity
  8
Text
  6
Continuous
 62
     0
370
     0
100
AcDbMText
 10
157.999013286015
 20
52.1650005210327
 30
0.0
 40
3.0
 41
3.25
 46
0.0
 71
     4
 72
     5
  1
{\fHelveticaNeueLTPro|b0|i0|c1|p15;!}
 73
     2
 44
1.0
  0
MTEXT
  5
1011395
330
1F
100
AcDbEntity
  8
Text
  6
Continuous
 62
     7
370
     0
100
AcDbMText
 10
36.49901328601504
 20
29.41500052103271
 30
0.0
 40
3.0
 41
3.25
 46
0.0
 71
     4
 72
     5
  1
{\fHelveticaNeueLTPro|b0|i0|c1|p15;w}
 73
     2
 44
1.0
  0
MTEXT
  5
1011396
330
1F
100
AcDbEntity
  8
Text
  6
Continuous
 62
     7
370
     0
100
AcDbMText
 10
38.99901328601504
 20
29.41500052103271
 30
0.0
 40
3.0
 41
3.25
 46
0.0
 71
     4
 72
     5
  1
{\fHelveticaNeueLTPro|b0|i0|c1|p15;w}
 73
     2
 44
1.0
  0
MTEXT
  5
1011397
330
1F
100
AcDbEntity
  8
Text
  6
Continuous
 62
     7
370
     0
100
AcDbMText
 10
41.49901328601504
 20
29.41500052103271
 30
0.0
 40
3.0
 41
3.25
 46
0.0
 71
     4
 72
     5
  1
{\fHelveticaNeueLTPro|b0|i0|c1|p15;w}
 73
     2
 44
1.0
  0
MTEXT
  5
1011398
330
1F
100
AcDbEntity
  8
Text
  6
Continuous
 62
     7
370
     0
100
AcDbMText
 10
43.99901328601504
 20
29.41500052103271
 30
0.0
 40
3.0
 41
3.25
 46
0.0
 71
     4
 72
     5
  1
{\fHelveticaNeueLTPro|b0|i0|c1|p15;.}
 73
     2
 44
1.0
  0
MTEXT
  5
1011399
330
1F
100
AcDbEntity
  8
Text
  6
Continuous
 62
     7
370
     0
100
AcDbMText
 10
44.9156799526817
 20
29.41500052103271
 30
0.0
 40
3.0
 41
3.25
 46
0.0
 71
     4
 72
     5
  1
{\fHelveticaNeueLTPro|b0|i0|c1|p15;s}
 73
     2
 44
1.0
  0
MTEXT
  5
101139A
330
1F
100
AcDbEntity
  8
Text
  6
Continuous
 62
     7
370
     0
100
AcDbMText
 10
46.58234661934837
 20
29.41500052103271
 30
0.0
 40
3.0
 41
3.25
 46
0.0
 71
     4
 72
     5
  1
{\fHelveticaNeueLTPro|b0|i0|c1|p15;t}
 73
     2
 44
1.0
  0
MTEXT
  5
101139B
330
1F
100
AcDbEntity
  8
Text
  6
Continuous
 62
     7
370
     0
100
AcDbMText
 10
47.66567995268171
 20
29.41500052103271
 30
0.0
 40
3.0
 41
3.25
 46
0.0
 71
     4
 72
     5
  1
{\fHelveticaNeueLTPro|b0|i0|c1|p15;r}
 73
     2
 44
1.0
  0
MTEXT
  5
101139C
330
1F
100
AcDbEntity
  8
Text
  6
Continuous
 62
     7
370
     0
100
AcDbMText
 10
48.74901328601504
 20
29.41500052103271
 30
0.0
 40
3.0
 41
3.25
 46
0.0
 71
     4
 72
     5
  1
{\fHelveticaNeueLTPro|b0|i0|c1|p15;a}
 73
     2
 44
1.0
  0
MTEXT
  5
101139D
330
1F
100
AcDbEntity
  8
Text
  6
Continuous
 62
     7
370
     0
100
AcDbMText
 10
50.58234661934838
 20
29.41500052103271
 30
0.0
 40
3.0
 41
3.25
 46
0.0
 71
     4
 72
     5
  1
{\fHelveticaNeueLTPro|b0|i0|c1|p15;s}
 73
     2
 44
1.0
  0
MTEXT
  5
101139E
330
1F
100
AcDbEntity
  8
Text
  6
Continuous
 62
     7
370
     0
100
AcDbMText
 10
52.24901328601504
 20
29.41500052103271
 30
0.0
 40
3.0
 41
3.25
 46
0.0
 71
     4
 72
     5
  1
{\fHelveticaNeueLTPro|b0|i0|c1|p15;s}
 73
     2
 44
1.0
  0
MTEXT
  5
101139F
330
1F
100
AcDbEntity
  8
Text
  6
Continuous
 62
     7
370
     0
100
AcDbMText
 10
53.91567995268171
 20
29.41500052103271
 30
0.0
 40
3.0
 41
3.25
 46
0.0
 71
     4
 72
     5
  1
{\fHelveticaNeueLTPro|b0|i0|c1|p15;e}
 73
     2
 44
1.0
  0
MTEXT
  5
10113A0
330
1F
100
AcDbEntity
  8
Text
  6
Continuous
 62
     7
370
     0
100
AcDbMText
 10
55.66567995268171
 20
29.41500052103271
 30
0.0
 40
3.0
 41
3.25
 46
0.0
 71
     4
 72
     5
  1
{\fHelveticaNeueLTPro|b0|i0|c1|p15;r}
 73
     2
 44
1.0
  0
MTEXT
  5
10113A1
330
1F
100
AcDbEntity
  8
Text
  6
Continuous
 62
     7
370
     0
100
AcDbMText
 10
56.74901328601504
 20
29.41500052103271
 30
0.0
 40
3.0
 41
3.25
 46
0.0
 71
     4
 72
     5
  1
{\fHelveticaNeueLTPro|b0|i0|c1|p15;-}
 73
     2
 44
1.0
  0
MTEXT
  5
10113A2
330
1F
100
AcDbEntity
  8
Text
  6
Continuous
 62
     7
370
     0
100
AcDbMText
 10
58.08234661934838
 20
29.41500052103271
 30
0.0
 40
3.0
 41
3.25
 46
0.0
 71
     4
 72
     5
  1
{\fHelveticaNeueLTPro|b0|i0|c1|p15;s}
 73
     2
 44
1.0
  0
MTEXT
  5
10113A3
330
1F
100
AcDbEntity
  8
Text
  6
Continuous
 62
     7
370
     0
100
AcDbMText
 10
59.74901328601504
 20
29.41500052103271
 30
0.0
 40
3.0
 41
3.25
 46
0.0
 71
     4
 72
     5
  1
{\fHelveticaNeueLTPro|b0|i0|c1|p15;y}
 73
     2
 44
1.0
  0
MTEXT
  5
10113A4
330
1F
100
AcDbEntity
  8
Text
  6
Continuous
 62
     7
370
     0
100
AcDbMText
 10
61.41567995268171
 20
29.41500052103271
 30
0.0
 40
3.0
 41
3.25
 46
0.0
 71
     4
 72
     5
  1
{\fHelveticaNeueLTPro|b0|i0|c1|p15;s}
 73
     2
 44
1.0
  0
MTEXT
  5
10113A5
330
1F
100
AcDbEntity
  8
Text
  6
Continuous
 62
     7
370
     0
100
AcDbMText
 10
63.08234661934838
 20
29.41500052103271
 30
0.0
 40
3.0
 41
3.25
 46
0.0
 71
     4
 72
     5
  1
{\fHelveticaNeueLTPro|b0|i0|c1|p15;t}
 73
     2
 44
1.0
  0
MTEXT
  5
10113A6
330
1F
100
AcDbEntity
  8
Text
  6
Continuous
 62
     7
370
     0
100
AcDbMText
 10
64.16567995268171
 20
29.41500052103271
 30
0.0
 40
3.0
 41
3.25
 46
0.0
 71
     4
 72
     5
  1
{\fHelveticaNeueLTPro|b0|i0|c1|p15;e}
 73
     2
 44
1.0
  0
MTEXT
  5
10113A7
330
1F
100
AcDbEntity
  8
Text
  6
Continuous
 62
     7
370
     0
100
AcDbMText
 10
65.91567995268171
 20
29.41500052103271
 30
0.0
 40
3.0
 41
3.25
 46
0.0
 71
     4
 72
     5
  1
{\fHelveticaNeueLTPro|b0|i0|c1|p15;m}
 73
     2
 44
1.0
  0
MTEXT
  5
10113A8
330
1F
100
AcDbEntity
  8
Text
  6
Continuous
 62
     7
370
     0
100
AcDbMText
 10
68.74901328601504
 20
29.41500052103271
 30
0.0
 40
3.0
 41
3.25
 46
0.0
 71
     4
 72
     5
  1
{\fHelveticaNeueLTPro|b0|i0|c1|p15;e}
 73
     2
 44
1.0
  0
MTEXT
  5
10113A9
330
1F
100
AcDbEntity
  8
Text
  6
Continuous
 62
     7
370
     0
100
AcDbMText
 10
70.49901328601504
 20
29.41500052103271
 30
0.0
 40
3.0
 41
3.25
 46
0.0
 71
     4
 72
     5
  1
{\fHelveticaNeueLTPro|b0|i0|c1|p15;.}
 73
     2
 44
1.0
  0
MTEXT
  5
10113AA
330
1F
100
AcDbEntity
  8
Text
  6
Continuous
 62
     7
370
     0
100
AcDbMText
 10
71.49901328601504
 20
29.41500052103271
 30
0.0
 40
3.0
 41
3.25
 46
0.0
 71
     4
 72
     5
  1
{\fHelveticaNeueLTPro|b0|i0|c1|p15;d}
 73
     2
 44
1.0
  0
MTEXT
  5
10113AB
330
1F
100
AcDbEntity
  8
Text
  6
Continuous
 62
     7
370
     0
100
AcDbMText
 10
73.41567995268171
 20
29.41500052103271
 30
0.0
 40
3.0
 41
3.25
 46
0.0
 71
     4
 72
     5
  1
{\fHelveticaNeueLTPro|b0|i0|c1|p15;e}
 73
     2
 44
1.0
  0
MTEXT
  5
10113AC
330
1F
100
AcDbEntity
  8
Text
  6
Continuous
 62
     7
370
     0
100
AcDbMText
 10
36.49901328601504
 20
25.41500052103271
 30
0.0
 40
3.0
 41
3.25
 46
0.0
 71
     4
 72
     5
  1
{\fHelveticaNeueLTPro|b0|i0|c1|p15;i}
 73
     2
 44
1.0
  0
MTEXT
  5
10113AD
330
1F
100
AcDbEntity
  8
Text
  6
Continuous
 62
     7
370
     0
100
AcDbMText
 10
37.24901328601504
 20
25.41500052103271
 30
0.0
 40
3.0
 41
3.25
 46
0.0
 71
     4
 72
     5
  1
{\fHelveticaNeueLTPro|b0|i0|c1|p15;n}
 73
     2
 44
1.0
  0
MTEXT
  5
10113AE
330
1F
100
AcDbEntity
  8
Text
  6
Continuous
 62
     7
370
     0
100
AcDbMText
 10
39.08234661934838
 20
25.41500052103271
 30
0.0
 40
3.0
 41
3.25
 46
0.0
 71
     4
 72
     5
  1
{\fHelveticaNeueLTPro|b0|i0|c1|p15;f}
 73
     2
 44
1.0
  0
MTEXT
  5
10113AF
330
1F
100
AcDbEntity
  8
Text
  6
Continuous
 62
     7
370
     0
100
AcDbMText
 10
40.08234661934838
 20
25.41500052103271
 30
0.0
 40
3.0
 41
3.25
 46
0.0
 71
     4
 72
     5
  1
{\fHelveticaNeueLTPro|b0|i0|c1|p15;o}
 73
     2
 44
1.0
  0
MTEXT
  5
10113B0
330
1F
100
AcDbEntity
  8
Text
  6
Continuous
 62
     7
370
     0
100
AcDbMText
 10
41.99901328601504
 20
25.41500052103271
 30
0.0
 40
3.0
 41
3.25
 46
0.0
 71
     4
 72
     5
  1
{\fHelveticaNeueLTPro|b0|i0|c1|p15;@}
 73
     2
 44
1.0
  0
MTEXT
  5
10113B1
330
1F
100
AcDbEntity
  8
Text
  6
Continuous
 62
     7
370
     0
100
AcDbMText
 10
44.6656799526817
 20
25.41500052103271
 30
0.0
 40
3.0
 41
3.25
 46
0.0
 71
     4
 72
     5
  1
{\fHelveticaNeueLTPro|b0|i0|c1|p15;s}
 73
     2
 44
1.0
  0
MTEXT
  5
10113B2
330
1F
100
AcDbEntity
  8
Text
  6
Continuous
 62
     7
370
     0
100
AcDbMText
 10
46.33234661934838
 20
25.41500052103271
 30
0.0
 40
3.0
 41
3.25
 46
0.0
 71
     4
 72
     5
  1
{\fHelveticaNeueLTPro|b0|i0|c1|p15;t}
 73
     2
 44
1.0
  0
MTEXT
  5
10113B3
330
1F
100
AcDbEntity
  8
Text
  6
Continuous
 62
     7
370
     0
100
AcDbMText
 10
47.33234661934837
 20
25.41500052103271
 30
0.0
 40
3.0
 41
3.25
 46
0.0
 71
     4
 72
     5
  1
{\fHelveticaNeueLTPro|b0|i0|c1|p15;r}
 73
     2
 44
1.0
  0
MTEXT
  5
10113B4
330
1F
100
AcDbEntity
  8
Text
  6
Continuous
 62
     7
370
     0
100
AcDbMText
 10
48.49901328601504
 20
25.41500052103271
 30
0.0
 40
3.0
 41
3.25
 46
0.0
 71
     4
 72
     5
  1
{\fHelveticaNeueLTPro|b0|i0|c1|p15;a}
 73
     2
 44
1.0
  0
MTEXT
  5
10113B5
330
1F
100
AcDbEntity
  8
Text
  6
Continuous
 62
     7
370
     0
100
AcDbMText
 10
50.24901328601504
 20
25.41500052103271
 30
0.0
 40
3.0
 41
3.25
 46
0.0
 71
     4
 72
     5
  1
{\fHelveticaNeueLTPro|b0|i0|c1|p15;s}
 73
     2
 44
1.0
  0
MTEXT
  5
10113B6
330
1F
100
AcDbEntity
  8
Text
  6
Continuous
 62
     7
370
     0
100
AcDbMText
 10
51.91567995268171
 20
25.41500052103271
 30
0.0
 40
3.0
 41
3.25
 46
0.0
 71
     4
 72
     5
  1
{\fHelveticaNeueLTPro|b0|i0|c1|p15;s}
 73
     2
 44
1.0
  0
MTEXT
  5
10113B7
330
1F
100
AcDbEntity
  8
Text
  6
Continuous
 62
     7
370
     0
100
AcDbMText
 10
53.58234661934837
 20
25.41500052103271
 30
0.0
 40
3.0
 41
3.25
 46
0.0
 71
     4
 72
     5
  1
{\fHelveticaNeueLTPro|b0|i0|c1|p15;e}
 73
     2
 44
1.0
  0
MTEXT
  5
10113B8
330
1F
100
AcDbEntity
  8
Text
  6
Continuous
 62
     7
370
     0
100
AcDbMText
 10
55.33234661934837
 20
25.41500052103271
 30
0.0
 40
3.0
 41
3.25
 46
0.0
 71
     4
 72
     5
  1
{\fHelveticaNeueLTPro|b0|i0|c1|p15;r}
 73
     2
 44
1.0
  0
MTEXT
  5
10113B9
330
1F
100
AcDbEntity
  8
Text
  6
Continuous
 62
     7
370
     0
100
AcDbMText
 10
56.49901328601504
 20
25.41500052103271
 30
0.0
 40
3.0
 41
3.25
 46
0.0
 71
     4
 72
     5
  1
{\fHelveticaNeueLTPro|b0|i0|c1|p15;-}
 73
     2
 44
1.0
  0
MTEXT
  5
10113BA
330
1F
100
AcDbEntity
  8
Text
  6
Continuous
 62
     7
370
     0
100
AcDbMText
 10
57.83234661934837
 20
25.41500052103271
 30
0.0
 40
3.0
 41
3.25
 46
0.0
 71
     4
 72
     5
  1
{\fHelveticaNeueLTPro|b0|i0|c1|p15;s}
 73
     2
 44
1.0
  0
MTEXT
  5
10113BB
330
1F
100
AcDbEntity
  8
Text
  6
Continuous
 62
     7
370
     0
100
AcDbMText
 10
59.41567995268171
 20
25.41500052103271
 30
0.0
 40
3.0
 41
3.25
 46
0.0
 71
     4
 72
     5
  1
{\fHelveticaNeueLTPro|b0|i0|c1|p15;y}
 73
     2
 44
1.0
  0
MTEXT
  5
10113BC
330
1F
100
AcDbEntity
  8
Text
  6
Continuous
 62
     7
370
     0
100
AcDbMText
 10
61.08234661934837
 20
25.41500052103271
 30
0.0
 40
3.0
 41
3.25
 46
0.0
 71
     4
 72
     5
  1
{\fHelveticaNeueLTPro|b0|i0|c1|p15;s}
 73
     2
 44
1.0
  0
MTEXT
  5
10113BD
330
1F
100
AcDbEntity
  8
Text
  6
Continuous
 62
     7
370
     0
100
AcDbMText
 10
62.74901328601504
 20
25.41500052103271
 30
0.0
 40
3.0
 41
3.25
 46
0.0
 71
     4
 72
     5
  1
{\fHelveticaNeueLTPro|b0|i0|c1|p15;t}
 73
     2
 44
1.0
  0
MTEXT
  5
10113BE
330
1F
100
AcDbEntity
  8
Text
  6
Continuous
 62
     7
370
     0
100
AcDbMText
 10
63.83234661934838
 20
25.41500052103271
 30
0.0
 40
3.0
 41
3.25
 46
0.0
 71
     4
 72
     5
  1
{\fHelveticaNeueLTPro|b0|i0|c1|p15;e}
 73
     2
 44
1.0
  0
MTEXT
  5
10113BF
330
1F
100
AcDbEntity
  8
Text
  6
Continuous
 62
     7
370
     0
100
AcDbMText
 10
65.66567995268171
 20
25.41500052103271
 30
0.0
 40
3.0
 41
3.25
 46
0.0
 71
     4
 72
     5
  1
{\fHelveticaNeueLTPro|b0|i0|c1|p15;m}
 73
     2
 44
1.0
  0
MTEXT
  5
10113C0
330
1F
100
AcDbEntity
  8
Text
  6
Continuous
 62
     7
370
     0
100
AcDbMText
 10
68.41567995268171
 20
25.41500052103271
 30
0.0
 40
3.0
 41
3.25
 46
0.0
 71
     4
 72
     5
  1
{\fHelveticaNeueLTPro|b0|i0|c1|p15;e}
 73
     2
 44
1.0
  0
MTEXT
  5
10113C1
330
1F
100
AcDbEntity
  8
Text
  6
Continuous
 62
     7
370
     0
100
AcDbMText
 10
70.24901328601504
 20
25.41500052103271
 30
0.0
 40
3.0
 41
3.25
 46
0.0
 71
     4
 72
     5
  1
{\fHelveticaNeueLTPro|b0|i0|c1|p15;.}
 73
     2
 44
1.0
  0
MTEXT
  5
10113C2
330
1F
100
AcDbEntity
  8
Text
  6
Continuous
 62
     7
370
     0
100
AcDbMText
 10
71.16567995268171
 20
25.41500052103271
 30
0.0
 40
3.0
 41
3.25
 46
0.0
 71
     4
 72
     5
  1
{\fHelveticaNeueLTPro|b0|i0|c1|p15;d}
 73
     2
 44
1.0
  0
MTEXT
  5
10113C3
330
1F
100
AcDbEntity
  8
Text
  6
Continuous
 62
     7
370
     0
100
AcDbMText
 10
73.16567995268171
 20
25.41500052103271
 30
0.0
 40
3.0
 41
3.25
 46
0.0
 71
     4
 72
     5
  1
{\fHelveticaNeueLTPro|b0|i0|c1|p15;e}
 73
     2
 44
1.0
  0
MTEXT
  5
10113C4
330
1F
100
AcDbEntity
  8
Text
  6
Continuous
 62
     7
370
     0
100
AcDbMText
 10
36.16567995268171
 20
36.41500052103271
 30
0.0
 40
3.75
 41
4.0
 46
0.0
 71
     4
 72
     5
  1
{\fHelveticaNeueLTPro|b0|i0|c1|p15;S}
 73
     2
 44
1.0
  0
MTEXT
  5
10113C5
330
1F
100
AcDbEntity
  8
Text
  6
Continuous
 62
     7
370
     0
100
AcDbMText
 10
38.83234661934838
 20
36.41500052103271
 30
0.0
 40
3.75
 41
4.0
 46
0.0
 71
     4
 72
     5
  1
{\fHelveticaNeueLTPro|b0|i0|c1|p15;e}
 73
     2
 44
1.0
  0
MTEXT
  5
10113C6
330
1F
100
AcDbEntity
  8
Text
  6
Continuous
 62
     7
370
     0
100
AcDbMText
 10
41.1656799526817
 20
36.41500052103271
 30
0.0
 40
3.75
 41
4.0
 46
0.0
 71
     4
 72
     5
  1
{\fHelveticaNeueLTPro|b0|i0|c1|p15;r}
 73
     2
 44
1.0
  0
MTEXT
  5
10113C7
330
1F
100
AcDbEntity
  8
Text
  6
Continuous
 62
     7
370
     0
100
AcDbMText
 10
42.74901328601504
 20
36.41500052103271
 30
0.0
 40
3.75
 41
4.0
 46
0.0
 71
     4
 72
     5
  1
{\fHelveticaNeueLTPro|b0|i0|c1|p15;v}
 73
     2
 44
1.0
  0
MTEXT
  5
10113C8
330
1F
100
AcDbEntity
  8
Text
  6
Continuous
 62
     7
370
     0
100
AcDbMText
 10
44.9156799526817
 20
36.41500052103271
 30
0.0
 40
3.75
 41
4.0
 46
0.0
 71
     4
 72
     5
  1
{\fHelveticaNeueLTPro|b0|i0|c1|p15;i}
 73
     2
 44
1.0
  0
MTEXT
  5
10113C9
330
1F
100
AcDbEntity
  8
Text
  6
Continuous
 62
     7
370
     0
100
AcDbMText
 10
45.99901328601504
 20
36.41500052103271
 30
0.0
 40
3.75
 41
4.0
 46
0.0
 71
     4
 72
     5
  1
{\fHelveticaNeueLTPro|b0|i0|c1|p15;c}
 73
     2
 44
1.0
  0
MTEXT
  5
10113CA
330
1F
100
AcDbEntity
  8
Text
  6
Continuous
 62
     7
370
     0
100
AcDbMText
 10
48.33234661934838
 20
36.41500052103271
 30
0.0
 40
3.75
 41
4.0
 46
0.0
 71
     4
 72
     5
  1
{\fHelveticaNeueLTPro|b0|i0|c1|p15;e}
 73
     2
 44
1.0
  0
MTEXT
  5
10113CB
330
1F
100
AcDbEntity
  8
Text
  6
Continuous
 62
     7
370
     0
100
AcDbMText
 10
50.66567995268171
 20
36.41500052103271
 30
0.0
 40
3.75
 41
4.0
 46
0.0
 71
     4
 72
     5
  1
{\fHelveticaNeueLTPro|b0|i0|c1|p15;-}
 73
     2
 44
1.0
  0
MTEXT
  5
10113CC
330
1F
100
AcDbEntity
  8
Text
  6
Continuous
 62
     7
370
     0
100
AcDbMText
 10
52.33234661934837
 20
36.41500052103271
 30
0.0
 40
3.75
 41
4.0
 46
0.0
 71
     4
 72
     5
  1
{\fHelveticaNeueLTPro|b0|i0|c1|p15;H}
 73
     2
 44
1.0
  0
MTEXT
  5
10113CD
330
1F
100
AcDbEntity
  8
Text
  6
Continuous
 62
     7
370
     0
100
AcDbMText
 10
55.33234661934837
 20
36.41500052103271
 30
0.0
 40
3.75
 41
4.0
 46
0.0
 71
     4
 72
     5
  1
{\fHelveticaNeueLTPro|b0|i0|c1|p15;o}
 73
     2
 44
1.0
  0
MTEXT
  5
10113CE
330
1F
100
AcDbEntity
  8
Text
  6
Continuous
 62
     7
370
     0
100
AcDbMText
 10
57.83234661934837
 20
36.41500052103271
 30
0.0
 40
3.75
 41
4.0
 46
0.0
 71
     4
 72
     5
  1
{\fHelveticaNeueLTPro|b0|i0|c1|p15;t}
 73
     2
 44
1.0
  0
MTEXT
  5
10113CF
330
1F
100
AcDbEntity
  8
Text
  6
Continuous
 62
     7
370
     0
100
AcDbMText
 10
59.24901328601504
 20
36.41500052103271
 30
0.0
 40
3.75
 41
4.0
 46
0.0
 71
     4
 72
     5
  1
{\fHelveticaNeueLTPro|b0|i0|c1|p15;l}
 73
     2
 44
1.0
  0
MTEXT
  5
10113D0
330
1F
100
AcDbEntity
  8
Text
  6
Continuous
 62
     7
370
     0
100
AcDbMText
 10
60.33234661934837
 20
36.41500052103271
 30
0.0
 40
3.75
 41
4.0
 46
0.0
 71
     4
 72
     5
  1
{\fHelveticaNeueLTPro|b0|i0|c1|p15;i}
 73
     2
 44
1.0
  0
MTEXT
  5
10113D1
330
1F
100
AcDbEntity
  8
Text
  6
Continuous
 62
     7
370
     0
100
AcDbMText
 10
61.41567995268171
 20
36.41500052103271
 30
0.0
 40
3.75
 41
4.0
 46
0.0
 71
     4
 72
     5
  1
{\fHelveticaNeueLTPro|b0|i0|c1|p15;n}
 73
     2
 44
1.0
  0
MTEXT
  5
10113D2
330
1F
100
AcDbEntity
  8
Text
  6
Continuous
 62
     7
370
     0
100
AcDbMText
 10
63.83234661934838
 20
36.41500052103271
 30
0.0
 40
3.75
 41
4.0
 46
0.0
 71
     4
 72
     5
  1
{\fHelveticaNeueLTPro|b0|i0|c1|p15;e}
 73
     2
 44
1.0
  0
MTEXT
  5
10113D3
330
1F
100
AcDbEntity
  8
Text
  6
Continuous
 62
     7
370
     0
100
AcDbMText
 10
67.33234661934837
 20
36.41500052103271
 30
0.0
 40
3.75
 41
4.0
 46
0.0
 71
     4
 72
     5
  1
{\fHelveticaNeueLTPro|b0|i0|c1|p15;+}
 73
     2
 44
1.0
  0
MTEXT
  5
10113D4
330
1F
100
AcDbEntity
  8
Text
  6
Continuous
 62
     7
370
     0
100
AcDbMText
 10
69.83234661934837
 20
36.41500052103271
 30
0.0
 40
3.75
 41
4.0
 46
0.0
 71
     4
 72
     5
  1
{\fHelveticaNeueLTPro|b0|i0|c1|p15;4}
 73
     2
 44
1.0
  0
MTEXT
  5
10113D5
330
1F
100
AcDbEntity
  8
Text
  6
Continuous
 62
     7
370
     0
100
AcDbMText
 10
72.08234661934837
 20
36.41500052103271
 30
0.0
 40
3.75
 41
4.0
 46
0.0
 71
     4
 72
     5
  1
{\fHelveticaNeueLTPro|b0|i0|c1|p15;9}
 73
     2
 44
1.0
  0
MTEXT
  5
10113D6
330
1F
100
AcDbEntity
  8
Text
  6
Continuous
 62
     7
370
     0
100
AcDbMText
 10
75.49901328601504
 20
36.41500052103271
 30
0.0
 40
3.75
 41
4.0
 46
0.0
 71
     4
 72
     5
  1
{\fHelveticaNeueLTPro|b0|i0|c1|p15;5}
 73
     2
 44
1.0
  0
MTEXT
  5
10113D7
330
1F
100
AcDbEntity
  8
Text
  6
Continuous
 62
     7
370
     0
100
AcDbMText
 10
77.74901328601504
 20
36.41500052103271
 30
0.0
 40
3.75
 41
4.0
 46
0.0
 71
     4
 72
     5
  1
{\fHelveticaNeueLTPro|b0|i0|c1|p15;4}
 73
     2
 44
1.0
  0
MTEXT
  5
10113D8
330
1F
100
AcDbEntity
  8
Text
  6
Continuous
 62
     7
370
     0
100
AcDbMText
 10
80.08234661934837
 20
36.41500052103271
 30
0.0
 40
3.75
 41
4.0
 46
0.0
 71
     4
 72
     5
  1
{\fHelveticaNeueLTPro|b0|i0|c1|p15;1}
 73
     2
 44
1.0
  0
MTEXT
  5
10113D9
330
1F
100
AcDbEntity
  8
Text
  6
Continuous
 62
     7
370
     0
100
AcDbMText
 10
83.49901328601504
 20
36.41500052103271
 30
0.0
 40
3.75
 41
4.0
 46
0.0
 71
     4
 72
     5
  1
{\fHelveticaNeueLTPro|b0|i0|c1|p15;6}
 73
     2
 44
1.0
  0
MTEXT
  5
10113DA
330
1F
100
AcDbEntity
  8
Text
  6
Continuous
 62
     7
370
     0
100
AcDbMText
 10
85.74901328601503
 20
36.41500052103271
 30
0.0
 40
3.75
 41
4.0
 46
0.0
 71
     4
 72
     5
  1
{\fHelveticaNeueLTPro|b0|i0|c1|p15;0}
 73
     2
 44
1.0
  0
MTEXT
  5
10113DB
330
1F
100
AcDbEntity
  8
Text
  6
Continuous
 62
     7
370
     0
100
AcDbMText
 10
87.99901328601505
 20
36.41500052103271
 30
0.0
 40
3.75
 41
4.0
 46
0.0
 71
     4
 72
     5
  1
{\fHelveticaNeueLTPro|b0|i0|c1|p15;1}
 73
     2
 44
1.0
  0
MTEXT
  5
10113DC
330
1F
100
AcDbEntity
  8
Text
  6
Continuous
 62
     7
370
     0
100
AcDbMText
 10
90.24901328601504
 20
36.41500052103271
 30
0.0
 40
3.75
 41
4.0
 46
0.0
 71
     4
 72
     5
  1
{\fHelveticaNeueLTPro|b0|i0|c1|p15;-}
 73
     2
 44
1.0
  0
MTEXT
  5
10113DD
330
1F
100
AcDbEntity
  8
Text
  6
Continuous
 62
     7
370
     0
100
AcDbMText
 10
91.91567995268171
 20
36.41500052103271
 30
0.0
 40
3.75
 41
4.0
 46
0.0
 71
     4
 72
     5
  1
{\fHelveticaNeueLTPro|b0|i0|c1|p15;2}
 73
     2
 44
1.0
  0
MTEXT
  5
10113DE
330
1F
100
AcDbEntity
  8
Text
  6
Continuous
 62
     7
370
     0
100
AcDbMText
 10
94.24901328601505
 20
36.41500052103271
 30
0.0
 40
3.75
 41
4.0
 46
0.0
 71
     4
 72
     5
  1
{\fHelveticaNeueLTPro|b0|i0|c1|p15;3}
 73
     2
 44
1.0
  0
MTEXT
  5
10113DF
330
1F
100
AcDbEntity
  8
Text
  6
Continuous
 62
     7
370
     0
100
AcDbMText
 10
96.49901328601504
 20
36.41500052103271
 30
0.0
 40
3.75
 41
4.0
 46
0.0
 71
     4
 72
     5
  1
{\fHelveticaNeueLTPro|b0|i0|c1|p15;5}
 73
     2
 44
1.0
  0
LWPOLYLINE
  5
10113E0
330
1F
100
AcDbEntity
  8
P
  6
Continuous
 62
     0
370
     0
100
AcDbPolyline
 90
        2
 70
     0
 43
0.0
 10
28.33234661934838
 20
43.4150005210327
 10
280.5823466193483
 20
43.4150005210327
  0
LWPOLYLINE
  5
10113E1
330
1F
100
AcDbEntity
  8
P
  6
Continuous
 62
     0
370
     0
100
AcDbPolyline
 90
        2
 70
     0
 43
0.0
 10
102.499013286015
 20
380.3316671876993
 10
243.749013286015
 20
380.3316671876993
  0
MTEXT
  5
10113E2
330
1F
100
AcDbEntity
  8
Text
  6
Continuous
 62
     0
370
     0
100
AcDbMText
 10
102.3323466193484
 20
394.4150005210327
 30
0.0
 40
3.75
 41
32.0
 46
0.0
 71
     4
 72
     5
  1
{\fHelveticaNeueLTPro|b0|i0|c1|p15;Variante}
 73
     2
 44
1.0
  0
MTEXT
  5
10113E3
330
1F
100
AcDbEntity
  8
Text
  6
Continuous
 62
     0
370
     0
100
AcDbMText
 10
102.3323466193484
 20
389.1650005210327
 30
0.0
 40
3.75
 41
24.0
 46
0.0
 71
     4
 72
     5
  1
{\fHelveticaNeueLTPro|b0|i0|c1|p15;Fliese}
 73
     2
 44
1.0
  0
LWPOLYLINE
  5
10113E4
330
1F
100
AcDbEntity
  8
P
  6
Continuous
 62
     0
370
     0
100
AcDbPolyline
 90
        2
 70
     0
 43
0.0
 10
245.499013286015
 20
380.3316671876993
 10
280.6656799526817
 20
380.3316671876993
  0
MTEXT
  5
10113E5
330
1F
100
AcDbEntity
  8
Text
  6
Continuous
 62
     0
370
     0
100
AcDbMText
 10
245.499013286015
 20
389.1650005210327
 30
0.0
 40
3.75
 41
56.0
 46
0.0
 71
     4
 72
     5
  1
{\fHelveticaNeueLTPro|b0|i0|c1|p15;Stand 06.2018 }
 73
     2
 44
1.0
  0
LWPOLYLINE
  5
10113E6
330
1F
100
AcDbEntity
  8
P
  6
Continuous
 62
     0
370
     0
100
AcDbPolyline
 90
        2
 70
     0
 43
0.0
 10
28.33234661934838
 20
380.3316671876993
 10
100.4156799526817
 20
380.3316671876993
  0
MTEXT
  5
10113E7
330
1F
100
AcDbEntity
  8
Text
  6
Continuous
 62
     0
370
     0
100
AcDbMText
 10
27.99901328601505
 20
394.4150005210327
 30
0.0
 40
3.75
 41
40.0
 46
0.0
 71
     4
 72
     5
  1
{\fHelveticaNeueLTPro|b0|i0|c1|p15;System 3  }
 73
     2
 44
1.0
  0
MTEXT
  5
10113E8
330
1F
100
AcDbEntity
  8
Text
  6
Continuous
 62
     0
370
     0
100
AcDbMText
 10
27.99901328601505
 20
389.1650005210327
 30
0.0
 40
3.75
 41
76.0
 46
0.0
 71
     4
 72
     5
  1
{\fHelveticaNeueLTPro|b0|i0|c1|p15;Balkon und Terrasse}
 73
     2
 44
1.0
  0
MTEXT
  5
10113E9
330
1F
100
AcDbEntity
  8
Text
  6
Continuous
 62
     0
370
     0
100
AcDbMText
 10
37.08234661934838
 20
147.0816671876993
 30
0.0
 40
3.75
 41
40.0
 46
0.0
 71
     4
 72
     5
  1
{\fHelveticaNeueLTPro|b0|i0|c1|p15;Abdichtung}
 73
     2
 44
1.0
  0
MTEXT
  5
10113EA
330
1F
100
AcDbEntity
  8
Text
  6
Continuous
 62
     0
370
     0
100
AcDbMText
 10
37.08234661934838
 20
134.0816671876993
 30
0.0
 40
3.75
 41
28.0
 46
0.0
 71
     4
 72
     5
  1
{\fHelveticaNeueLTPro|b0|i0|c1|p15;Kleber }
 73
     2
 44
1.0
  0
MTEXT
  5
10113EB
102
{ACAD_XDICTIONARY
360
10113EC
102
}
330
1F
100
AcDbEntity
  8
Text
  6
Continuous
 62
     0
370
     0
100
AcDbMText
 10
37.08234661934838
 20
128.8316671876993
 30
0.0
 40
3.0
 41
162.5
 46
0.0
 71
     4
 72
     5
  1
{\fHelveticaNeueLTPro|b0|i0|c0|p15;z.B. FLEX FK-W Flexkleber wasserundurchlässig}
 73
     2
 44
1.0
  0
MTEXT
  5
10113ED
330
1F
100
AcDbEntity
  8
Text
  6
Continuous
 62
     0
370
     0
100
AcDbMText
 10
37.08234661934838
 20
124.9150005210327
 30
0.0
 40
3.0
 41
133.25
 46
0.0
 71
     4
 72
     5
  1
{\fHelveticaNeueLTPro|b0|i0|c1|p15;FLEX FKU Flexkleber Kleber Universal oder}
 73
     2
 44
1.0
  0
MTEXT
  5
10113EE
330
1F
100
AcDbEntity
  8
Text
  6
Continuous
 62
     0
370
     0
100
AcDbMText
 10
37.08234661934838
 20
120.998333854366
 30
0.0
 40
3.0
 41
87.75
 46
0.0
 71
     4
 72
     5
  1
{\fHelveticaNeueLTPro|b0|i0|c1|p15;FLEX FKC Flexkleber Classic}
 73
     2
 44
1.0
  0
MTEXT
  5
10113EF
330
1F
100
AcDbEntity
  8
Text
  6
Continuous
 62
     0
370
     0
100
AcDbMText
 10
37.08234661934838
 20
89.08166718769933
 30
0.0
 40
3.75
 41
88.0
 46
0.0
 71
     4
 72
     5
  1
{\fHelveticaNeueLTPro|b0|i0|c1|p15;Grundierung auf einem }
 73
     2
 44
1.0
  0
MTEXT
  5
10113F0
330
1F
100
AcDbEntity
  8
Text
  6
Continuous
 62
     0
370
     0
100
AcDbMText
 10
37.08234661934838
 20
84.24833385436603
 30
0.0
 40
3.75
 41
104.0
 46
0.0
 71
     4
 72
     5
  1
{\fHelveticaNeueLTPro|b0|i0|c0|p15;Metall- und Abschlussprofil}
 73
     2
 44
1.0
  0
MTEXT
  5
10113F1
330
1F
100
AcDbEntity
  8
Text
  6
Continuous
 62
     7
370
     0
100
AcDbMText
 10
30.08234661934837
 20
133.4150005210327
 30
0.0
 40
3.25
 41
3.5
 46
0.0
 71
     4
 72
     5
  1
{\fHelveticaNeueLTPro|b0|i0|c1|p15;2}
 73
     2
 44
1.0
  0
MTEXT
  5
10113F2
330
1F
100
AcDbEntity
  8
Text
  6
Continuous
 62
     7
370
     0
100
AcDbMText
 10
30.08234661934837
 20
147.1650005210327
 30
0.0
 40
3.25
 41
3.5
 46
0.0
 71
     4
 72
     5
  1
{\fHelveticaNeueLTPro|b0|i0|c1|p15;1}
 73
     2
 44
1.0
  0
MTEXT
  5
10113F3
330
1F
100
AcDbEntity
  8
Text
  6
Continuous
 62
     7
370
     0
100
AcDbMText
 10
30.08234661934837
 20
111.3316671876993
 30
0.0
 40
3.25
 41
3.5
 46
0.0
 71
     4
 72
     5
  1
{\fHelveticaNeueLTPro|b0|i0|c1|p15;3}
 73
     2
 44
1.0
  0
MTEXT
  5
10113F4
330
1F
100
AcDbEntity
  8
Text
  6
Continuous
 62
     7
370
     0
100
AcDbMText
 10
30.08234661934837
 20
88.99833385436602
 30
0.0
 40
3.25
 41
3.5
 46
0.0
 71
     4
 72
     5
  1
{\fHelveticaNeueLTPro|b0|i0|c1|p15;4}
 73
     2
 44
1.0
  0
MTEXT
  5
10113F5
330
1F
100
AcDbEntity
  8
Text
  6
Continuous
 62
     0
370
     0
100
AcDbMText
 10
131.5823466193484
 20
147.1650005210327
 30
0.0
 40
3.75
 41
88.0
 46
0.0
 71
     4
 72
     5
  1
{\fHelveticaNeueLTPro|b0|i0|c1|p15;Grundierung Abdichtung}
 73
     2
 44
1.0
  0
MTEXT
  5
10113F6
330
1F
100
AcDbEntity
  8
Text
  6
Continuous
 62
     0
370
     0
100
AcDbMText
 10
131.5823466193484
 20
141.9150005210327
 30
0.0
 40
3.0
 41
87.75
 46
0.0
 71
     4
 72
     5
  1
{\fHelveticaNeueLTPro|b0|i0|c1|p15;nach technischem Datenblatt}
 73
     2
 44
1.0
  0
MTEXT
  5
10113F7
102
{ACAD_XDICTIONARY
360
10113F8
102
}
330
1F
100
AcDbEntity
  8
Text
  6
Continuous
 62
     0
370
     0
100
AcDbMText
 10
131.5823466193484
 20
133.8316671876993
 30
0.0
 40
3.75
 41
56.0
 46
0.0
 71
     4
 72
     5
  1
{\fHelveticaNeueLTPro|b0|i0|c0|p15;Gefälleestrich}
 73
     2
 44
1.0
  0
MTEXT
  5
10113F9
330
1F
100
AcDbEntity
  8
Text
  6
Continuous
 62
     0
370
     0
100
AcDbMText
 10
131.5823466193484
 20
121.1650005210327
 30
0.0
 40
3.75
 41
44.0
 46
0.0
 71
     4
 72
     5
  1
{\fHelveticaNeueLTPro|b0|i0|c1|p15;Abdichtband}
 73
     2
 44
1.0
  0
MTEXT
  5
10113FA
330
1F
100
AcDbEntity
  8
Text
  6
Continuous
 62
     7
370
     0
100
AcDbMText
 10
124.5823466193483
 20
147.0816671876993
 30
0.0
 40
3.25
 41
3.5
 46
0.0
 71
     4
 72
     5
  1
{\fHelveticaNeueLTPro|b0|i0|c1|p15;5}
 73
     2
 44
1.0
  0
MTEXT
  5
10113FB
330
1F
100
AcDbEntity
  8
Text
  6
Continuous
 62
     7
370
     0
100
AcDbMText
 10
124.5823466193483
 20
133.748333854366
 30
0.0
 40
3.25
 41
3.5
 46
0.0
 71
     4
 72
     5
  1
{\fHelveticaNeueLTPro|b0|i0|c1|p15;6}
 73
     2
 44
1.0
  0
MTEXT
  5
10113FC
330
1F
100
AcDbEntity
  8
Text
  6
Continuous
 62
     7
370
     0
100
AcDbMText
 10
124.5823466193483
 20
121.1650005210327
 30
0.0
 40
3.25
 41
3.5
 46
0.0
 71
     4
 72
     5
  1
{\fHelveticaNeueLTPro|b0|i0|c1|p15;7}
 73
     2
 44
1.0
  0
MTEXT
  5
10113FD
330
1F
100
AcDbEntity
  8
Text
  6
Continuous
 62
     0
370
     0
100
AcDbMText
 10
131.5823466193484
 20
115.9150005210327
 30
0.0
 40
3.0
 41
94.25
 46
0.0
 71
     4
 72
     5
  1
{\fHelveticaNeueLTPro|b0|i0|c1|p15;DICHT FDB Flexibles Dichtband}
 73
     2
 44
1.0
  0
MTEXT
  5
10113FE
102
{ACAD_XDICTIONARY
360
10113FF
102
}
330
1F
100
AcDbEntity
  8
Text
  6
Continuous
 62
     0
370
     0
100
AcDbMText
 10
37.41567995268171
 20
141.498333854366
 30
0.0
 40
3.0
 41
113.75
 46
0.0
 71
     4
 72
     5
  1
{\fHelveticaNeueLTPro|b0|i0|c0|p15;DICHT FDS 2K Flexible Dichtschlämme}
 73
     2
 44
1.0
  0
MTEXT
  5
1011400
330
1F
100
AcDbEntity
  8
Text
  6
Continuous
 62
     0
370
     0
100
AcDbMText
 10
28.33234661934838
 20
361.748333854366
 30
0.0
 40
7.75
 41
392.0
 46
0.0
 71
     4
 72
     5
  1
{\fStandardCTStencil|b1|i0|c1|p15;Randabschlussprofil - Abdichtung mit DICHT FDS 2K}
 73
     2
 44
1.0
  0
LWPOLYLINE
  5
1011401
330
1F
100
AcDbEntity
  8
P
  6
Continuous
 62
     0
370
     0
100
AcDbPolyline
 90
        2
 70
     0
 43
0.0
 10
37.74901328601504
 20
311.5816671876993
 10
37.74901328601504
 20
289.498333854366
  0
MTEXT
  5
1011402
330
1F
100
AcDbEntity
  8
Text
  6
Continuous
 62
     7
370
     0
100
AcDbMText
 10
36.74901328601504
 20
315.9150005210327
 30
0.0
 40
3.25
 41
3.5
 46
0.0
 71
     4
 72
     5
  1
{\fHelveticaNeueLTPro|b0|i0|c1|p15;1}
 73
     2
 44
1.0
  0
MTEXT
  5
1011403
102
{ACAD_XDICTIONARY
360
1011404
102
}
330
1F
100
AcDbEntity
  8
Text
  6
Continuous
 62
     0
370
     0
100
AcDbMText
 10
37.08234661934838
 20
111.498333854366
 30
0.0
 40
3.75
 41
44.0
 46
0.0
 71
     4
 72
     5
  1
{\fHelveticaNeueLTPro|b0|i0|c0|p15;Fugenmörtel}
 73
     2
 44
1.0
  0
MTEXT
  5
1011405
330
1F
100
AcDbEntity
  8
Text
  6
Continuous
 62
     0
370
     0
100
AcDbMText
 10
37.08234661934838
 20
105.6650005210327
 30
0.0
 40
3.0
 41
97.5
 46
0.0
 71
     4
 72
     5
  1
{\fHelveticaNeueLTPro|b0|i0|c1|p15;z.B. FUG FF-S Flexfuge schnell}
 73
     2
 44
1.0
  0
MTEXT
  5
1011406
330
1F
100
AcDbEntity
  8
Text
  6
Continuous
 62
     0
370
     0
100
AcDbMText
 10
37.08234661934838
 20
101.748333854366
 30
0.0
 40
3.0
 41
139.75
 46
0.0
 71
     4
 72
     5
  1
{\fHelveticaNeueLTPro|b0|i0|c1|p15;(speziell bei Feinsteinzeug verwenden) oder}
 73
     2
 44
1.0
  0
MTEXT
  5
1011407
330
1F
100
AcDbEntity
  8
Text
  6
Continuous
 62
     0
370
     0
100
AcDbMText
 10
37.08234661934838
 20
97.91500052103272
 30
0.0
 40
3.0
 41
78.0
 46
0.0
 71
     4
 72
     5
  1
{\fHelveticaNeueLTPro|b0|i0|c1|p15;FUG FFC Flexfuge Classic}
 73
     2
 44
1.0
  0
LWPOLYLINE
  5
1011408
330
1F
100
AcDbEntity
  8
P
  6
Continuous
 62
     0
370
     0
100
AcDbPolyline
 90
        2
 70
     0
 43
0.0
 10
158.5823466193484
 20
265.5816671876994
 10
29.16567995268171
 20
265.5816671876994
  0
LWPOLYLINE
  5
1011409
330
1F
100
AcDbEntity
  8
P
  6
Continuous
 62
     0
370
     0
100
AcDbPolyline
 90
        2
 70
     0
 43
0.0
 10
29.16567995268171
 20
266.3316671876994
 10
159.3323466193484
 20
266.3316671876994
  0
LWPOLYLINE
  5
101140A
330
1F
100
AcDbEntity
  8
P
  6
Continuous
 62
     0
370
     0
100
AcDbPolyline
 90
        2
 70
     0
 43
0.0
 10
29.16567995268171
 20
294.4150005210327
 10
168.5823466193484
 20
292.4150005210327
  0
LWPOLYLINE
  5
101140B
330
1F
100
AcDbEntity
  8
P
  6
Continuous
 62
     0
370
     0
100
AcDbPolyline
 90
        2
 70
     0
 43
0.0
 10
29.16567995268171
 20
299.0816671876993
 10
93.41567995268171
 20
298.1650005210327
  0
LWPOLYLINE
  5
101140C
330
1F
100
AcDbEntity
  8
P
  6
Continuous
 62
     0
370
     0
100
AcDbPolyline
 90
        2
 70
     0
 43
0.0
 10
98.66567995268171
 20
298.0816671876993
 10
168.6656799526817
 20
297.0816671876993
  0
LWPOLYLINE
  5
101140D
330
1F
100
AcDbEntity
  8
P
  6
Continuous
 62
     0
370
     0
100
AcDbPolyline
 90
        2
 70
     0
 43
0.0
 10
98.66567995268171
 20
298.0816671876993
 10
98.58234661934837
 20
293.4150005210327
  0
LWPOLYLINE
  5
101140E
330
1F
100
AcDbEntity
  8
P
  6
Continuous
 62
     0
370
     0
100
AcDbPolyline
 90
        2
 70
     0
 43
0.0
 10
93.41567995268171
 20
298.1650005210327
 10
93.33234661934836
 20
293.4150005210327
  0
LWPOLYLINE
  5
101140F
330
1F
100
AcDbEntity
  8
P
  6
Continuous
 62
     0
370
     0
100
AcDbPolyline
 90
        2
 70
     0
 43
0.0
 10
93.41567995268171
 20
298.1650005210327
 10
98.66567995268171
 20
298.0816671876993
  0
LWPOLYLINE
  5
1011410
330
1F
100
AcDbEntity
  8
P
  6
Continuous
 62
     0
370
     0
100
AcDbPolyline
 90
        2
 70
     0
 43
0.0
 10
159.8323466193484
 20
263.4150005210326
 10
159.8323466193484
 20
227.498333854366
  0
LWPOLYLINE
  5
1011411
330
1F
100
AcDbEntity
  8
P
  6
Continuous
 62
     0
370
     0
100
AcDbPolyline
 90
        2
 70
     0
 43
0.0
 10
159.8323466193484
 20
223.6650005210327
 10
159.8323466193484
 20
191.1650005210327
  0
LWPOLYLINE
  5
1011412
330
1F
100
AcDbEntity
  8
P
  6
Continuous
 62
     0
370
     0
100
AcDbPolyline
 90
        2
 70
     0
 43
0.0
 10
158.5823466193484
 20
264.6650005210327
 10
159.8323466193484
 20
263.4150005210326
  0
LWPOLYLINE
  5
1011413
330
1F
100
AcDbEntity
  8
P
  6
Continuous
 62
     0
370
     0
100
AcDbPolyline
 90
        2
 70
     0
 43
0.0
 10
159.5823466193484
 20
266.5816671876994
 10
159.5823466193484
 20
285.248333854366
  0
LWPOLYLINE
  5
1011414
330
1F
100
AcDbEntity
  8
P
  6
Continuous
 62
     0
370
     0
100
AcDbPolyline
 90
        2
 70
     0
 43
0.0
 10
158.5823466193484
 20
265.5816671876994
 10
159.5823466193484
 20
266.5816671876994
  0
LWPOLYLINE
  5
1011415
330
1F
100
AcDbEntity
  8
P
  6
Continuous
 62
     0
370
     0
100
AcDbPolyline
 90
        2
 70
     0
 43
0.0
 10
29.16567995268171
 20
288.9150005210327
 10
168.499013286015
 20
286.9150005210327
  0
LWPOLYLINE
  5
1011416
330
1F
100
AcDbEntity
  8
P
  6
Continuous
 62
     0
370
     0
100
AcDbPolyline
 90
        2
 70
     0
 43
0.0
 10
170.4156799526817
 20
285.1650005210327
 10
170.4156799526817
 20
296.9150005210327
  0
LWPOLYLINE
  5
1011417
330
1F
100
AcDbEntity
  8
P
  6
Continuous
 62
     0
370
     0
100
AcDbPolyline
 90
        2
 70
     0
 43
0.0
 10
168.6656799526817
 20
297.0816671876993
 10
168.499013286015
 20
286.0816671876994
  0
LWPOLYLINE
  5
1011418
330
1F
100
AcDbEntity
  8
P
  6
Continuous
 62
     0
370
     0
100
AcDbPolyline
 90
        2
 70
     0
 43
0.0
 10
168.4156799526817
 20
285.5816671876994
 10
170.4156799526817
 20
285.1650005210327
  0
LWPOLYLINE
  5
1011419
330
1F
100
AcDbEntity
  8
P
  6
Continuous
 62
     0
370
     0
100
AcDbPolyline
 90
        2
 70
     0
 43
0.0
 10
127.1656799526817
 20
286.1650005210326
 10
168.4156799526817
 20
285.5816671876994
  0
LWPOLYLINE
  5
101141A
330
1F
100
AcDbEntity
  8
P
  6
Continuous
 62
     0
370
     0
100
AcDbPolyline
 90
        2
 70
     0
 43
0.0
 10
168.6656799526817
 20
297.0816671876993
 10
170.4156799526817
 20
296.9150005210327
  0
LWPOLYLINE
  5
101141B
330
1F
100
AcDbEntity
  8
P
  6
Continuous
 62
     0
370
     0
100
AcDbPolyline
 90
        2
 70
     0
 43
0.0
 10
170.4156799526817
 20
292.4150005210327
 10
168.5823466193484
 20
292.4150005210327
  0
LWPOLYLINE
  5
101141C
330
1F
100
AcDbEntity
  8
P
  6
Continuous
 62
     0
370
     0
100
AcDbPolyline
 90
        2
 70
     0
 43
0.0
 10
144.8323466193484
 20
290.0816671876994
 10
144.8323466193484
 20
278.1650005210327
  0
LWPOLYLINE
  5
101141D
330
1F
100
AcDbEntity
  8
P
  6
Continuous
 62
     0
370
     0
100
AcDbPolyline
 90
        2
 70
     0
 43
0.0
 10
144.8323466193484
 20
288.4150005210326
 10
146.249013286015
 20
289.748333854366
  0
LWPOLYLINE
  5
101141E
330
1F
100
AcDbEntity
  8
P
  6
Continuous
 62
     0
370
     0
100
AcDbPolyline
 90
        2
 70
     0
 43
0.0
 10
144.8323466193484
 20
288.4150005210326
 10
143.4156799526817
 20
289.748333854366
  0
LWPOLYLINE
  5
101141F
330
1F
100
AcDbEntity
  8
P
  6
Continuous
 62
     0
370
     0
100
AcDbPolyline
 90
        2
 70
     0
 43
0.0
 10
29.08234661934838
 20
280.0816671876994
 10
37.16567995268171
 20
287.9150005210327
  0
LWPOLYLINE
  5
1011420
330
1F
100
AcDbEntity
  8
P
  6
Continuous
 62
     0
370
     0
100
AcDbPolyline
 90
        2
 70
     0
 43
0.0
 10
29.08234661934838
 20
271.998333854366
 10
44.9156799526817
 20
287.8316671876994
  0
LWPOLYLINE
  5
1011421
330
1F
100
AcDbEntity
  8
P
  6
Continuous
 62
     0
370
     0
100
AcDbPolyline
 90
        2
 70
     0
 43
0.0
 10
31.58234661934838
 20
266.3316671876994
 10
52.66567995268171
 20
287.748333854366
  0
LWPOLYLINE
  5
1011422
330
1F
100
AcDbEntity
  8
P
  6
Continuous
 62
     0
370
     0
100
AcDbPolyline
 90
        2
 70
     0
 43
0.0
 10
39.66567995268171
 20
266.3316671876994
 10
60.83234661934838
 20
287.5816671876994
  0
LWPOLYLINE
  5
1011423
330
1F
100
AcDbEntity
  8
P
  6
Continuous
 62
     0
370
     0
100
AcDbPolyline
 90
        2
 70
     0
 43
0.0
 10
47.66567995268171
 20
266.3316671876994
 10
68.66567995268171
 20
287.498333854366
  0
LWPOLYLINE
  5
1011424
330
1F
100
AcDbEntity
  8
P
  6
Continuous
 62
     0
370
     0
100
AcDbPolyline
 90
        2
 70
     0
 43
0.0
 10
55.49901328601504
 20
266.248333854366
 10
76.66567995268171
 20
287.3316671876994
  0
LWPOLYLINE
  5
1011425
330
1F
100
AcDbEntity
  8
P
  6
Continuous
 62
     0
370
     0
100
AcDbPolyline
 90
        2
 70
     0
 43
0.0
 10
63.58234661934837
 20
266.248333854366
 10
84.41567995268171
 20
287.248333854366
  0
LWPOLYLINE
  5
1011426
330
1F
100
AcDbEntity
  8
P
  6
Continuous
 62
     0
370
     0
100
AcDbPolyline
 90
        2
 70
     0
 43
0.0
 10
71.58234661934837
 20
266.248333854366
 10
92.16567995268171
 20
287.0816671876994
  0
LWPOLYLINE
  5
1011427
330
1F
100
AcDbEntity
  8
P
  6
Continuous
 62
     0
370
     0
100
AcDbPolyline
 90
        2
 70
     0
 43
0.0
 10
79.74901328601504
 20
266.4150005210327
 10
100.249013286015
 20
286.998333854366
  0
LWPOLYLINE
  5
1011428
330
1F
100
AcDbEntity
  8
P
  6
Continuous
 62
     0
370
     0
100
AcDbPolyline
 90
        2
 70
     0
 43
0.0
 10
87.58234661934837
 20
266.248333854366
 10
107.999013286015
 20
286.9150005210327
  0
LWPOLYLINE
  5
1011429
330
1F
100
AcDbEntity
  8
P
  6
Continuous
 62
     0
370
     0
100
AcDbPolyline
 90
        2
 70
     0
 43
0.0
 10
95.66567995268171
 20
266.248333854366
 10
116.0823466193483
 20
286.8316671876994
  0
LWPOLYLINE
  5
101142A
330
1F
100
AcDbEntity
  8
P
  6
Continuous
 62
     0
370
     0
100
AcDbPolyline
 90
        2
 70
     0
 43
0.0
 10
103.8323466193483
 20
266.4150005210327
 10
123.9156799526817
 20
286.5816671876994
  0
LWPOLYLINE
  5
101142B
330
1F
100
AcDbEntity
  8
P
  6
Continuous
 62
     0
370
     0
100
AcDbPolyline
 90
        2
 70
     0
 43
0.0
 10
111.6656799526817
 20
266.248333854366
 10
130.8323466193484
 20
285.6650005210326
  0
LWPOLYLINE
  5
101142C
330
1F
100
AcDbEntity
  8
P
  6
Continuous
 62
     0
370
     0
100
AcDbPolyline
 90
        2
 70
     0
 43
0.0
 10
119.5823466193483
 20
266.248333854366
 10
138.9156799526817
 20
285.5816671876994
  0
LWPOLYLINE
  5
101142D
330
1F
100
AcDbEntity
  8
P
  6
Continuous
 62
     0
370
     0
100
AcDbPolyline
 90
        2
 70
     0
 43
0.0
 10
127.749013286015
 20
266.3316671876994
 10
146.749013286015
 20
285.4983338543661
  0
LWPOLYLINE
  5
101142E
330
1F
100
AcDbEntity
  8
P
  6
Continuous
 62
     0
370
     0
100
AcDbPolyline
 90
        2
 70
     0
 43
0.0
 10
135.749013286015
 20
266.4150005210327
 10
154.6656799526817
 20
285.3316671876994
  0
LWPOLYLINE
  5
101142F
330
1F
100
AcDbEntity
  8
P
  6
Continuous
 62
     0
370
     0
100
AcDbPolyline
 90
        2
 70
     0
 43
0.0
 10
143.749013286015
 20
266.4150005210327
 10
159.5823466193484
 20
282.3316671876994
  0
LWPOLYLINE
  5
1011430
330
1F
100
AcDbEntity
  8
P
  6
Continuous
 62
     0
370
     0
100
AcDbPolyline
 90
        2
 70
     0
 43
0.0
 10
151.8323466193484
 20
266.4150005210327
 10
159.5823466193484
 20
274.248333854366
  0
LWPOLYLINE
  5
1011431
330
1F
100
AcDbEntity
  8
P
  6
Continuous
 62
     0
370
     0
100
AcDbPolyline
 90
        2
 70
     0
 43
0.0
 10
167.0823466193484
 20
271.3316671876994
 10
167.0823466193484
 20
236.9150005210327
  0
LWPOLYLINE
  5
1011432
330
1F
100
AcDbEntity
  8
P
  6
Continuous
 62
     0
370
     0
100
AcDbPolyline
 90
        2
 70
     0
 43
0.0
 10
195.999013286015
 20
236.9150005210327
 10
204.5823466193484
 20
269.248333854366
  0
LWPOLYLINE
  5
1011433
330
1F
100
AcDbEntity
  8
P
  6
Continuous
 62
     0
370
     0
100
AcDbPolyline
 90
        2
 70
     0
 43
0.0
 10
204.5823466193484
 20
269.248333854366
 10
205.2490132860151
 20
269.248333854366
  0
LWPOLYLINE
  5
1011434
330
1F
100
AcDbEntity
  8
P
  6
Continuous
 62
     0
370
     0
100
AcDbPolyline
 90
        2
 70
     0
 43
0.0
 10
205.2490132860151
 20
269.248333854366
 10
205.2490132860151
 20
265.3316671876994
  0
LWPOLYLINE
  5
1011435
330
1F
100
AcDbEntity
  8
P
  6
Continuous
 62
     0
370
     0
100
AcDbPolyline
 90
        2
 70
     0
 43
0.0
 10
205.2490132860151
 20
265.3316671876994
 10
204.5823466193484
 20
266.498333854366
  0
LWPOLYLINE
  5
1011436
330
1F
100
AcDbEntity
  8
P
  6
Continuous
 62
     0
370
     0
100
AcDbPolyline
 90
        2
 70
     0
 43
0.0
 10
167.0823466193484
 20
236.9150005210327
 10
195.999013286015
 20
236.9150005210327
  0
LWPOLYLINE
  5
1011437
330
1F
100
AcDbEntity
  8
P
  6
Continuous
 62
     0
370
     0
100
AcDbPolyline
 90
        2
 70
     0
 43
0.0
 10
159.999013286015
 20
285.6650005210326
 10
159.999013286015
 20
266.4150005210327
  0
LWPOLYLINE
  5
1011438
330
1F
100
AcDbEntity
  8
P
  6
Continuous
 62
     0
370
     0
100
AcDbPolyline
 90
        2
 70
     0
 43
0.0
 10
159.999013286015
 20
266.4150005210327
 10
158.8323466193484
 20
265.1650005210326
  0
LWPOLYLINE
  5
1011439
330
1F
100
AcDbEntity
  8
P
  6
Continuous
 62
     0
370
     0
100
AcDbPolyline
 90
        2
 70
     0
 43
0.0
 10
158.8323466193484
 20
265.1650005210326
 10
133.5823466193484
 20
265.1650005210326
  0
LWPOLYLINE
  5
101143A
330
1F
100
AcDbEntity
  8
P
  6
Continuous
 62
     0
370
     0
100
AcDbPolyline
 90
        2
 70
     0
 43
0.0
 10
166.1656799526817
 20
285.4983338543661
 10
166.1656799526817
 20
280.748333854366
  0
LWPOLYLINE
  5
101143B
330
1F
100
AcDbEntity
  8
P
  6
Continuous
 62
     0
370
     0
100
AcDbPolyline
 90
        2
 70
     0
 43
0.0
 10
166.1656799526817
 20
280.748333854366
 10
169.3323466193484
 20
271.0816671876994
  0
LWPOLYLINE
  5
101143C
330
1F
100
AcDbEntity
  8
P
  6
Continuous
 62
     0
370
     0
100
AcDbPolyline
 90
        2
 70
     0
 43
0.0
 10
169.3323466193484
 20
271.0816671876994
 10
169.3323466193484
 20
264.998333854366
  0
LWPOLYLINE
  5
101143D
330
1F
100
AcDbEntity
  8
P
  6
Continuous
 62
     0
370
     0
100
AcDbPolyline
 90
        2
 70
     0
 43
0.0
 10
169.3323466193484
 20
264.998333854366
 10
167.8323466193484
 20
265.8316671876994
  0
LWPOLYLINE
  5
101143E
330
1F
100
AcDbEntity
  8
P
  6
Continuous
 62
     0
370
     0
100
AcDbPolyline
 90
        2
 70
     0
 43
0.0
 10
167.8323466193484
 20
265.8316671876994
 10
167.8323466193484
 20
269.998333854366
  0
LWPOLYLINE
  5
101143F
330
1F
100
AcDbEntity
  8
P
  6
Continuous
 62
     0
370
     0
100
AcDbPolyline
 90
        2
 70
     0
 43
0.0
 10
167.0823466193484
 20
271.4150005210326
 10
168.5823466193484
 20
270.5816671876994
  0
LWPOLYLINE
  5
1011440
330
1F
100
AcDbEntity
  8
P
  6
Continuous
 62
     0
370
     0
100
AcDbPolyline
 90
        2
 70
     0
 43
0.0
 10
168.5823466193484
 20
270.5816671876994
 10
168.5823466193484
 20
266.498333854366
  0
LWPOLYLINE
  5
1011441
330
1F
100
AcDbEntity
  8
P
  6
Continuous
 62
     0
370
     0
100
AcDbPolyline
 90
        2
 70
     0
 43
0.0
 10
167.0823466193484
 20
264.4150005210327
 10
168.9156799526817
 20
262.5816671876994
  0
LWPOLYLINE
  5
1011442
330
1F
100
AcDbEntity
  8
P
  6
Continuous
 62
     0
370
     0
100
AcDbPolyline
 90
        2
 70
     0
 43
0.0
 10
29.16567995268171
 20
289.9150005210326
 10
106.999013286015
 20
288.748333854366
  0
LWPOLYLINE
  5
1011443
330
1F
100
AcDbEntity
  8
P
  6
Continuous
 62
     0
370
     0
100
AcDbPolyline
 90
        2
 70
     0
 43
0.0
 10
111.8323466193483
 20
288.748333854366
 10
138.749013286015
 20
288.3316671876994
  0
LWPOLYLINE
  5
1011444
330
1F
100
AcDbEntity
  8
P
  6
Continuous
 62
     0
370
     0
100
AcDbPolyline
 90
        2
 70
     0
 43
0.0
 10
142.499013286015
 20
288.248333854366
 10
168.499013286015
 20
287.9150005210327
  0
LWPOLYLINE
  5
1011445
330
1F
100
AcDbEntity
  8
P
  6
Continuous
 62
     0
370
     0
100
AcDbPolyline
 90
        2
 70
     0
 43
0.0
 10
64.66567995268171
 20
189.3316671876993
 10
204.8323466193484
 20
189.3316671876993
  0
LWPOLYLINE
  5
1011446
330
1F
100
AcDbEntity
  8
P
  6
Continuous
 62
     0
370
     0
100
AcDbPolyline
 90
        2
 70
     0
 43
0.0
 10
64.66567995268171
 20
189.3316671876993
 10
204.8323466193484
 20
189.3316671876993
  0
LWPOLYLINE
  5
1011447
330
1F
100
AcDbEntity
  8
P
  6
Continuous
 62
     0
370
     0
100
AcDbPolyline
 90
        2
 70
     0
 43
0.0
 10
64.66567995268171
 20
189.3316671876993
 10
64.66567995268171
 20
189.3316671876993
  0
LWPOLYLINE
  5
1011448
330
1F
100
AcDbEntity
  8
P
  6
Continuous
 62
     0
370
     0
100
AcDbPolyline
 90
        2
 70
     0
 43
0.0
 10
204.8323466193484
 20
189.3316671876993
 10
204.8323466193484
 20
189.3316671876993
  0
LWPOLYLINE
  5
1011449
330
1F
100
AcDbEntity
  8
P
  6
Continuous
 62
     0
370
     0
100
AcDbPolyline
 90
        2
 70
     0
 43
0.0
 10
213.4990132860151
 20
197.998333854366
 10
213.4990132860151
 20
223.6650005210327
  0
LWPOLYLINE
  5
101144A
330
1F
100
AcDbEntity
  8
P
  6
Continuous
 62
     0
370
     0
100
AcDbPolyline
 90
        2
 70
     0
 43
0.0
 10
213.4990132860151
 20
197.998333854366
 10
213.4990132860151
 20
223.6650005210327
  0
LWPOLYLINE
  5
101144B
330
1F
100
AcDbEntity
  8
P
  6
Continuous
 62
     0
370
     0
100
AcDbPolyline
 90
        2
 70
     0
 43
0.0
 10
213.4990132860151
 20
197.998333854366
 10
213.4990132860151
 20
197.998333854366
  0
LWPOLYLINE
  5
101144C
330
1F
100
AcDbEntity
  8
P
  6
Continuous
 62
     0
370
     0
100
AcDbPolyline
 90
        2
 70
     0
 43
0.0
 10
213.4990132860151
 20
223.6650005210327
 10
213.4990132860151
 20
223.6650005210327
  0
LWPOLYLINE
  5
101144D
330
1F
100
AcDbEntity
  8
P
  6
Continuous
 62
     0
370
     0
100
AcDbPolyline
 90
        2
 70
     0
 43
0.0
 10
213.4990132860151
 20
227.498333854366
 10
213.4990132860151
 20
271.5816671876994
  0
LWPOLYLINE
  5
101144E
330
1F
100
AcDbEntity
  8
P
  6
Continuous
 62
     0
370
     0
100
AcDbPolyline
 90
        2
 70
     0
 43
0.0
 10
213.4990132860151
 20
227.498333854366
 10
213.4990132860151
 20
271.5816671876994
  0
LWPOLYLINE
  5
101144F
330
1F
100
AcDbEntity
  8
P
  6
Continuous
 62
     0
370
     0
100
AcDbPolyline
 90
        2
 70
     0
 43
0.0
 10
213.4990132860151
 20
227.498333854366
 10
213.4990132860151
 20
227.498333854366
  0
LWPOLYLINE
  5
1011450
330
1F
100
AcDbEntity
  8
P
  6
Continuous
 62
     0
370
     0
100
AcDbPolyline
 90
        2
 70
     0
 43
0.0
 10
213.4990132860151
 20
271.5816671876994
 10
213.4990132860151
 20
271.5816671876994
  0
LWPOLYLINE
  5
1011451
330
1F
100
AcDbEntity
  8
P
  6
Continuous
 62
     0
370
     0
100
AcDbPolyline
 90
        2
 70
     0
 43
0.0
 10
190.9156799526817
 20
317.498333854366
 10
190.9156799526817
 20
329.3316671876993
  0
LWPOLYLINE
  5
1011452
330
1F
100
AcDbEntity
  8
P
  6
Continuous
 62
     0
370
     0
100
AcDbPolyline
 90
        2
 70
     0
 43
0.0
 10
190.9156799526817
 20
317.498333854366
 10
190.9156799526817
 20
329.3316671876993
  0
LWPOLYLINE
  5
1011453
330
1F
100
AcDbEntity
  8
P
  6
Continuous
 62
     0
370
     0
100
AcDbPolyline
 90
        2
 70
     0
 43
0.0
 10
190.9156799526817
 20
317.498333854366
 10
190.9156799526817
 20
317.498333854366
  0
LWPOLYLINE
  5
1011454
330
1F
100
AcDbEntity
  8
P
  6
Continuous
 62
     0
370
     0
100
AcDbPolyline
 90
        2
 70
     0
 43
0.0
 10
190.9156799526817
 20
329.3316671876993
 10
190.9156799526817
 20
329.3316671876993
  0
LWPOLYLINE
  5
1011455
330
1F
100
AcDbEntity
  8
P
  6
Continuous
 62
     0
370
     0
100
AcDbPolyline
 90
        2
 70
     0
 43
0.0
 10
202.5823466193484
 20
329.3316671876993
 10
202.5823466193484
 20
317.498333854366
  0
LWPOLYLINE
  5
1011456
330
1F
100
AcDbEntity
  8
P
  6
Continuous
 62
     0
370
     0
100
AcDbPolyline
 90
        2
 70
     0
 43
0.0
 10
202.5823466193484
 20
329.3316671876993
 10
202.5823466193484
 20
317.498333854366
  0
LWPOLYLINE
  5
1011457
330
1F
100
AcDbEntity
  8
P
  6
Continuous
 62
     0
370
     0
100
AcDbPolyline
 90
        2
 70
     0
 43
0.0
 10
202.5823466193484
 20
329.3316671876993
 10
202.5823466193484
 20
329.3316671876993
  0
LWPOLYLINE
  5
1011458
330
1F
100
AcDbEntity
  8
P
  6
Continuous
 62
     0
370
     0
100
AcDbPolyline
 90
        2
 70
     0
 43
0.0
 10
202.5823466193484
 20
317.498333854366
 10
202.5823466193484
 20
317.498333854366
  0
LWPOLYLINE
  5
1011459
330
1F
100
AcDbEntity
  8
P
  6
Continuous
 62
     0
370
     0
100
AcDbPolyline
 90
        2
 70
     0
 43
0.0
 10
224.0823466193484
 20
271.5816671876994
 10
224.0823466193484
 20
227.498333854366
  0
LWPOLYLINE
  5
101145A
330
1F
100
AcDbEntity
  8
P
  6
Continuous
 62
     0
370
     0
100
AcDbPolyline
 90
        2
 70
     0
 43
0.0
 10
224.0823466193484
 20
271.5816671876994
 10
224.0823466193484
 20
227.498333854366
  0
LWPOLYLINE
  5
101145B
330
1F
100
AcDbEntity
  8
P
  6
Continuous
 62
     0
370
     0
100
AcDbPolyline
 90
        2
 70
     0
 43
0.0
 10
224.0823466193484
 20
271.5816671876994
 10
224.0823466193484
 20
271.5816671876994
  0
LWPOLYLINE
  5
101145C
330
1F
100
AcDbEntity
  8
P
  6
Continuous
 62
     0
370
     0
100
AcDbPolyline
 90
        2
 70
     0
 43
0.0
 10
224.0823466193484
 20
227.498333854366
 10
224.0823466193484
 20
227.498333854366
  0
LWPOLYLINE
  5
101145D
330
1F
100
AcDbEntity
  8
P
  6
Continuous
 62
     0
370
     0
100
AcDbPolyline
 90
        2
 70
     0
 43
0.0
 10
224.0823466193484
 20
223.6650005210327
 10
224.0823466193484
 20
191.6650005210327
  0
LWPOLYLINE
  5
101145E
330
1F
100
AcDbEntity
  8
P
  6
Continuous
 62
     0
370
     0
100
AcDbPolyline
 90
        2
 70
     0
 43
0.0
 10
224.0823466193484
 20
223.6650005210327
 10
224.0823466193484
 20
191.6650005210327
  0
LWPOLYLINE
  5
101145F
330
1F
100
AcDbEntity
  8
P
  6
Continuous
 62
     0
370
     0
100
AcDbPolyline
 90
        2
 70
     0
 43
0.0
 10
224.0823466193484
 20
223.6650005210327
 10
224.0823466193484
 20
223.6650005210327
  0
LWPOLYLINE
  5
1011460
330
1F
100
AcDbEntity
  8
P
  6
Continuous
 62
     0
370
     0
100
AcDbPolyline
 90
        2
 70
     0
 43
0.0
 10
224.0823466193484
 20
191.6650005210327
 10
224.0823466193484
 20
191.6650005210327
  0
LWPOLYLINE
  5
1011461
330
1F
100
AcDbEntity
  8
P
  6
Continuous
 62
     0
370
     0
100
AcDbPolyline
 90
        2
 70
     0
 43
0.0
 10
211.0823466193484
 20
178.748333854366
 10
64.66567995268171
 20
178.748333854366
  0
LWPOLYLINE
  5
1011462
330
1F
100
AcDbEntity
  8
P
  6
Continuous
 62
     0
370
     0
100
AcDbPolyline
 90
        2
 70
     0
 43
0.0
 10
211.0823466193484
 20
178.748333854366
 10
64.66567995268171
 20
178.748333854366
  0
LWPOLYLINE
  5
1011463
330
1F
100
AcDbEntity
  8
P
  6
Continuous
 62
     0
370
     0
100
AcDbPolyline
 90
        2
 70
     0
 43
0.0
 10
211.0823466193484
 20
178.748333854366
 10
211.0823466193484
 20
178.748333854366
  0
LWPOLYLINE
  5
1011464
330
1F
100
AcDbEntity
  8
P
  6
Continuous
 62
     0
370
     0
100
AcDbPolyline
 90
        2
 70
     0
 43
0.0
 10
64.66567995268171
 20
178.748333854366
 10
64.66567995268171
 20
178.748333854366
  0
LWPOLYLINE
  5
1011465
330
1F
100
AcDbEntity
  8
P
  6
Continuous
 62
     0
370
     0
100
AcDbPolyline
 90
        2
 70
     0
 43
0.0
 10
64.66567995268171
 20
178.748333854366
 10
64.66567995268171
 20
189.3316671876993
  0
LWPOLYLINE
  5
1011466
330
1F
100
AcDbEntity
  8
P
  6
Continuous
 62
     0
370
     0
100
AcDbPolyline
 90
        2
 70
     0
 43
0.0
 10
64.66567995268171
 20
178.748333854366
 10
64.66567995268171
 20
189.3316671876993
  0
LWPOLYLINE
  5
1011467
330
1F
100
AcDbEntity
  8
P
  6
Continuous
 62
     0
370
     0
100
AcDbPolyline
 90
        2
 70
     0
 43
0.0
 10
64.66567995268171
 20
178.748333854366
 10
64.66567995268171
 20
178.748333854366
  0
LWPOLYLINE
  5
1011468
330
1F
100
AcDbEntity
  8
P
  6
Continuous
 62
     0
370
     0
100
AcDbPolyline
 90
        2
 70
     0
 43
0.0
 10
64.66567995268171
 20
189.3316671876993
 10
64.66567995268171
 20
189.3316671876993
  0
LWPOLYLINE
  5
1011469
330
1F
100
AcDbEntity
  8
P
  6
Continuous
 62
     0
370
     0
100
AcDbPolyline
 90
        2
 70
     0
 43
0.0
 10
82.33234661934837
 20
189.3316671876993
 10
82.33234661934837
 20
211.1650005210327
  0
LWPOLYLINE
  5
101146A
330
1F
100
AcDbEntity
  8
P
  6
Continuous
 62
     0
370
     0
100
AcDbPolyline
 90
        2
 70
     0
 43
0.0
 10
82.33234661934837
 20
189.3316671876993
 10
82.33234661934837
 20
211.1650005210327
  0
LWPOLYLINE
  5
101146B
330
1F
100
AcDbEntity
  8
P
  6
Continuous
 62
     0
370
     0
100
AcDbPolyline
 90
        2
 70
     0
 43
0.0
 10
82.33234661934837
 20
189.3316671876993
 10
82.33234661934837
 20
189.3316671876993
  0
LWPOLYLINE
  5
101146C
330
1F
100
AcDbEntity
  8
P
  6
Continuous
 62
     0
370
     0
100
AcDbPolyline
 90
        2
 70
     0
 43
0.0
 10
82.33234661934837
 20
211.1650005210327
 10
82.33234661934837
 20
211.1650005210327
  0
LWPOLYLINE
  5
101146D
330
1F
100
AcDbEntity
  8
P
  6
Continuous
 62
     0
370
     0
100
AcDbPolyline
 90
        2
 70
     0
 43
0.0
 10
82.66567995268172
 20
211.498333854366
 10
83.91567995268172
 20
211.498333854366
  0
LWPOLYLINE
  5
101146E
330
1F
100
AcDbEntity
  8
P
  6
Continuous
 62
     0
370
     0
100
AcDbPolyline
 90
        2
 70
     0
 43
0.0
 10
82.66567995268172
 20
211.498333854366
 10
83.91567995268172
 20
211.498333854366
  0
LWPOLYLINE
  5
101146F
330
1F
100
AcDbEntity
  8
P
  6
Continuous
 62
     0
370
     0
100
AcDbPolyline
 90
        2
 70
     0
 43
0.0
 10
82.66567995268172
 20
211.498333854366
 10
82.66567995268172
 20
211.498333854366
  0
LWPOLYLINE
  5
1011470
330
1F
100
AcDbEntity
  8
P
  6
Continuous
 62
     0
370
     0
100
AcDbPolyline
 90
        2
 70
     0
 43
0.0
 10
83.99901328601504
 20
211.498333854366
 10
83.99901328601504
 20
211.498333854366
  0
LWPOLYLINE
  5
1011471
330
1F
100
AcDbEntity
  8
P
  6
Continuous
 62
     0
370
     0
100
AcDbPolyline
 90
        2
 70
     0
 43
0.0
 10
84.33234661934838
 20
189.3316671876993
 10
84.33234661934838
 20
211.1650005210327
  0
LWPOLYLINE
  5
1011472
330
1F
100
AcDbEntity
  8
P
  6
Continuous
 62
     0
370
     0
100
AcDbPolyline
 90
        2
 70
     0
 43
0.0
 10
84.33234661934838
 20
189.3316671876993
 10
84.33234661934838
 20
211.1650005210327
  0
LWPOLYLINE
  5
1011473
330
1F
100
AcDbEntity
  8
P
  6
Continuous
 62
     0
370
     0
100
AcDbPolyline
 90
        2
 70
     0
 43
0.0
 10
84.33234661934838
 20
189.3316671876993
 10
84.33234661934838
 20
189.3316671876993
  0
LWPOLYLINE
  5
1011474
330
1F
100
AcDbEntity
  8
P
  6
Continuous
 62
     0
370
     0
100
AcDbPolyline
 90
        2
 70
     0
 43
0.0
 10
84.33234661934838
 20
211.1650005210327
 10
84.33234661934838
 20
211.1650005210327
  0
LWPOLYLINE
  5
1011475
330
1F
100
AcDbEntity
  8
P
  6
Continuous
 62
     0
370
     0
100
AcDbPolyline
 90
        2
 70
     0
 43
0.0
 10
92.58234661934837
 20
190.998333854366
 10
92.58234661934837
 20
189.248333854366
  0
LWPOLYLINE
  5
1011476
330
1F
100
AcDbEntity
  8
P
  6
Continuous
 62
     0
370
     0
100
AcDbPolyline
 90
        2
 70
     0
 43
0.0
 10
92.58234661934837
 20
190.998333854366
 10
92.58234661934837
 20
189.248333854366
  0
LWPOLYLINE
  5
1011477
330
1F
100
AcDbEntity
  8
P
  6
Continuous
 62
     0
370
     0
100
AcDbPolyline
 90
        2
 70
     0
 43
0.0
 10
92.58234661934837
 20
190.998333854366
 10
92.58234661934837
 20
190.998333854366
  0
LWPOLYLINE
  5
1011478
330
1F
100
AcDbEntity
  8
P
  6
Continuous
 62
     0
370
     0
100
AcDbPolyline
 90
        2
 70
     0
 43
0.0
 10
92.58234661934837
 20
189.248333854366
 10
92.58234661934837
 20
189.248333854366
  0
LWPOLYLINE
  5
1011479
330
1F
100
AcDbEntity
  8
P
  6
DASHDOT
 62
     0
370
     0
100
AcDbPolyline
 90
        2
 70
     0
 43
0.0
 10
83.33234661934836
 20
182.4150005210326
 10
83.33234661934836
 20
217.3316671876994
  0
LWPOLYLINE
  5
101147A
330
1F
100
AcDbEntity
  8
P
  6
DASHDOT
 62
     0
370
     0
100
AcDbPolyline
 90
        2
 70
     0
 43
0.0
 10
83.33234661934836
 20
182.4150005210326
 10
83.33234661934836
 20
217.3316671876994
  0
LWPOLYLINE
  5
101147B
330
1F
100
AcDbEntity
  8
P
  6
DASHDOT
 62
     0
370
     0
100
AcDbPolyline
 90
        2
 70
     0
 43
0.0
 10
83.33234661934836
 20
182.4150005210326
 10
83.33234661934836
 20
182.4150005210326
  0
LWPOLYLINE
  5
101147C
330
1F
100
AcDbEntity
  8
P
  6
DASHDOT
 62
     0
370
     0
100
AcDbPolyline
 90
        2
 70
     0
 43
0.0
 10
83.33234661934836
 20
217.3316671876994
 10
83.33234661934836
 20
217.3316671876994
  0
LWPOLYLINE
  5
101147D
330
1F
100
AcDbEntity
  8
P
  6
Continuous
 62
     0
370
     0
100
AcDbPolyline
 90
        2
 70
     0
 43
0.0
 10
80.58234661934838
 20
178.6650005210327
 10
80.58234661934838
 20
178.3316671876993
  0
LWPOLYLINE
  5
101147E
330
1F
100
AcDbEntity
  8
P
  6
Continuous
 62
     0
370
     0
100
AcDbPolyline
 90
        2
 70
     0
 43
0.0
 10
80.58234661934838
 20
178.6650005210327
 10
80.58234661934838
 20
178.3316671876993
  0
LWPOLYLINE
  5
101147F
330
1F
100
AcDbEntity
  8
P
  6
Continuous
 62
     0
370
     0
100
AcDbPolyline
 90
        2
 70
     0
 43
0.0
 10
80.58234661934838
 20
178.6650005210327
 10
80.58234661934838
 20
178.6650005210327
  0
LWPOLYLINE
  5
1011480
330
1F
100
AcDbEntity
  8
P
  6
Continuous
 62
     0
370
     0
100
AcDbPolyline
 90
        2
 70
     0
 43
0.0
 10
80.58234661934838
 20
178.3316671876993
 10
80.58234661934838
 20
178.3316671876993
  0
LWPOLYLINE
  5
1011481
330
1F
100
AcDbEntity
  8
P
  6
Continuous
 62
     0
370
     0
100
AcDbPolyline
 90
        2
 70
     0
 43
0.0
 10
80.58234661934838
 20
178.3316671876993
 10
84.16567995268172
 20
178.3316671876993
  0
LWPOLYLINE
  5
1011482
330
1F
100
AcDbEntity
  8
P
  6
Continuous
 62
     0
370
     0
100
AcDbPolyline
 90
        2
 70
     0
 43
0.0
 10
80.58234661934838
 20
178.3316671876993
 10
84.16567995268172
 20
178.3316671876993
  0
LWPOLYLINE
  5
1011483
330
1F
100
AcDbEntity
  8
P
  6
Continuous
 62
     0
370
     0
100
AcDbPolyline
 90
        2
 70
     0
 43
0.0
 10
80.58234661934838
 20
178.3316671876993
 10
80.58234661934838
 20
178.3316671876993
  0
LWPOLYLINE
  5
1011484
330
1F
100
AcDbEntity
  8
P
  6
Continuous
 62
     0
370
     0
100
AcDbPolyline
 90
        2
 70
     0
 43
0.0
 10
84.16567995268172
 20
178.3316671876993
 10
84.16567995268172
 20
178.3316671876993
  0
LWPOLYLINE
  5
1011485
330
1F
100
AcDbEntity
  8
P
  6
Continuous
 62
     0
370
     0
100
AcDbPolyline
 90
        2
 70
     0
 43
0.0
 10
80.99901328601504
 20
178.4150005210326
 10
80.99901328601504
 20
177.4150005210327
  0
LWPOLYLINE
  5
1011486
330
1F
100
AcDbEntity
  8
P
  6
Continuous
 62
     0
370
     0
100
AcDbPolyline
 90
        2
 70
     0
 43
0.0
 10
80.99901328601504
 20
178.4150005210326
 10
80.99901328601504
 20
177.4150005210327
  0
LWPOLYLINE
  5
1011487
330
1F
100
AcDbEntity
  8
P
  6
Continuous
 62
     0
370
     0
100
AcDbPolyline
 90
        2
 70
     0
 43
0.0
 10
80.99901328601504
 20
178.4150005210326
 10
80.99901328601504
 20
178.4150005210326
  0
LWPOLYLINE
  5
1011488
330
1F
100
AcDbEntity
  8
P
  6
Continuous
 62
     0
370
     0
100
AcDbPolyline
 90
        2
 70
     0
 43
0.0
 10
80.99901328601504
 20
177.4150005210327
 10
80.99901328601504
 20
177.4150005210327
  0
LWPOLYLINE
  5
1011489
330
1F
100
AcDbEntity
  8
P
  6
Continuous
 62
     0
370
     0
100
AcDbPolyline
 90
        2
 70
     0
 43
0.0
 10
83.33234661934836
 20
177.4150005210327
 10
80.99901328601504
 20
177.4150005210327
  0
LWPOLYLINE
  5
101148A
330
1F
100
AcDbEntity
  8
P
  6
Continuous
 62
     0
370
     0
100
AcDbPolyline
 90
        2
 70
     0
 43
0.0
 10
83.33234661934836
 20
177.4150005210327
 10
80.99901328601504
 20
177.4150005210327
  0
LWPOLYLINE
  5
101148B
330
1F
100
AcDbEntity
  8
P
  6
Continuous
 62
     0
370
     0
100
AcDbPolyline
 90
        2
 70
     0
 43
0.0
 10
83.33234661934836
 20
177.4150005210327
 10
83.33234661934836
 20
177.4150005210327
  0
LWPOLYLINE
  5
101148C
330
1F
100
AcDbEntity
  8
P
  6
Continuous
 62
     0
370
     0
100
AcDbPolyline
 90
        2
 70
     0
 43
0.0
 10
80.99901328601504
 20
177.4150005210327
 10
80.99901328601504
 20
177.4150005210327
  0
LWPOLYLINE
  5
101148D
330
1F
100
AcDbEntity
  8
P
  6
Continuous
 62
     0
370
     0
100
AcDbPolyline
 90
        2
 70
     0
 43
0.0
 10
82.08234661934836
 20
178.3316671876993
 10
82.08234661934836
 20
177.4150005210327
  0
LWPOLYLINE
  5
101148E
330
1F
100
AcDbEntity
  8
P
  6
Continuous
 62
     0
370
     0
100
AcDbPolyline
 90
        2
 70
     0
 43
0.0
 10
82.08234661934836
 20
178.3316671876993
 10
82.08234661934836
 20
177.4150005210327
  0
LWPOLYLINE
  5
101148F
330
1F
100
AcDbEntity
  8
P
  6
Continuous
 62
     0
370
     0
100
AcDbPolyline
 90
        2
 70
     0
 43
0.0
 10
82.08234661934836
 20
178.3316671876993
 10
82.08234661934836
 20
178.3316671876993
  0
LWPOLYLINE
  5
1011490
330
1F
100
AcDbEntity
  8
P
  6
Continuous
 62
     0
370
     0
100
AcDbPolyline
 90
        2
 70
     0
 43
0.0
 10
82.08234661934836
 20
177.4150005210327
 10
82.08234661934836
 20
177.4150005210327
  0
LWPOLYLINE
  5
1011491
330
1F
100
AcDbEntity
  8
P
  6
Continuous
 62
     0
370
     0
100
AcDbPolyline
 90
        2
 70
     0
 43
0.0
 10
80.58234661934838
 20
178.6650005210327
 10
83.33234661934836
 20
178.6650005210327
  0
LWPOLYLINE
  5
1011492
330
1F
100
AcDbEntity
  8
P
  6
Continuous
 62
     0
370
     0
100
AcDbPolyline
 90
        2
 70
     0
 43
0.0
 10
80.58234661934838
 20
178.6650005210327
 10
83.33234661934836
 20
178.6650005210327
  0
LWPOLYLINE
  5
1011493
330
1F
100
AcDbEntity
  8
P
  6
Continuous
 62
     0
370
     0
100
AcDbPolyline
 90
        2
 70
     0
 43
0.0
 10
80.58234661934838
 20
178.6650005210327
 10
80.58234661934838
 20
178.6650005210327
  0
LWPOLYLINE
  5
1011494
330
1F
100
AcDbEntity
  8
P
  6
Continuous
 62
     0
370
     0
100
AcDbPolyline
 90
        2
 70
     0
 43
0.0
 10
83.33234661934836
 20
178.6650005210327
 10
83.33234661934836
 20
178.6650005210327
  0
LWPOLYLINE
  5
1011495
330
1F
100
AcDbEntity
  8
P
  6
Continuous
 62
     0
370
     0
100
AcDbPolyline
 90
        2
 70
     0
 43
0.0
 10
82.33234661934837
 20
189.3316671876993
 10
82.33234661934837
 20
178.748333854366
  0
LWPOLYLINE
  5
1011496
330
1F
100
AcDbEntity
  8
P
  6
Continuous
 62
     0
370
     0
100
AcDbPolyline
 90
        2
 70
     0
 43
0.0
 10
82.33234661934837
 20
189.3316671876993
 10
82.33234661934837
 20
178.748333854366
  0
LWPOLYLINE
  5
1011497
330
1F
100
AcDbEntity
  8
P
  6
Continuous
 62
     0
370
     0
100
AcDbPolyline
 90
        2
 70
     0
 43
0.0
 10
82.33234661934837
 20
189.3316671876993
 10
82.33234661934837
 20
189.3316671876993
  0
LWPOLYLINE
  5
1011498
330
1F
100
AcDbEntity
  8
P
  6
Continuous
 62
     0
370
     0
100
AcDbPolyline
 90
        2
 70
     0
 43
0.0
 10
82.33234661934837
 20
178.748333854366
 10
82.33234661934837
 20
178.748333854366
  0
LWPOLYLINE
  5
1011499
330
1F
100
AcDbEntity
  8
P
  6
Continuous
 62
     0
370
     0
100
AcDbPolyline
 90
        2
 70
     0
 43
0.0
 10
82.08234661934836
 20
189.3316671876993
 10
82.08234661934836
 20
211.748333854366
  0
LWPOLYLINE
  5
101149A
330
1F
100
AcDbEntity
  8
P
  6
Continuous
 62
     0
370
     0
100
AcDbPolyline
 90
        2
 70
     0
 43
0.0
 10
82.08234661934836
 20
189.3316671876993
 10
82.08234661934836
 20
211.748333854366
  0
LWPOLYLINE
  5
101149B
330
1F
100
AcDbEntity
  8
P
  6
Continuous
 62
     0
370
     0
100
AcDbPolyline
 90
        2
 70
     0
 43
0.0
 10
82.08234661934836
 20
189.3316671876993
 10
82.08234661934836
 20
189.3316671876993
  0
LWPOLYLINE
  5
101149C
330
1F
100
AcDbEntity
  8
P
  6
Continuous
 62
     0
370
     0
100
AcDbPolyline
 90
        2
 70
     0
 43
0.0
 10
82.08234661934836
 20
211.748333854366
 10
82.08234661934836
 20
211.748333854366
  0
LWPOLYLINE
  5
101149D
330
1F
100
AcDbEntity
  8
P
  6
Continuous
 62
     0
370
     0
100
AcDbPolyline
 90
        2
 70
     0
 43
0.0
 10
82.08234661934836
 20
211.748333854366
 10
83.33234661934836
 20
212.4150005210327
  0
LWPOLYLINE
  5
101149E
330
1F
100
AcDbEntity
  8
P
  6
Continuous
 62
     0
370
     0
100
AcDbPolyline
 90
        2
 70
     0
 43
0.0
 10
82.08234661934836
 20
211.748333854366
 10
83.33234661934836
 20
212.4150005210327
  0
LWPOLYLINE
  5
101149F
330
1F
100
AcDbEntity
  8
P
  6
Continuous
 62
     0
370
     0
100
AcDbPolyline
 90
        2
 70
     0
 43
0.0
 10
82.08234661934836
 20
211.748333854366
 10
82.08234661934836
 20
211.748333854366
  0
LWPOLYLINE
  5
10114A0
330
1F
100
AcDbEntity
  8
P
  6
Continuous
 62
     0
370
     0
100
AcDbPolyline
 90
        2
 70
     0
 43
0.0
 10
83.33234661934836
 20
212.4150005210327
 10
83.33234661934836
 20
212.4150005210327
  0
LWPOLYLINE
  5
10114A1
330
1F
100
AcDbEntity
  8
P
  6
Continuous
 62
     0
370
     0
100
AcDbPolyline
 90
        2
 70
     0
 43
0.0
 10
82.66567995268172
 20
211.498333854366
 10
82.33234661934837
 20
211.1650005210327
  0
LWPOLYLINE
  5
10114A2
330
1F
100
AcDbEntity
  8
P
  6
Continuous
 62
     0
370
     0
100
AcDbPolyline
 90
        2
 70
     0
 43
0.0
 10
82.66567995268172
 20
211.498333854366
 10
82.33234661934837
 20
211.1650005210327
  0
LWPOLYLINE
  5
10114A3
330
1F
100
AcDbEntity
  8
P
  6
Continuous
 62
     0
370
     0
100
AcDbPolyline
 90
        2
 70
     0
 43
0.0
 10
82.66567995268172
 20
211.498333854366
 10
82.66567995268172
 20
211.498333854366
  0
LWPOLYLINE
  5
10114A4
330
1F
100
AcDbEntity
  8
P
  6
Continuous
 62
     0
370
     0
100
AcDbPolyline
 90
        2
 70
     0
 43
0.0
 10
82.33234661934837
 20
211.1650005210327
 10
82.33234661934837
 20
211.1650005210327
  0
LWPOLYLINE
  5
10114A5
330
1F
100
AcDbEntity
  8
P
  6
Continuous
 62
     0
370
     0
100
AcDbPolyline
 90
        2
 70
     0
 43
0.0
 10
84.33234661934838
 20
189.3316671876993
 10
84.33234661934838
 20
211.1650005210327
  0
LWPOLYLINE
  5
10114A6
330
1F
100
AcDbEntity
  8
P
  6
Continuous
 62
     0
370
     0
100
AcDbPolyline
 90
        2
 70
     0
 43
0.0
 10
84.33234661934838
 20
189.3316671876993
 10
84.33234661934838
 20
211.1650005210327
  0
LWPOLYLINE
  5
10114A7
330
1F
100
AcDbEntity
  8
P
  6
Continuous
 62
     0
370
     0
100
AcDbPolyline
 90
        2
 70
     0
 43
0.0
 10
84.33234661934838
 20
189.3316671876993
 10
84.33234661934838
 20
189.3316671876993
  0
LWPOLYLINE
  5
10114A8
330
1F
100
AcDbEntity
  8
P
  6
Continuous
 62
     0
370
     0
100
AcDbPolyline
 90
        2
 70
     0
 43
0.0
 10
84.33234661934838
 20
211.1650005210327
 10
84.33234661934838
 20
211.1650005210327
  0
LWPOLYLINE
  5
10114A9
330
1F
100
AcDbEntity
  8
P
  6
Continuous
 62
     0
370
     0
100
AcDbPolyline
 90
        2
 70
     0
 43
0.0
 10
86.08234661934837
 20
178.6650005210327
 10
86.08234661934837
 20
178.3316671876993
  0
LWPOLYLINE
  5
10114AA
330
1F
100
AcDbEntity
  8
P
  6
Continuous
 62
     0
370
     0
100
AcDbPolyline
 90
        2
 70
     0
 43
0.0
 10
86.08234661934837
 20
178.6650005210327
 10
86.08234661934837
 20
178.3316671876993
  0
LWPOLYLINE
  5
10114AB
330
1F
100
AcDbEntity
  8
P
  6
Continuous
 62
     0
370
     0
100
AcDbPolyline
 90
        2
 70
     0
 43
0.0
 10
86.08234661934837
 20
178.6650005210327
 10
86.08234661934837
 20
178.6650005210327
  0
LWPOLYLINE
  5
10114AC
330
1F
100
AcDbEntity
  8
P
  6
Continuous
 62
     0
370
     0
100
AcDbPolyline
 90
        2
 70
     0
 43
0.0
 10
86.08234661934837
 20
178.3316671876993
 10
86.08234661934837
 20
178.3316671876993
  0
LWPOLYLINE
  5
10114AD
330
1F
100
AcDbEntity
  8
P
  6
Continuous
 62
     0
370
     0
100
AcDbPolyline
 90
        2
 70
     0
 43
0.0
 10
86.08234661934837
 20
178.3316671876993
 10
82.49901328601504
 20
178.3316671876993
  0
LWPOLYLINE
  5
10114AE
330
1F
100
AcDbEntity
  8
P
  6
Continuous
 62
     0
370
     0
100
AcDbPolyline
 90
        2
 70
     0
 43
0.0
 10
86.08234661934837
 20
178.3316671876993
 10
82.49901328601504
 20
178.3316671876993
  0
LWPOLYLINE
  5
10114AF
330
1F
100
AcDbEntity
  8
P
  6
Continuous
 62
     0
370
     0
100
AcDbPolyline
 90
        2
 70
     0
 43
0.0
 10
86.08234661934837
 20
178.3316671876993
 10
86.08234661934837
 20
178.3316671876993
  0
LWPOLYLINE
  5
10114B0
330
1F
100
AcDbEntity
  8
P
  6
Continuous
 62
     0
370
     0
100
AcDbPolyline
 90
        2
 70
     0
 43
0.0
 10
82.49901328601504
 20
178.3316671876993
 10
82.49901328601504
 20
178.3316671876993
  0
LWPOLYLINE
  5
10114B1
330
1F
100
AcDbEntity
  8
P
  6
Continuous
 62
     0
370
     0
100
AcDbPolyline
 90
        2
 70
     0
 43
0.0
 10
85.66567995268171
 20
178.4150005210326
 10
85.66567995268171
 20
177.4150005210327
  0
LWPOLYLINE
  5
10114B2
330
1F
100
AcDbEntity
  8
P
  6
Continuous
 62
     0
370
     0
100
AcDbPolyline
 90
        2
 70
     0
 43
0.0
 10
85.66567995268171
 20
178.4150005210326
 10
85.66567995268171
 20
177.4150005210327
  0
LWPOLYLINE
  5
10114B3
330
1F
100
AcDbEntity
  8
P
  6
Continuous
 62
     0
370
     0
100
AcDbPolyline
 90
        2
 70
     0
 43
0.0
 10
85.66567995268171
 20
178.4150005210326
 10
85.66567995268171
 20
178.4150005210326
  0
LWPOLYLINE
  5
10114B4
330
1F
100
AcDbEntity
  8
P
  6
Continuous
 62
     0
370
     0
100
AcDbPolyline
 90
        2
 70
     0
 43
0.0
 10
85.66567995268171
 20
177.4150005210327
 10
85.66567995268171
 20
177.4150005210327
  0
LWPOLYLINE
  5
10114B5
330
1F
100
AcDbEntity
  8
P
  6
Continuous
 62
     0
370
     0
100
AcDbPolyline
 90
        2
 70
     0
 43
0.0
 10
83.33234661934836
 20
177.4150005210327
 10
85.66567995268171
 20
177.4150005210327
  0
LWPOLYLINE
  5
10114B6
330
1F
100
AcDbEntity
  8
P
  6
Continuous
 62
     0
370
     0
100
AcDbPolyline
 90
        2
 70
     0
 43
0.0
 10
83.33234661934836
 20
177.4150005210327
 10
85.66567995268171
 20
177.4150005210327
  0
LWPOLYLINE
  5
10114B7
330
1F
100
AcDbEntity
  8
P
  6
Continuous
 62
     0
370
     0
100
AcDbPolyline
 90
        2
 70
     0
 43
0.0
 10
83.33234661934836
 20
177.4150005210327
 10
83.33234661934836
 20
177.4150005210327
  0
LWPOLYLINE
  5
10114B8
330
1F
100
AcDbEntity
  8
P
  6
Continuous
 62
     0
370
     0
100
AcDbPolyline
 90
        2
 70
     0
 43
0.0
 10
85.66567995268171
 20
177.4150005210327
 10
85.66567995268171
 20
177.4150005210327
  0
LWPOLYLINE
  5
10114B9
330
1F
100
AcDbEntity
  8
P
  6
Continuous
 62
     0
370
     0
100
AcDbPolyline
 90
        2
 70
     0
 43
0.0
 10
84.49901328601503
 20
178.3316671876993
 10
84.49901328601503
 20
177.4150005210327
  0
LWPOLYLINE
  5
10114BA
330
1F
100
AcDbEntity
  8
P
  6
Continuous
 62
     0
370
     0
100
AcDbPolyline
 90
        2
 70
     0
 43
0.0
 10
84.49901328601503
 20
178.3316671876993
 10
84.49901328601503
 20
177.4150005210327
  0
LWPOLYLINE
  5
10114BB
330
1F
100
AcDbEntity
  8
P
  6
Continuous
 62
     0
370
     0
100
AcDbPolyline
 90
        2
 70
     0
 43
0.0
 10
84.49901328601503
 20
178.3316671876993
 10
84.49901328601503
 20
178.3316671876993
  0
LWPOLYLINE
  5
10114BC
330
1F
100
AcDbEntity
  8
P
  6
Continuous
 62
     0
370
     0
100
AcDbPolyline
 90
        2
 70
     0
 43
0.0
 10
84.49901328601503
 20
177.4150005210327
 10
84.49901328601503
 20
177.4150005210327
  0
LWPOLYLINE
  5
10114BD
330
1F
100
AcDbEntity
  8
P
  6
Continuous
 62
     0
370
     0
100
AcDbPolyline
 90
        2
 70
     0
 43
0.0
 10
86.08234661934837
 20
178.6650005210327
 10
83.33234661934836
 20
178.6650005210327
  0
LWPOLYLINE
  5
10114BE
330
1F
100
AcDbEntity
  8
P
  6
Continuous
 62
     0
370
     0
100
AcDbPolyline
 90
        2
 70
     0
 43
0.0
 10
86.08234661934837
 20
178.6650005210327
 10
83.33234661934836
 20
178.6650005210327
  0
LWPOLYLINE
  5
10114BF
330
1F
100
AcDbEntity
  8
P
  6
Continuous
 62
     0
370
     0
100
AcDbPolyline
 90
        2
 70
     0
 43
0.0
 10
86.08234661934837
 20
178.6650005210327
 10
86.08234661934837
 20
178.6650005210327
  0
LWPOLYLINE
  5
10114C0
330
1F
100
AcDbEntity
  8
P
  6
Continuous
 62
     0
370
     0
100
AcDbPolyline
 90
        2
 70
     0
 43
0.0
 10
83.33234661934836
 20
178.6650005210327
 10
83.33234661934836
 20
178.6650005210327
  0
LWPOLYLINE
  5
10114C1
330
1F
100
AcDbEntity
  8
P
  6
Continuous
 62
     0
370
     0
100
AcDbPolyline
 90
        2
 70
     0
 43
0.0
 10
84.33234661934838
 20
189.3316671876993
 10
84.33234661934838
 20
178.748333854366
  0
LWPOLYLINE
  5
10114C2
330
1F
100
AcDbEntity
  8
P
  6
Continuous
 62
     0
370
     0
100
AcDbPolyline
 90
        2
 70
     0
 43
0.0
 10
84.33234661934838
 20
189.3316671876993
 10
84.33234661934838
 20
178.748333854366
  0
LWPOLYLINE
  5
10114C3
330
1F
100
AcDbEntity
  8
P
  6
Continuous
 62
     0
370
     0
100
AcDbPolyline
 90
        2
 70
     0
 43
0.0
 10
84.33234661934838
 20
189.3316671876993
 10
84.33234661934838
 20
189.3316671876993
  0
LWPOLYLINE
  5
10114C4
330
1F
100
AcDbEntity
  8
P
  6
Continuous
 62
     0
370
     0
100
AcDbPolyline
 90
        2
 70
     0
 43
0.0
 10
84.33234661934838
 20
178.748333854366
 10
84.33234661934838
 20
178.748333854366
  0
LWPOLYLINE
  5
10114C5
330
1F
100
AcDbEntity
  8
P
  6
Continuous
 62
     0
370
     0
100
AcDbPolyline
 90
        2
 70
     0
 43
0.0
 10
84.49901328601503
 20
189.3316671876993
 10
84.49901328601503
 20
211.748333854366
  0
LWPOLYLINE
  5
10114C6
330
1F
100
AcDbEntity
  8
P
  6
Continuous
 62
     0
370
     0
100
AcDbPolyline
 90
        2
 70
     0
 43
0.0
 10
84.49901328601503
 20
189.3316671876993
 10
84.49901328601503
 20
211.748333854366
  0
LWPOLYLINE
  5
10114C7
330
1F
100
AcDbEntity
  8
P
  6
Continuous
 62
     0
370
     0
100
AcDbPolyline
 90
        2
 70
     0
 43
0.0
 10
84.49901328601503
 20
189.3316671876993
 10
84.49901328601503
 20
189.3316671876993
  0
LWPOLYLINE
  5
10114C8
330
1F
100
AcDbEntity
  8
P
  6
Continuous
 62
     0
370
     0
100
AcDbPolyline
 90
        2
 70
     0
 43
0.0
 10
84.49901328601503
 20
211.748333854366
 10
84.49901328601503
 20
211.748333854366
  0
LWPOLYLINE
  5
10114C9
330
1F
100
AcDbEntity
  8
P
  6
Continuous
 62
     0
370
     0
100
AcDbPolyline
 90
        2
 70
     0
 43
0.0
 10
84.49901328601503
 20
211.748333854366
 10
83.33234661934836
 20
212.4150005210327
  0
LWPOLYLINE
  5
10114CA
330
1F
100
AcDbEntity
  8
P
  6
Continuous
 62
     0
370
     0
100
AcDbPolyline
 90
        2
 70
     0
 43
0.0
 10
84.49901328601503
 20
211.748333854366
 10
83.33234661934836
 20
212.4150005210327
  0
LWPOLYLINE
  5
10114CB
330
1F
100
AcDbEntity
  8
P
  6
Continuous
 62
     0
370
     0
100
AcDbPolyline
 90
        2
 70
     0
 43
0.0
 10
84.49901328601503
 20
211.748333854366
 10
84.49901328601503
 20
211.748333854366
  0
LWPOLYLINE
  5
10114CC
330
1F
100
AcDbEntity
  8
P
  6
Continuous
 62
     0
370
     0
100
AcDbPolyline
 90
        2
 70
     0
 43
0.0
 10
83.33234661934836
 20
212.4150005210327
 10
83.33234661934836
 20
212.4150005210327
  0
LWPOLYLINE
  5
10114CD
330
1F
100
AcDbEntity
  8
P
  6
Continuous
 62
     0
370
     0
100
AcDbPolyline
 90
        2
 70
     0
 43
0.0
 10
83.99901328601504
 20
211.498333854366
 10
84.33234661934838
 20
211.1650005210327
  0
LWPOLYLINE
  5
10114CE
330
1F
100
AcDbEntity
  8
P
  6
Continuous
 62
     0
370
     0
100
AcDbPolyline
 90
        2
 70
     0
 43
0.0
 10
83.99901328601504
 20
211.498333854366
 10
84.33234661934838
 20
211.1650005210327
  0
LWPOLYLINE
  5
10114CF
330
1F
100
AcDbEntity
  8
P
  6
Continuous
 62
     0
370
     0
100
AcDbPolyline
 90
        2
 70
     0
 43
0.0
 10
83.99901328601504
 20
211.498333854366
 10
83.99901328601504
 20
211.498333854366
  0
LWPOLYLINE
  5
10114D0
330
1F
100
AcDbEntity
  8
P
  6
Continuous
 62
     0
370
     0
100
AcDbPolyline
 90
        2
 70
     0
 43
0.0
 10
84.33234661934838
 20
211.1650005210327
 10
84.33234661934838
 20
211.1650005210327
  0
LWPOLYLINE
  5
10114D1
330
1F
100
AcDbEntity
  8
P
  6
Continuous
 62
     0
370
     0
100
AcDbPolyline
 90
        2
 70
     0
 43
0.0
 10
74.08234661934837
 20
190.998333854366
 10
74.08234661934837
 20
189.248333854366
  0
LWPOLYLINE
  5
10114D2
330
1F
100
AcDbEntity
  8
P
  6
Continuous
 62
     0
370
     0
100
AcDbPolyline
 90
        2
 70
     0
 43
0.0
 10
74.08234661934837
 20
190.998333854366
 10
74.08234661934837
 20
189.248333854366
  0
LWPOLYLINE
  5
10114D3
330
1F
100
AcDbEntity
  8
P
  6
Continuous
 62
     0
370
     0
100
AcDbPolyline
 90
        2
 70
     0
 43
0.0
 10
74.08234661934837
 20
190.998333854366
 10
74.08234661934837
 20
190.998333854366
  0
LWPOLYLINE
  5
10114D4
330
1F
100
AcDbEntity
  8
P
  6
Continuous
 62
     0
370
     0
100
AcDbPolyline
 90
        2
 70
     0
 43
0.0
 10
74.08234661934837
 20
189.248333854366
 10
74.08234661934837
 20
189.248333854366
  0
LWPOLYLINE
  5
10114D5
330
1F
100
AcDbEntity
  8
P
  6
Continuous
 62
     0
370
     0
100
AcDbPolyline
 90
        2
 70
     0
 43
0.0
 10
127.5823466193483
 20
189.3316671876993
 10
127.5823466193483
 20
211.1650005210327
  0
LWPOLYLINE
  5
10114D6
330
1F
100
AcDbEntity
  8
P
  6
Continuous
 62
     0
370
     0
100
AcDbPolyline
 90
        2
 70
     0
 43
0.0
 10
127.5823466193483
 20
189.3316671876993
 10
127.5823466193483
 20
211.1650005210327
  0
LWPOLYLINE
  5
10114D7
330
1F
100
AcDbEntity
  8
P
  6
Continuous
 62
     0
370
     0
100
AcDbPolyline
 90
        2
 70
     0
 43
0.0
 10
127.5823466193483
 20
189.3316671876993
 10
127.5823466193483
 20
189.3316671876993
  0
LWPOLYLINE
  5
10114D8
330
1F
100
AcDbEntity
  8
P
  6
Continuous
 62
     0
370
     0
100
AcDbPolyline
 90
        2
 70
     0
 43
0.0
 10
127.5823466193483
 20
211.1650005210327
 10
127.5823466193483
 20
211.1650005210327
  0
LWPOLYLINE
  5
10114D9
330
1F
100
AcDbEntity
  8
P
  6
Continuous
 62
     0
370
     0
100
AcDbPolyline
 90
        2
 70
     0
 43
0.0
 10
127.9156799526817
 20
211.498333854366
 10
129.1656799526817
 20
211.498333854366
  0
LWPOLYLINE
  5
10114DA
330
1F
100
AcDbEntity
  8
P
  6
Continuous
 62
     0
370
     0
100
AcDbPolyline
 90
        2
 70
     0
 43
0.0
 10
127.9156799526817
 20
211.498333854366
 10
129.1656799526817
 20
211.498333854366
  0
LWPOLYLINE
  5
10114DB
330
1F
100
AcDbEntity
  8
P
  6
Continuous
 62
     0
370
     0
100
AcDbPolyline
 90
        2
 70
     0
 43
0.0
 10
127.9156799526817
 20
211.498333854366
 10
127.9156799526817
 20
211.498333854366
  0
LWPOLYLINE
  5
10114DC
330
1F
100
AcDbEntity
  8
P
  6
Continuous
 62
     0
370
     0
100
AcDbPolyline
 90
        2
 70
     0
 43
0.0
 10
129.1656799526817
 20
211.498333854366
 10
129.1656799526817
 20
211.498333854366
  0
LWPOLYLINE
  5
10114DD
330
1F
100
AcDbEntity
  8
P
  6
Continuous
 62
     0
370
     0
100
AcDbPolyline
 90
        2
 70
     0
 43
0.0
 10
129.5823466193484
 20
189.3316671876993
 10
129.5823466193484
 20
211.1650005210327
  0
LWPOLYLINE
  5
10114DE
330
1F
100
AcDbEntity
  8
P
  6
Continuous
 62
     0
370
     0
100
AcDbPolyline
 90
        2
 70
     0
 43
0.0
 10
129.5823466193484
 20
189.3316671876993
 10
129.5823466193484
 20
211.1650005210327
  0
LWPOLYLINE
  5
10114DF
330
1F
100
AcDbEntity
  8
P
  6
Continuous
 62
     0
370
     0
100
AcDbPolyline
 90
        2
 70
     0
 43
0.0
 10
129.5823466193484
 20
189.3316671876993
 10
129.5823466193484
 20
189.3316671876993
  0
LWPOLYLINE
  5
10114E0
330
1F
100
AcDbEntity
  8
P
  6
Continuous
 62
     0
370
     0
100
AcDbPolyline
 90
        2
 70
     0
 43
0.0
 10
129.5823466193484
 20
211.1650005210327
 10
129.5823466193484
 20
211.1650005210327
  0
LWPOLYLINE
  5
10114E1
330
1F
100
AcDbEntity
  8
P
  6
Continuous
 62
     0
370
     0
100
AcDbPolyline
 90
        2
 70
     0
 43
0.0
 10
137.749013286015
 20
190.998333854366
 10
137.749013286015
 20
189.248333854366
  0
LWPOLYLINE
  5
10114E2
330
1F
100
AcDbEntity
  8
P
  6
Continuous
 62
     0
370
     0
100
AcDbPolyline
 90
        2
 70
     0
 43
0.0
 10
137.749013286015
 20
190.998333854366
 10
137.749013286015
 20
189.248333854366
  0
LWPOLYLINE
  5
10114E3
330
1F
100
AcDbEntity
  8
P
  6
Continuous
 62
     0
370
     0
100
AcDbPolyline
 90
        2
 70
     0
 43
0.0
 10
137.749013286015
 20
190.998333854366
 10
137.749013286015
 20
190.998333854366
  0
LWPOLYLINE
  5
10114E4
330
1F
100
AcDbEntity
  8
P
  6
Continuous
 62
     0
370
     0
100
AcDbPolyline
 90
        2
 70
     0
 43
0.0
 10
137.749013286015
 20
189.248333854366
 10
137.749013286015
 20
189.248333854366
  0
LWPOLYLINE
  5
10114E5
330
1F
100
AcDbEntity
  8
P
  6
DASHDOT
 62
     0
370
     0
100
AcDbPolyline
 90
        2
 70
     0
 43
0.0
 10
128.5823466193484
 20
182.4150005210326
 10
128.5823466193484
 20
217.3316671876994
  0
LWPOLYLINE
  5
10114E6
330
1F
100
AcDbEntity
  8
P
  6
DASHDOT
 62
     0
370
     0
100
AcDbPolyline
 90
        2
 70
     0
 43
0.0
 10
128.5823466193484
 20
182.4150005210326
 10
128.5823466193484
 20
217.3316671876994
  0
LWPOLYLINE
  5
10114E7
330
1F
100
AcDbEntity
  8
P
  6
DASHDOT
 62
     0
370
     0
100
AcDbPolyline
 90
        2
 70
     0
 43
0.0
 10
128.5823466193484
 20
182.4150005210326
 10
128.5823466193484
 20
182.4150005210326
  0
LWPOLYLINE
  5
10114E8
330
1F
100
AcDbEntity
  8
P
  6
DASHDOT
 62
     0
370
     0
100
AcDbPolyline
 90
        2
 70
     0
 43
0.0
 10
128.5823466193484
 20
217.3316671876994
 10
128.5823466193484
 20
217.3316671876994
  0
LWPOLYLINE
  5
10114E9
330
1F
100
AcDbEntity
  8
P
  6
Continuous
 62
     0
370
     0
100
AcDbPolyline
 90
        2
 70
     0
 43
0.0
 10
125.8323466193483
 20
178.6650005210327
 10
125.8323466193483
 20
178.3316671876993
  0
LWPOLYLINE
  5
10114EA
330
1F
100
AcDbEntity
  8
P
  6
Continuous
 62
     0
370
     0
100
AcDbPolyline
 90
        2
 70
     0
 43
0.0
 10
125.8323466193483
 20
178.6650005210327
 10
125.8323466193483
 20
178.3316671876993
  0
LWPOLYLINE
  5
10114EB
330
1F
100
AcDbEntity
  8
P
  6
Continuous
 62
     0
370
     0
100
AcDbPolyline
 90
        2
 70
     0
 43
0.0
 10
125.8323466193483
 20
178.6650005210327
 10
125.8323466193483
 20
178.6650005210327
  0
LWPOLYLINE
  5
10114EC
330
1F
100
AcDbEntity
  8
P
  6
Continuous
 62
     0
370
     0
100
AcDbPolyline
 90
        2
 70
     0
 43
0.0
 10
125.8323466193483
 20
178.3316671876993
 10
125.8323466193483
 20
178.3316671876993
  0
LWPOLYLINE
  5
10114ED
330
1F
100
AcDbEntity
  8
P
  6
Continuous
 62
     0
370
     0
100
AcDbPolyline
 90
        2
 70
     0
 43
0.0
 10
125.8323466193483
 20
178.3316671876993
 10
129.4156799526817
 20
178.3316671876993
  0
LWPOLYLINE
  5
10114EE
330
1F
100
AcDbEntity
  8
P
  6
Continuous
 62
     0
370
     0
100
AcDbPolyline
 90
        2
 70
     0
 43
0.0
 10
125.8323466193483
 20
178.3316671876993
 10
129.4156799526817
 20
178.3316671876993
  0
LWPOLYLINE
  5
10114EF
330
1F
100
AcDbEntity
  8
P
  6
Continuous
 62
     0
370
     0
100
AcDbPolyline
 90
        2
 70
     0
 43
0.0
 10
125.8323466193483
 20
178.3316671876993
 10
125.8323466193483
 20
178.3316671876993
  0
LWPOLYLINE
  5
10114F0
330
1F
100
AcDbEntity
  8
P
  6
Continuous
 62
     0
370
     0
100
AcDbPolyline
 90
        2
 70
     0
 43
0.0
 10
129.4156799526817
 20
178.3316671876993
 10
129.4156799526817
 20
178.3316671876993
  0
LWPOLYLINE
  5
10114F1
330
1F
100
AcDbEntity
  8
P
  6
Continuous
 62
     0
370
     0
100
AcDbPolyline
 90
        2
 70
     0
 43
0.0
 10
126.249013286015
 20
178.4150005210326
 10
126.249013286015
 20
177.4150005210327
  0
LWPOLYLINE
  5
10114F2
330
1F
100
AcDbEntity
  8
P
  6
Continuous
 62
     0
370
     0
100
AcDbPolyline
 90
        2
 70
     0
 43
0.0
 10
126.249013286015
 20
178.4150005210326
 10
126.249013286015
 20
177.4150005210327
  0
LWPOLYLINE
  5
10114F3
330
1F
100
AcDbEntity
  8
P
  6
Continuous
 62
     0
370
     0
100
AcDbPolyline
 90
        2
 70
     0
 43
0.0
 10
126.249013286015
 20
178.4150005210326
 10
126.249013286015
 20
178.4150005210326
  0
LWPOLYLINE
  5
10114F4
330
1F
100
AcDbEntity
  8
P
  6
Continuous
 62
     0
370
     0
100
AcDbPolyline
 90
        2
 70
     0
 43
0.0
 10
126.249013286015
 20
177.4150005210327
 10
126.249013286015
 20
177.4150005210327
  0
LWPOLYLINE
  5
10114F5
330
1F
100
AcDbEntity
  8
P
  6
Continuous
 62
     0
370
     0
100
AcDbPolyline
 90
        2
 70
     0
 43
0.0
 10
128.5823466193484
 20
177.4150005210327
 10
126.249013286015
 20
177.4150005210327
  0
LWPOLYLINE
  5
10114F6
330
1F
100
AcDbEntity
  8
P
  6
Continuous
 62
     0
370
     0
100
AcDbPolyline
 90
        2
 70
     0
 43
0.0
 10
128.5823466193484
 20
177.4150005210327
 10
126.249013286015
 20
177.4150005210327
  0
LWPOLYLINE
  5
10114F7
330
1F
100
AcDbEntity
  8
P
  6
Continuous
 62
     0
370
     0
100
AcDbPolyline
 90
        2
 70
     0
 43
0.0
 10
128.5823466193484
 20
177.4150005210327
 10
128.5823466193484
 20
177.4150005210327
  0
LWPOLYLINE
  5
10114F8
330
1F
100
AcDbEntity
  8
P
  6
Continuous
 62
     0
370
     0
100
AcDbPolyline
 90
        2
 70
     0
 43
0.0
 10
126.249013286015
 20
177.4150005210327
 10
126.249013286015
 20
177.4150005210327
  0
LWPOLYLINE
  5
10114F9
330
1F
100
AcDbEntity
  8
P
  6
Continuous
 62
     0
370
     0
100
AcDbPolyline
 90
        2
 70
     0
 43
0.0
 10
127.3323466193484
 20
178.3316671876993
 10
127.3323466193484
 20
177.4150005210327
  0
LWPOLYLINE
  5
10114FA
330
1F
100
AcDbEntity
  8
P
  6
Continuous
 62
     0
370
     0
100
AcDbPolyline
 90
        2
 70
     0
 43
0.0
 10
127.3323466193484
 20
178.3316671876993
 10
127.3323466193484
 20
177.4150005210327
  0
LWPOLYLINE
  5
10114FB
330
1F
100
AcDbEntity
  8
P
  6
Continuous
 62
     0
370
     0
100
AcDbPolyline
 90
        2
 70
     0
 43
0.0
 10
127.3323466193484
 20
178.3316671876993
 10
127.3323466193484
 20
178.3316671876993
  0
LWPOLYLINE
  5
10114FC
330
1F
100
AcDbEntity
  8
P
  6
Continuous
 62
     0
370
     0
100
AcDbPolyline
 90
        2
 70
     0
 43
0.0
 10
127.3323466193484
 20
177.4150005210327
 10
127.3323466193484
 20
177.4150005210327
  0
LWPOLYLINE
  5
10114FD
330
1F
100
AcDbEntity
  8
P
  6
Continuous
 62
     0
370
     0
100
AcDbPolyline
 90
        2
 70
     0
 43
0.0
 10
125.8323466193483
 20
178.6650005210327
 10
128.5823466193484
 20
178.6650005210327
  0
LWPOLYLINE
  5
10114FE
330
1F
100
AcDbEntity
  8
P
  6
Continuous
 62
     0
370
     0
100
AcDbPolyline
 90
        2
 70
     0
 43
0.0
 10
125.8323466193483
 20
178.6650005210327
 10
128.5823466193484
 20
178.6650005210327
  0
LWPOLYLINE
  5
10114FF
330
1F
100
AcDbEntity
  8
P
  6
Continuous
 62
     0
370
     0
100
AcDbPolyline
 90
        2
 70
     0
 43
0.0
 10
125.8323466193483
 20
178.6650005210327
 10
125.8323466193483
 20
178.6650005210327
  0
LWPOLYLINE
  5
1011500
330
1F
100
AcDbEntity
  8
P
  6
Continuous
 62
     0
370
     0
100
AcDbPolyline
 90
        2
 70
     0
 43
0.0
 10
128.5823466193484
 20
178.6650005210327
 10
128.5823466193484
 20
178.6650005210327
  0
LWPOLYLINE
  5
1011501
330
1F
100
AcDbEntity
  8
P
  6
Continuous
 62
     0
370
     0
100
AcDbPolyline
 90
        2
 70
     0
 43
0.0
 10
127.5823466193483
 20
189.3316671876993
 10
127.5823466193483
 20
178.748333854366
  0
LWPOLYLINE
  5
1011502
330
1F
100
AcDbEntity
  8
P
  6
Continuous
 62
     0
370
     0
100
AcDbPolyline
 90
        2
 70
     0
 43
0.0
 10
127.5823466193483
 20
189.3316671876993
 10
127.5823466193483
 20
178.748333854366
  0
LWPOLYLINE
  5
1011503
330
1F
100
AcDbEntity
  8
P
  6
Continuous
 62
     0
370
     0
100
AcDbPolyline
 90
        2
 70
     0
 43
0.0
 10
127.5823466193483
 20
189.3316671876993
 10
127.5823466193483
 20
189.3316671876993
  0
LWPOLYLINE
  5
1011504
330
1F
100
AcDbEntity
  8
P
  6
Continuous
 62
     0
370
     0
100
AcDbPolyline
 90
        2
 70
     0
 43
0.0
 10
127.5823466193483
 20
178.748333854366
 10
127.5823466193483
 20
178.748333854366
  0
LWPOLYLINE
  5
1011505
330
1F
100
AcDbEntity
  8
P
  6
Continuous
 62
     0
370
     0
100
AcDbPolyline
 90
        2
 70
     0
 43
0.0
 10
127.3323466193484
 20
189.3316671876993
 10
127.3323466193484
 20
211.748333854366
  0
LWPOLYLINE
  5
1011506
330
1F
100
AcDbEntity
  8
P
  6
Continuous
 62
     0
370
     0
100
AcDbPolyline
 90
        2
 70
     0
 43
0.0
 10
127.3323466193484
 20
189.3316671876993
 10
127.3323466193484
 20
211.748333854366
  0
LWPOLYLINE
  5
1011507
330
1F
100
AcDbEntity
  8
P
  6
Continuous
 62
     0
370
     0
100
AcDbPolyline
 90
        2
 70
     0
 43
0.0
 10
127.3323466193484
 20
189.3316671876993
 10
127.3323466193484
 20
189.3316671876993
  0
LWPOLYLINE
  5
1011508
330
1F
100
AcDbEntity
  8
P
  6
Continuous
 62
     0
370
     0
100
AcDbPolyline
 90
        2
 70
     0
 43
0.0
 10
127.3323466193484
 20
211.748333854366
 10
127.3323466193484
 20
211.748333854366
  0
LWPOLYLINE
  5
1011509
330
1F
100
AcDbEntity
  8
P
  6
Continuous
 62
     0
370
     0
100
AcDbPolyline
 90
        2
 70
     0
 43
0.0
 10
127.3323466193484
 20
211.748333854366
 10
128.5823466193484
 20
212.4150005210327
  0
LWPOLYLINE
  5
101150A
330
1F
100
AcDbEntity
  8
P
  6
Continuous
 62
     0
370
     0
100
AcDbPolyline
 90
        2
 70
     0
 43
0.0
 10
127.3323466193484
 20
211.748333854366
 10
128.5823466193484
 20
212.4150005210327
  0
LWPOLYLINE
  5
101150B
330
1F
100
AcDbEntity
  8
P
  6
Continuous
 62
     0
370
     0
100
AcDbPolyline
 90
        2
 70
     0
 43
0.0
 10
127.3323466193484
 20
211.748333854366
 10
127.3323466193484
 20
211.748333854366
  0
LWPOLYLINE
  5
101150C
330
1F
100
AcDbEntity
  8
P
  6
Continuous
 62
     0
370
     0
100
AcDbPolyline
 90
        2
 70
     0
 43
0.0
 10
128.5823466193484
 20
212.4150005210327
 10
128.5823466193484
 20
212.4150005210327
  0
LWPOLYLINE
  5
101150D
330
1F
100
AcDbEntity
  8
P
  6
Continuous
 62
     0
370
     0
100
AcDbPolyline
 90
        2
 70
     0
 43
0.0
 10
127.9156799526817
 20
211.498333854366
 10
127.5823466193483
 20
211.1650005210327
  0
LWPOLYLINE
  5
101150E
330
1F
100
AcDbEntity
  8
P
  6
Continuous
 62
     0
370
     0
100
AcDbPolyline
 90
        2
 70
     0
 43
0.0
 10
127.9156799526817
 20
211.498333854366
 10
127.5823466193483
 20
211.1650005210327
  0
LWPOLYLINE
  5
101150F
330
1F
100
AcDbEntity
  8
P
  6
Continuous
 62
     0
370
     0
100
AcDbPolyline
 90
        2
 70
     0
 43
0.0
 10
127.9156799526817
 20
211.498333854366
 10
127.9156799526817
 20
211.498333854366
  0
LWPOLYLINE
  5
1011510
330
1F
100
AcDbEntity
  8
P
  6
Continuous
 62
     0
370
     0
100
AcDbPolyline
 90
        2
 70
     0
 43
0.0
 10
127.5823466193483
 20
211.1650005210327
 10
127.5823466193483
 20
211.1650005210327
  0
LWPOLYLINE
  5
1011511
330
1F
100
AcDbEntity
  8
P
  6
Continuous
 62
     0
370
     0
100
AcDbPolyline
 90
        2
 70
     0
 43
0.0
 10
129.5823466193484
 20
189.3316671876993
 10
129.5823466193484
 20
211.1650005210327
  0
LWPOLYLINE
  5
1011512
330
1F
100
AcDbEntity
  8
P
  6
Continuous
 62
     0
370
     0
100
AcDbPolyline
 90
        2
 70
     0
 43
0.0
 10
129.5823466193484
 20
189.3316671876993
 10
129.5823466193484
 20
211.1650005210327
  0
LWPOLYLINE
  5
1011513
330
1F
100
AcDbEntity
  8
P
  6
Continuous
 62
     0
370
     0
100
AcDbPolyline
 90
        2
 70
     0
 43
0.0
 10
129.5823466193484
 20
189.3316671876993
 10
129.5823466193484
 20
189.3316671876993
  0
LWPOLYLINE
  5
1011514
330
1F
100
AcDbEntity
  8
P
  6
Continuous
 62
     0
370
     0
100
AcDbPolyline
 90
        2
 70
     0
 43
0.0
 10
129.5823466193484
 20
211.1650005210327
 10
129.5823466193484
 20
211.1650005210327
  0
LWPOLYLINE
  5
1011515
330
1F
100
AcDbEntity
  8
P
  6
Continuous
 62
     0
370
     0
100
AcDbPolyline
 90
        2
 70
     0
 43
0.0
 10
131.3323466193484
 20
178.6650005210327
 10
131.3323466193484
 20
178.3316671876993
  0
LWPOLYLINE
  5
1011516
330
1F
100
AcDbEntity
  8
P
  6
Continuous
 62
     0
370
     0
100
AcDbPolyline
 90
        2
 70
     0
 43
0.0
 10
131.3323466193484
 20
178.6650005210327
 10
131.3323466193484
 20
178.3316671876993
  0
LWPOLYLINE
  5
1011517
330
1F
100
AcDbEntity
  8
P
  6
Continuous
 62
     0
370
     0
100
AcDbPolyline
 90
        2
 70
     0
 43
0.0
 10
131.3323466193484
 20
178.6650005210327
 10
131.3323466193484
 20
178.6650005210327
  0
LWPOLYLINE
  5
1011518
330
1F
100
AcDbEntity
  8
P
  6
Continuous
 62
     0
370
     0
100
AcDbPolyline
 90
        2
 70
     0
 43
0.0
 10
131.3323466193484
 20
178.3316671876993
 10
131.3323466193484
 20
178.3316671876993
  0
LWPOLYLINE
  5
1011519
330
1F
100
AcDbEntity
  8
P
  6
Continuous
 62
     0
370
     0
100
AcDbPolyline
 90
        2
 70
     0
 43
0.0
 10
131.3323466193484
 20
178.3316671876993
 10
127.749013286015
 20
178.3316671876993
  0
LWPOLYLINE
  5
101151A
330
1F
100
AcDbEntity
  8
P
  6
Continuous
 62
     0
370
     0
100
AcDbPolyline
 90
        2
 70
     0
 43
0.0
 10
131.3323466193484
 20
178.3316671876993
 10
127.749013286015
 20
178.3316671876993
  0
LWPOLYLINE
  5
101151B
330
1F
100
AcDbEntity
  8
P
  6
Continuous
 62
     0
370
     0
100
AcDbPolyline
 90
        2
 70
     0
 43
0.0
 10
131.3323466193484
 20
178.3316671876993
 10
131.3323466193484
 20
178.3316671876993
  0
LWPOLYLINE
  5
101151C
330
1F
100
AcDbEntity
  8
P
  6
Continuous
 62
     0
370
     0
100
AcDbPolyline
 90
        2
 70
     0
 43
0.0
 10
127.749013286015
 20
178.3316671876993
 10
127.749013286015
 20
178.3316671876993
  0
LWPOLYLINE
  5
101151D
330
1F
100
AcDbEntity
  8
P
  6
Continuous
 62
     0
370
     0
100
AcDbPolyline
 90
        2
 70
     0
 43
0.0
 10
130.8323466193484
 20
178.4150005210326
 10
130.8323466193484
 20
177.4150005210327
  0
LWPOLYLINE
  5
101151E
330
1F
100
AcDbEntity
  8
P
  6
Continuous
 62
     0
370
     0
100
AcDbPolyline
 90
        2
 70
     0
 43
0.0
 10
130.8323466193484
 20
178.4150005210326
 10
130.8323466193484
 20
177.4150005210327
  0
LWPOLYLINE
  5
101151F
330
1F
100
AcDbEntity
  8
P
  6
Continuous
 62
     0
370
     0
100
AcDbPolyline
 90
        2
 70
     0
 43
0.0
 10
130.8323466193484
 20
178.4150005210326
 10
130.8323466193484
 20
178.4150005210326
  0
LWPOLYLINE
  5
1011520
330
1F
100
AcDbEntity
  8
P
  6
Continuous
 62
     0
370
     0
100
AcDbPolyline
 90
        2
 70
     0
 43
0.0
 10
130.8323466193484
 20
177.4150005210327
 10
130.8323466193484
 20
177.4150005210327
  0
LWPOLYLINE
  5
1011521
330
1F
100
AcDbEntity
  8
P
  6
Continuous
 62
     0
370
     0
100
AcDbPolyline
 90
        2
 70
     0
 43
0.0
 10
128.5823466193484
 20
177.4150005210327
 10
130.8323466193484
 20
177.4150005210327
  0
LWPOLYLINE
  5
1011522
330
1F
100
AcDbEntity
  8
P
  6
Continuous
 62
     0
370
     0
100
AcDbPolyline
 90
        2
 70
     0
 43
0.0
 10
128.5823466193484
 20
177.4150005210327
 10
130.8323466193484
 20
177.4150005210327
  0
LWPOLYLINE
  5
1011523
330
1F
100
AcDbEntity
  8
P
  6
Continuous
 62
     0
370
     0
100
AcDbPolyline
 90
        2
 70
     0
 43
0.0
 10
128.5823466193484
 20
177.4150005210327
 10
128.5823466193484
 20
177.4150005210327
  0
LWPOLYLINE
  5
1011524
330
1F
100
AcDbEntity
  8
P
  6
Continuous
 62
     0
370
     0
100
AcDbPolyline
 90
        2
 70
     0
 43
0.0
 10
130.8323466193484
 20
177.4150005210327
 10
130.8323466193484
 20
177.4150005210327
  0
LWPOLYLINE
  5
1011525
330
1F
100
AcDbEntity
  8
P
  6
Continuous
 62
     0
370
     0
100
AcDbPolyline
 90
        2
 70
     0
 43
0.0
 10
129.749013286015
 20
178.3316671876993
 10
129.749013286015
 20
177.4150005210327
  0
LWPOLYLINE
  5
1011526
330
1F
100
AcDbEntity
  8
P
  6
Continuous
 62
     0
370
     0
100
AcDbPolyline
 90
        2
 70
     0
 43
0.0
 10
129.749013286015
 20
178.3316671876993
 10
129.749013286015
 20
177.4150005210327
  0
LWPOLYLINE
  5
1011527
330
1F
100
AcDbEntity
  8
P
  6
Continuous
 62
     0
370
     0
100
AcDbPolyline
 90
        2
 70
     0
 43
0.0
 10
129.749013286015
 20
178.3316671876993
 10
129.749013286015
 20
178.3316671876993
  0
LWPOLYLINE
  5
1011528
330
1F
100
AcDbEntity
  8
P
  6
Continuous
 62
     0
370
     0
100
AcDbPolyline
 90
        2
 70
     0
 43
0.0
 10
129.749013286015
 20
177.4150005210327
 10
129.749013286015
 20
177.4150005210327
  0
LWPOLYLINE
  5
1011529
330
1F
100
AcDbEntity
  8
P
  6
Continuous
 62
     0
370
     0
100
AcDbPolyline
 90
        2
 70
     0
 43
0.0
 10
131.3323466193484
 20
178.6650005210327
 10
128.5823466193484
 20
178.6650005210327
  0
LWPOLYLINE
  5
101152A
330
1F
100
AcDbEntity
  8
P
  6
Continuous
 62
     0
370
     0
100
AcDbPolyline
 90
        2
 70
     0
 43
0.0
 10
131.3323466193484
 20
178.6650005210327
 10
128.5823466193484
 20
178.6650005210327
  0
LWPOLYLINE
  5
101152B
330
1F
100
AcDbEntity
  8
P
  6
Continuous
 62
     0
370
     0
100
AcDbPolyline
 90
        2
 70
     0
 43
0.0
 10
131.3323466193484
 20
178.6650005210327
 10
131.3323466193484
 20
178.6650005210327
  0
LWPOLYLINE
  5
101152C
330
1F
100
AcDbEntity
  8
P
  6
Continuous
 62
     0
370
     0
100
AcDbPolyline
 90
        2
 70
     0
 43
0.0
 10
128.5823466193484
 20
178.6650005210327
 10
128.5823466193484
 20
178.6650005210327
  0
LWPOLYLINE
  5
101152D
330
1F
100
AcDbEntity
  8
P
  6
Continuous
 62
     0
370
     0
100
AcDbPolyline
 90
        2
 70
     0
 43
0.0
 10
129.5823466193484
 20
189.3316671876993
 10
129.5823466193484
 20
178.748333854366
  0
LWPOLYLINE
  5
101152E
330
1F
100
AcDbEntity
  8
P
  6
Continuous
 62
     0
370
     0
100
AcDbPolyline
 90
        2
 70
     0
 43
0.0
 10
129.5823466193484
 20
189.3316671876993
 10
129.5823466193484
 20
178.748333854366
  0
LWPOLYLINE
  5
101152F
330
1F
100
AcDbEntity
  8
P
  6
Continuous
 62
     0
370
     0
100
AcDbPolyline
 90
        2
 70
     0
 43
0.0
 10
129.5823466193484
 20
189.3316671876993
 10
129.5823466193484
 20
189.3316671876993
  0
LWPOLYLINE
  5
1011530
330
1F
100
AcDbEntity
  8
P
  6
Continuous
 62
     0
370
     0
100
AcDbPolyline
 90
        2
 70
     0
 43
0.0
 10
129.5823466193484
 20
178.748333854366
 10
129.5823466193484
 20
178.748333854366
  0
LWPOLYLINE
  5
1011531
330
1F
100
AcDbEntity
  8
P
  6
Continuous
 62
     0
370
     0
100
AcDbPolyline
 90
        2
 70
     0
 43
0.0
 10
129.749013286015
 20
189.3316671876993
 10
129.749013286015
 20
211.748333854366
  0
LWPOLYLINE
  5
1011532
330
1F
100
AcDbEntity
  8
P
  6
Continuous
 62
     0
370
     0
100
AcDbPolyline
 90
        2
 70
     0
 43
0.0
 10
129.749013286015
 20
189.3316671876993
 10
129.749013286015
 20
211.748333854366
  0
LWPOLYLINE
  5
1011533
330
1F
100
AcDbEntity
  8
P
  6
Continuous
 62
     0
370
     0
100
AcDbPolyline
 90
        2
 70
     0
 43
0.0
 10
129.749013286015
 20
189.3316671876993
 10
129.749013286015
 20
189.3316671876993
  0
LWPOLYLINE
  5
1011534
330
1F
100
AcDbEntity
  8
P
  6
Continuous
 62
     0
370
     0
100
AcDbPolyline
 90
        2
 70
     0
 43
0.0
 10
129.749013286015
 20
211.748333854366
 10
129.749013286015
 20
211.748333854366
  0
LWPOLYLINE
  5
1011535
330
1F
100
AcDbEntity
  8
P
  6
Continuous
 62
     0
370
     0
100
AcDbPolyline
 90
        2
 70
     0
 43
0.0
 10
129.749013286015
 20
211.748333854366
 10
128.5823466193484
 20
212.4150005210327
  0
LWPOLYLINE
  5
1011536
330
1F
100
AcDbEntity
  8
P
  6
Continuous
 62
     0
370
     0
100
AcDbPolyline
 90
        2
 70
     0
 43
0.0
 10
129.749013286015
 20
211.748333854366
 10
128.5823466193484
 20
212.4150005210327
  0
LWPOLYLINE
  5
1011537
330
1F
100
AcDbEntity
  8
P
  6
Continuous
 62
     0
370
     0
100
AcDbPolyline
 90
        2
 70
     0
 43
0.0
 10
129.749013286015
 20
211.748333854366
 10
129.749013286015
 20
211.748333854366
  0
LWPOLYLINE
  5
1011538
330
1F
100
AcDbEntity
  8
P
  6
Continuous
 62
     0
370
     0
100
AcDbPolyline
 90
        2
 70
     0
 43
0.0
 10
128.5823466193484
 20
212.4150005210327
 10
128.5823466193484
 20
212.4150005210327
  0
LWPOLYLINE
  5
1011539
330
1F
100
AcDbEntity
  8
P
  6
Continuous
 62
     0
370
     0
100
AcDbPolyline
 90
        2
 70
     0
 43
0.0
 10
129.1656799526817
 20
211.498333854366
 10
129.5823466193484
 20
211.1650005210327
  0
LWPOLYLINE
  5
101153A
330
1F
100
AcDbEntity
  8
P
  6
Continuous
 62
     0
370
     0
100
AcDbPolyline
 90
        2
 70
     0
 43
0.0
 10
129.1656799526817
 20
211.498333854366
 10
129.5823466193484
 20
211.1650005210327
  0
LWPOLYLINE
  5
101153B
330
1F
100
AcDbEntity
  8
P
  6
Continuous
 62
     0
370
     0
100
AcDbPolyline
 90
        2
 70
     0
 43
0.0
 10
129.1656799526817
 20
211.498333854366
 10
129.1656799526817
 20
211.498333854366
  0
LWPOLYLINE
  5
101153C
330
1F
100
AcDbEntity
  8
P
  6
Continuous
 62
     0
370
     0
100
AcDbPolyline
 90
        2
 70
     0
 43
0.0
 10
129.5823466193484
 20
211.1650005210327
 10
129.5823466193484
 20
211.1650005210327
  0
LWPOLYLINE
  5
101153D
330
1F
100
AcDbEntity
  8
P
  6
Continuous
 62
     0
370
     0
100
AcDbPolyline
 90
        2
 70
     0
 43
0.0
 10
119.3323466193483
 20
190.998333854366
 10
119.3323466193483
 20
189.248333854366
  0
LWPOLYLINE
  5
101153E
330
1F
100
AcDbEntity
  8
P
  6
Continuous
 62
     0
370
     0
100
AcDbPolyline
 90
        2
 70
     0
 43
0.0
 10
119.3323466193483
 20
190.998333854366
 10
119.3323466193483
 20
189.248333854366
  0
LWPOLYLINE
  5
101153F
330
1F
100
AcDbEntity
  8
P
  6
Continuous
 62
     0
370
     0
100
AcDbPolyline
 90
        2
 70
     0
 43
0.0
 10
119.3323466193483
 20
190.998333854366
 10
119.3323466193483
 20
190.998333854366
  0
LWPOLYLINE
  5
1011540
330
1F
100
AcDbEntity
  8
P
  6
Continuous
 62
     0
370
     0
100
AcDbPolyline
 90
        2
 70
     0
 43
0.0
 10
119.3323466193483
 20
189.248333854366
 10
119.3323466193483
 20
189.248333854366
  0
LWPOLYLINE
  5
1011541
330
1F
100
AcDbEntity
  8
P
  6
Continuous
 62
     0
370
     0
100
AcDbPolyline
 90
        2
 70
     0
 43
0.0
 10
159.8323466193484
 20
191.1650005210327
 10
129.749013286015
 20
191.1650005210327
  0
LWPOLYLINE
  5
1011542
330
1F
100
AcDbEntity
  8
P
  6
Continuous
 62
     0
370
     0
100
AcDbPolyline
 90
        2
 70
     0
 43
0.0
 10
127.3323466193484
 20
191.1650005210327
 10
84.49901328601503
 20
191.1650005210327
  0
LWPOLYLINE
  5
1011543
330
1F
100
AcDbEntity
  8
P
  6
Continuous
 62
     0
370
     0
100
AcDbPolyline
 90
        2
 70
     0
 43
0.0
 10
82.08234661934836
 20
191.1650005210327
 10
29.16567995268171
 20
191.1650005210327
  0
LWPOLYLINE
  5
1011544
330
1F
100
AcDbEntity
  8
P
  6
DASHDOT
 62
     0
370
     0
100
AcDbPolyline
 90
        2
 70
     0
 43
0.0
 10
170.1656799526817
 20
227.498333854366
 10
29.16567995268171
 20
227.498333854366
  0
LWPOLYLINE
  5
1011545
330
1F
100
AcDbEntity
  8
P
  6
DASHDOT
 62
     0
370
     0
100
AcDbPolyline
 90
        2
 70
     0
 43
0.0
 10
170.1656799526817
 20
223.6650005210327
 10
29.16567995268171
 20
223.6650005210327
  0
LWPOLYLINE
  5
1011546
330
1F
100
AcDbEntity
  8
P
  6
DASHDOT
 62
     0
370
     0
100
AcDbPolyline
 90
        2
 70
     0
 43
0.0
 10
207.749013286015
 20
227.498333854366
 10
227.499013286015
 20
227.498333854366
  0
LWPOLYLINE
  5
1011547
330
1F
100
AcDbEntity
  8
P
  6
DASHDOT
 62
     0
370
     0
100
AcDbPolyline
 90
        2
 70
     0
 43
0.0
 10
207.999013286015
 20
223.6650005210327
 10
227.7490132860151
 20
223.6650005210327
  0
LWPOLYLINE
  5
1011548
330
1F
100
AcDbEntity
  8
P
  6
Continuous
 62
     0
370
     0
100
AcDbPolyline
 90
        2
 70
     0
 43
0.0
 10
193.499013286015
 20
309.498333854366
 10
211.999013286015
 20
277.4150005210326
  0
LWPOLYLINE
  5
1011549
330
1F
100
AcDbEntity
  8
P
  6
Continuous
 62
     0
370
     0
100
AcDbPolyline
 90
        2
 70
     0
 43
0.0
 10
221.0823466193484
 20
282.6650005210327
 10
204.0823466193484
 20
312.0816671876994
  0
LWPOLYLINE
  5
101154A
330
1F
100
AcDbEntity
  8
P
  6
Continuous
 62
     0
370
     0
100
AcDbPolyline
 90
        3
 70
     0
 43
0.0
 10
204.8323466193484
 20
189.3316671876993
 10
213.4990132860151
 20
197.748333854366
 10
213.4990132860151
 20
197.998333854366
  0
LWPOLYLINE
  5
101154B
330
1F
100
AcDbEntity
  8
P
  6
Continuous
 62
     0
370
     0
100
AcDbPolyline
 90
        2
 70
     0
 43
0.0
 10
211.0823466193484
 20
178.748333854366
 10
224.0823466193484
 20
191.6650005210327
  0
LWPOLYLINE
  5
101154C
330
1F
100
AcDbEntity
  8
P
  6
Continuous
 62
     0
370
     0
100
AcDbPolyline
 90
        2
 70
     0
 43
0.0
 10
213.4990132860151
 20
271.5816671876994
 10
211.999013286015
 20
277.4150005210326
  0
LWPOLYLINE
  5
101154D
330
1F
100
AcDbEntity
  8
P
  6
Continuous
 62
     0
370
     0
100
AcDbPolyline
 90
        2
 70
     0
 43
0.0
 10
224.0823466193484
 20
271.5816671876994
 10
221.0823466193484
 20
282.6650005210327
  0
LWPOLYLINE
  5
101154E
330
1F
100
AcDbEntity
  8
P
  6
Continuous
 62
     0
370
     0
100
AcDbPolyline
 90
        2
 70
     0
 43
0.0
 10
202.5823466193484
 20
317.498333854366
 10
204.0823466193484
 20
312.0816671876994
  0
LWPOLYLINE
  5
101154F
330
1F
100
AcDbEntity
  8
P
  6
Continuous
 62
     0
370
     0
100
AcDbPolyline
 90
        2
 70
     0
 43
0.0
 10
190.9156799526817
 20
317.498333854366
 10
193.499013286015
 20
309.498333854366
  0
LWPOLYLINE
  5
1011550
330
1F
100
AcDbEntity
  8
P
  6
Continuous
 62
     0
370
     0
100
AcDbPolyline
 90
        2
 70
     0
 43
0.0
 10
29.08234661934838
 20
248.248333854366
 10
46.58234661934837
 20
265.5816671876994
  0
LWPOLYLINE
  5
1011551
330
1F
100
AcDbEntity
  8
P
  6
Continuous
 62
     0
370
     0
100
AcDbPolyline
 90
        2
 70
     0
 43
0.0
 10
30.91567995268171
 20
227.498333854366
 10
68.99901328601504
 20
265.5816671876994
  0
LWPOLYLINE
  5
1011552
330
1F
100
AcDbEntity
  8
P
  6
Continuous
 62
     0
370
     0
100
AcDbPolyline
 90
        2
 70
     0
 43
0.0
 10
53.41567995268171
 20
227.498333854366
 10
91.58234661934837
 20
265.5816671876994
  0
LWPOLYLINE
  5
1011553
330
1F
100
AcDbEntity
  8
P
  6
Continuous
 62
     0
370
     0
100
AcDbPolyline
 90
        2
 70
     0
 43
0.0
 10
75.83234661934837
 20
227.498333854366
 10
113.999013286015
 20
265.5816671876994
  0
LWPOLYLINE
  5
1011554
330
1F
100
AcDbEntity
  8
P
  6
Continuous
 62
     0
370
     0
100
AcDbPolyline
 90
        2
 70
     0
 43
0.0
 10
98.24901328601505
 20
227.498333854366
 10
135.4156799526817
 20
264.6650005210327
  0
LWPOLYLINE
  5
1011555
330
1F
100
AcDbEntity
  8
P
  6
Continuous
 62
     0
370
     0
100
AcDbPolyline
 90
        2
 70
     0
 43
0.0
 10
120.6656799526817
 20
227.498333854366
 10
157.6656799526817
 20
264.6650005210327
  0
LWPOLYLINE
  5
1011556
330
1F
100
AcDbEntity
  8
P
  6
Continuous
 62
     0
370
     0
100
AcDbPolyline
 90
        2
 70
     0
 43
0.0
 10
143.0823466193483
 20
227.498333854366
 10
159.8323466193484
 20
244.0816671876994
  0
LWPOLYLINE
  5
1011557
330
1F
100
AcDbEntity
  8
P
  6
Continuous
 62
     0
370
     0
100
AcDbPolyline
 90
        2
 70
     0
 43
0.0
 10
29.08234661934838
 20
259.3316671876994
 10
29.66567995268171
 20
259.8316671876994
  0
LWPOLYLINE
  5
1011558
330
1F
100
AcDbEntity
  8
P
  6
Continuous
 62
     0
370
     0
100
AcDbPolyline
 90
        2
 70
     0
 43
0.0
 10
32.41567995268171
 20
262.6650005210326
 10
35.33234661934838
 20
265.5816671876994
  0
LWPOLYLINE
  5
1011559
330
1F
100
AcDbEntity
  8
P
  6
Continuous
 62
     0
370
     0
100
AcDbPolyline
 90
        2
 70
     0
 43
0.0
 10
29.08234661934838
 20
236.9150005210327
 10
29.66567995268171
 20
237.498333854366
  0
LWPOLYLINE
  5
101155A
330
1F
100
AcDbEntity
  8
P
  6
Continuous
 62
     0
370
     0
100
AcDbPolyline
 90
        2
 70
     0
 43
0.0
 10
32.41567995268171
 20
240.248333854366
 10
40.83234661934837
 20
248.498333854366
  0
LWPOLYLINE
  5
101155B
330
1F
100
AcDbEntity
  8
P
  6
Continuous
 62
     0
370
     0
100
AcDbPolyline
 90
        2
 70
     0
 43
0.0
 10
43.6656799526817
 20
251.5816671876994
 10
52.08234661934838
 20
259.8316671876994
  0
LWPOLYLINE
  5
101155C
330
1F
100
AcDbEntity
  8
P
  6
Continuous
 62
     0
370
     0
100
AcDbPolyline
 90
        2
 70
     0
 43
0.0
 10
54.83234661934837
 20
262.6650005210326
 10
57.74901328601504
 20
265.5816671876994
  0
LWPOLYLINE
  5
101155D
330
1F
100
AcDbEntity
  8
P
  6
Continuous
 62
     0
370
     0
100
AcDbPolyline
 90
        2
 70
     0
 43
0.0
 10
43.6656799526817
 20
229.1650005210327
 10
52.08234661934838
 20
237.498333854366
  0
LWPOLYLINE
  5
101155E
330
1F
100
AcDbEntity
  8
P
  6
Continuous
 62
     0
370
     0
100
AcDbPolyline
 90
        2
 70
     0
 43
0.0
 10
54.83234661934837
 20
240.248333854366
 10
63.24901328601504
 20
248.498333854366
  0
LWPOLYLINE
  5
101155F
330
1F
100
AcDbEntity
  8
P
  6
Continuous
 62
     0
370
     0
100
AcDbPolyline
 90
        2
 70
     0
 43
0.0
 10
66.16567995268171
 20
251.5816671876994
 10
74.49901328601504
 20
259.8316671876994
  0
LWPOLYLINE
  5
1011560
330
1F
100
AcDbEntity
  8
P
  6
Continuous
 62
     0
370
     0
100
AcDbPolyline
 90
        2
 70
     0
 43
0.0
 10
77.41567995268171
 20
262.6650005210326
 10
80.16567995268172
 20
265.5816671876994
  0
LWPOLYLINE
  5
1011561
330
1F
100
AcDbEntity
  8
P
  6
Continuous
 62
     0
370
     0
100
AcDbPolyline
 90
        2
 70
     0
 43
0.0
 10
66.16567995268171
 20
229.1650005210327
 10
74.49901328601504
 20
237.498333854366
  0
LWPOLYLINE
  5
1011562
330
1F
100
AcDbEntity
  8
P
  6
Continuous
 62
     0
370
     0
100
AcDbPolyline
 90
        2
 70
     0
 43
0.0
 10
77.41567995268171
 20
240.248333854366
 10
85.83234661934836
 20
248.498333854366
  0
LWPOLYLINE
  5
1011563
330
1F
100
AcDbEntity
  8
P
  6
Continuous
 62
     0
370
     0
100
AcDbPolyline
 90
        2
 70
     0
 43
0.0
 10
88.58234661934837
 20
251.5816671876994
 10
96.99901328601505
 20
259.8316671876994
  0
LWPOLYLINE
  5
1011564
330
1F
100
AcDbEntity
  8
P
  6
Continuous
 62
     0
370
     0
100
AcDbPolyline
 90
        2
 70
     0
 43
0.0
 10
99.74901328601504
 20
262.6650005210326
 10
102.749013286015
 20
265.5816671876994
  0
LWPOLYLINE
  5
1011565
330
1F
100
AcDbEntity
  8
P
  6
Continuous
 62
     0
370
     0
100
AcDbPolyline
 90
        2
 70
     0
 43
0.0
 10
88.58234661934837
 20
229.1650005210327
 10
96.99901328601505
 20
237.498333854366
  0
LWPOLYLINE
  5
1011566
330
1F
100
AcDbEntity
  8
P
  6
Continuous
 62
     0
370
     0
100
AcDbPolyline
 90
        2
 70
     0
 43
0.0
 10
99.74901328601504
 20
240.248333854366
 10
108.249013286015
 20
248.498333854366
  0
LWPOLYLINE
  5
1011567
330
1F
100
AcDbEntity
  8
P
  6
Continuous
 62
     0
370
     0
100
AcDbPolyline
 90
        2
 70
     0
 43
0.0
 10
110.999013286015
 20
251.5816671876994
 10
119.4156799526817
 20
259.8316671876994
  0
LWPOLYLINE
  5
1011568
330
1F
100
AcDbEntity
  8
P
  6
Continuous
 62
     0
370
     0
100
AcDbPolyline
 90
        2
 70
     0
 43
0.0
 10
122.1656799526817
 20
262.6650005210326
 10
125.1656799526817
 20
265.5816671876994
  0
LWPOLYLINE
  5
1011569
330
1F
100
AcDbEntity
  8
P
  6
Continuous
 62
     0
370
     0
100
AcDbPolyline
 90
        2
 70
     0
 43
0.0
 10
110.999013286015
 20
229.1650005210327
 10
119.4156799526817
 20
237.498333854366
  0
LWPOLYLINE
  5
101156A
330
1F
100
AcDbEntity
  8
P
  6
Continuous
 62
     0
370
     0
100
AcDbPolyline
 90
        2
 70
     0
 43
0.0
 10
122.1656799526817
 20
240.248333854366
 10
130.5823466193483
 20
248.498333854366
  0
LWPOLYLINE
  5
101156B
330
1F
100
AcDbEntity
  8
P
  6
Continuous
 62
     0
370
     0
100
AcDbPolyline
 90
        2
 70
     0
 43
0.0
 10
133.4156799526817
 20
251.5816671876994
 10
141.8323466193483
 20
259.8316671876994
  0
LWPOLYLINE
  5
101156C
330
1F
100
AcDbEntity
  8
P
  6
Continuous
 62
     0
370
     0
100
AcDbPolyline
 90
        2
 70
     0
 43
0.0
 10
144.5823466193484
 20
262.6650005210326
 10
147.3323466193484
 20
265.4150005210326
  0
LWPOLYLINE
  5
101156D
330
1F
100
AcDbEntity
  8
P
  6
Continuous
 62
     0
370
     0
100
AcDbPolyline
 90
        2
 70
     0
 43
0.0
 10
133.4156799526817
 20
229.1650005210327
 10
141.8323466193483
 20
237.498333854366
  0
LWPOLYLINE
  5
101156E
330
1F
100
AcDbEntity
  8
P
  6
Continuous
 62
     0
370
     0
100
AcDbPolyline
 90
        2
 70
     0
 43
0.0
 10
144.5823466193484
 20
240.248333854366
 10
152.999013286015
 20
248.498333854366
  0
LWPOLYLINE
  5
101156F
330
1F
100
AcDbEntity
  8
P
  6
Continuous
 62
     0
370
     0
100
AcDbPolyline
 90
        2
 70
     0
 43
0.0
 10
155.749013286015
 20
251.5816671876994
 10
159.8323466193484
 20
255.4150005210327
  0
LWPOLYLINE
  5
1011570
330
1F
100
AcDbEntity
  8
P
  6
Continuous
 62
     0
370
     0
100
AcDbPolyline
 90
        2
 70
     0
 43
0.0
 10
155.749013286015
 20
229.1650005210327
 10
159.8323466193484
 20
232.998333854366
  0
LWPOLYLINE
  5
1011571
330
1F
100
AcDbEntity
  8
P
  6
Continuous
 62
     0
370
     0
100
AcDbPolyline
 90
        2
 70
     0
 43
0.0
 10
155.749013286015
 20
206.498333854366
 10
159.8323466193484
 20
210.6650005210327
  0
LWPOLYLINE
  5
1011572
330
1F
100
AcDbEntity
  8
P
  6
Continuous
 62
     0
370
     0
100
AcDbPolyline
 90
        2
 70
     0
 43
0.0
 10
144.5823466193484
 20
195.4150005210327
 10
152.999013286015
 20
203.748333854366
  0
LWPOLYLINE
  5
1011573
330
1F
100
AcDbEntity
  8
P
  6
Continuous
 62
     0
370
     0
100
AcDbPolyline
 90
        2
 70
     0
 43
0.0
 10
140.4156799526817
 20
191.248333854366
 10
141.8323466193483
 20
192.6650005210326
  0
LWPOLYLINE
  5
1011574
330
1F
100
AcDbEntity
  8
P
  6
Continuous
 62
     0
370
     0
100
AcDbPolyline
 90
        2
 70
     0
 43
0.0
 10
144.5823466193484
 20
217.8316671876994
 10
150.499013286015
 20
223.6650005210327
  0
LWPOLYLINE
  5
1011575
330
1F
100
AcDbEntity
  8
P
  6
Continuous
 62
     0
370
     0
100
AcDbPolyline
 90
        2
 70
     0
 43
0.0
 10
133.4156799526817
 20
206.498333854366
 10
141.8323466193483
 20
215.0816671876994
  0
LWPOLYLINE
  5
1011576
330
1F
100
AcDbEntity
  8
P
  6
Continuous
 62
     0
370
     0
100
AcDbPolyline
 90
        2
 70
     0
 43
0.0
 10
129.749013286015
 20
202.9150005210327
 10
130.5823466193483
 20
203.748333854366
  0
LWPOLYLINE
  5
1011577
330
1F
100
AcDbEntity
  8
P
  6
Continuous
 62
     0
370
     0
100
AcDbPolyline
 90
        2
 70
     0
 43
0.0
 10
122.1656799526817
 20
195.4150005210327
 10
127.3323466193484
 20
200.4150005210327
  0
LWPOLYLINE
  5
1011578
330
1F
100
AcDbEntity
  8
P
  6
Continuous
 62
     0
370
     0
100
AcDbPolyline
 90
        2
 70
     0
 43
0.0
 10
117.999013286015
 20
191.248333854366
 10
119.4156799526817
 20
192.6650005210326
  0
LWPOLYLINE
  5
1011579
330
1F
100
AcDbEntity
  8
P
  6
Continuous
 62
     0
370
     0
100
AcDbPolyline
 90
        2
 70
     0
 43
0.0
 10
122.1656799526817
 20
217.8316671876994
 10
128.1656799526817
 20
223.6650005210327
  0
LWPOLYLINE
  5
101157A
330
1F
100
AcDbEntity
  8
P
  6
Continuous
 62
     0
370
     0
100
AcDbPolyline
 90
        2
 70
     0
 43
0.0
 10
110.999013286015
 20
206.498333854366
 10
119.4156799526817
 20
215.0816671876994
  0
LWPOLYLINE
  5
101157B
330
1F
100
AcDbEntity
  8
P
  6
Continuous
 62
     0
370
     0
100
AcDbPolyline
 90
        2
 70
     0
 43
0.0
 10
99.74901328601504
 20
195.4150005210327
 10
108.249013286015
 20
203.748333854366
  0
LWPOLYLINE
  5
101157C
330
1F
100
AcDbEntity
  8
P
  6
Continuous
 62
     0
370
     0
100
AcDbPolyline
 90
        2
 70
     0
 43
0.0
 10
95.66567995268171
 20
191.248333854366
 10
96.99901328601505
 20
192.6650005210326
  0
LWPOLYLINE
  5
101157D
330
1F
100
AcDbEntity
  8
P
  6
Continuous
 62
     0
370
     0
100
AcDbPolyline
 90
        2
 70
     0
 43
0.0
 10
99.74901328601504
 20
217.8316671876994
 10
105.5823466193483
 20
223.6650005210327
  0
LWPOLYLINE
  5
101157E
330
1F
100
AcDbEntity
  8
P
  6
Continuous
 62
     0
370
     0
100
AcDbPolyline
 90
        2
 70
     0
 43
0.0
 10
88.58234661934837
 20
206.498333854366
 10
96.99901328601505
 20
215.0816671876994
  0
LWPOLYLINE
  5
101157F
330
1F
100
AcDbEntity
  8
P
  6
Continuous
 62
     0
370
     0
100
AcDbPolyline
 90
        2
 70
     0
 43
0.0
 10
84.58234661934836
 20
202.5816671876994
 10
85.83234661934836
 20
203.748333854366
  0
LWPOLYLINE
  5
1011580
330
1F
100
AcDbEntity
  8
P
  6
Continuous
 62
     0
370
     0
100
AcDbPolyline
 90
        2
 70
     0
 43
0.0
 10
77.41567995268171
 20
195.4150005210327
 10
82.08234661934836
 20
200.0816671876993
  0
LWPOLYLINE
  5
1011581
330
1F
100
AcDbEntity
  8
P
  6
Continuous
 62
     0
370
     0
100
AcDbPolyline
 90
        2
 70
     0
 43
0.0
 10
73.08234661934837
 20
191.248333854366
 10
74.49901328601504
 20
192.6650005210326
  0
LWPOLYLINE
  5
1011582
330
1F
100
AcDbEntity
  8
P
  6
Continuous
 62
     0
370
     0
100
AcDbPolyline
 90
        2
 70
     0
 43
0.0
 10
77.41567995268171
 20
217.8316671876994
 10
83.16567995268171
 20
223.6650005210327
  0
LWPOLYLINE
  5
1011583
330
1F
100
AcDbEntity
  8
P
  6
Continuous
 62
     0
370
     0
100
AcDbPolyline
 90
        2
 70
     0
 43
0.0
 10
66.16567995268171
 20
206.498333854366
 10
74.49901328601504
 20
215.0816671876994
  0
LWPOLYLINE
  5
1011584
330
1F
100
AcDbEntity
  8
P
  6
Continuous
 62
     0
370
     0
100
AcDbPolyline
 90
        2
 70
     0
 43
0.0
 10
54.83234661934837
 20
195.4150005210327
 10
63.24901328601504
 20
203.748333854366
  0
LWPOLYLINE
  5
1011585
330
1F
100
AcDbEntity
  8
P
  6
Continuous
 62
     0
370
     0
100
AcDbPolyline
 90
        2
 70
     0
 43
0.0
 10
50.66567995268171
 20
191.248333854366
 10
52.08234661934838
 20
192.6650005210326
  0
LWPOLYLINE
  5
1011586
330
1F
100
AcDbEntity
  8
P
  6
Continuous
 62
     0
370
     0
100
AcDbPolyline
 90
        2
 70
     0
 43
0.0
 10
54.83234661934837
 20
217.8316671876994
 10
60.74901328601504
 20
223.6650005210327
  0
LWPOLYLINE
  5
1011587
330
1F
100
AcDbEntity
  8
P
  6
Continuous
 62
     0
370
     0
100
AcDbPolyline
 90
        2
 70
     0
 43
0.0
 10
43.6656799526817
 20
206.498333854366
 10
52.08234661934838
 20
215.0816671876994
  0
LWPOLYLINE
  5
1011588
330
1F
100
AcDbEntity
  8
P
  6
Continuous
 62
     0
370
     0
100
AcDbPolyline
 90
        2
 70
     0
 43
0.0
 10
32.41567995268171
 20
195.4150005210327
 10
40.83234661934837
 20
203.748333854366
  0
LWPOLYLINE
  5
1011589
330
1F
100
AcDbEntity
  8
P
  6
Continuous
 62
     0
370
     0
100
AcDbPolyline
 90
        2
 70
     0
 43
0.0
 10
29.08234661934838
 20
192.0816671876993
 10
29.66567995268171
 20
192.6650005210326
  0
LWPOLYLINE
  5
101158A
330
1F
100
AcDbEntity
  8
P
  6
Continuous
 62
     0
370
     0
100
AcDbPolyline
 90
        2
 70
     0
 43
0.0
 10
32.41567995268171
 20
217.8316671876994
 10
38.41567995268171
 20
223.6650005210327
  0
LWPOLYLINE
  5
101158B
330
1F
100
AcDbEntity
  8
P
  6
Continuous
 62
     0
370
     0
100
AcDbPolyline
 90
        2
 70
     0
 43
0.0
 10
29.08234661934838
 20
214.498333854366
 10
29.66567995268171
 20
215.0816671876994
  0
LWPOLYLINE
  5
101158C
330
1F
100
AcDbEntity
  8
P
  6
Continuous
 62
     0
370
     0
100
AcDbPolyline
 90
        2
 70
     0
 43
0.0
 10
151.6656799526817
 20
191.248333854366
 10
159.8323466193484
 20
199.3316671876993
  0
LWPOLYLINE
  5
101158D
330
1F
100
AcDbEntity
  8
P
  6
Continuous
 62
     0
370
     0
100
AcDbPolyline
 90
        2
 70
     0
 43
0.0
 10
129.749013286015
 20
191.8316671876993
 10
159.8323466193484
 20
221.6650005210327
  0
LWPOLYLINE
  5
101158E
330
1F
100
AcDbEntity
  8
P
  6
Continuous
 62
     0
370
     0
100
AcDbPolyline
 90
        2
 70
     0
 43
0.0
 10
127.3323466193484
 20
211.748333854366
 10
139.3323466193484
 20
223.6650005210327
  0
LWPOLYLINE
  5
101158F
330
1F
100
AcDbEntity
  8
P
  6
Continuous
 62
     0
370
     0
100
AcDbPolyline
 90
        2
 70
     0
 43
0.0
 10
106.8323466193483
 20
191.248333854366
 10
127.3323466193484
 20
211.748333854366
  0
LWPOLYLINE
  5
1011590
330
1F
100
AcDbEntity
  8
P
  6
Continuous
 62
     0
370
     0
100
AcDbPolyline
 90
        2
 70
     0
 43
0.0
 10
84.58234661934836
 20
191.248333854366
 10
116.749013286015
 20
223.6650005210327
  0
LWPOLYLINE
  5
1011591
330
1F
100
AcDbEntity
  8
P
  6
Continuous
 62
     0
370
     0
100
AcDbPolyline
 90
        2
 70
     0
 43
0.0
 10
83.08234661934838
 20
212.3316671876994
 10
94.41567995268171
 20
223.6650005210327
  0
LWPOLYLINE
  5
1011592
330
1F
100
AcDbEntity
  8
P
  6
Continuous
 62
     0
370
     0
100
AcDbPolyline
 90
        2
 70
     0
 43
0.0
 10
61.91567995268171
 20
191.248333854366
 10
82.08234661934836
 20
211.498333854366
  0
LWPOLYLINE
  5
1011593
330
1F
100
AcDbEntity
  8
P
  6
Continuous
 62
     0
370
     0
100
AcDbPolyline
 90
        2
 70
     0
 43
0.0
 10
39.49901328601504
 20
191.248333854366
 10
71.99901328601504
 20
223.6650005210327
  0
LWPOLYLINE
  5
1011594
330
1F
100
AcDbEntity
  8
P
  6
Continuous
 62
     0
370
     0
100
AcDbPolyline
 90
        2
 70
     0
 43
0.0
 10
29.08234661934838
 20
203.1650005210327
 10
49.58234661934838
 20
223.6650005210327
  0
LWPOLYLINE
  5
1011595
330
1F
100
AcDbEntity
  8
P
  6
DASHDOT
 62
     0
370
     0
100
AcDbPolyline
 90
        2
 70
     0
 43
0.0
 10
29.16567995268171
 20
227.498333854366
 10
29.16567995268171
 20
314.748333854366
  0
LWPOLYLINE
  5
1011596
330
1F
100
AcDbEntity
  8
P
  6
DASHDOT
 62
     0
370
     0
100
AcDbPolyline
 90
        2
 70
     0
 43
0.0
 10
173.749013286015
 20
329.3316671876993
 10
215.4156799526817
 20
329.3316671876993
  0
LWPOLYLINE
  5
1011597
330
1F
100
AcDbEntity
  8
P
  6
DASHED2
 62
     0
370
     0
100
AcDbPolyline
 90
        6
 70
     0
 43
0.0
 10
29.16567995268171
 20
289.4150005210327
 10
107.249013286015
 20
288.3316671876994
 10
115.499013286015
 20
290.0816671876994
 10
135.3323466193484
 20
289.8316671876994
 10
142.5823466193484
 20
287.748333854366
 10
168.499013286015
 20
287.4150005210326
  0
LWPOLYLINE
  5
1011598
330
1F
100
AcDbEntity
  8
P
  6
DASHDOT
 62
     0
370
     0
100
AcDbPolyline
 90
        2
 70
     0
 43
0.0
 10
112.5823466193484
 20
288.248333854366
 10
140.0823466193484
 20
287.8316671876994
  0
LWPOLYLINE
  5
1011599
330
1F
100
AcDbEntity
  8
P
  6
DASHED2
 62
     0
370
     0
100
AcDbPolyline
 90
        2
 70
     0
 43
0.0
 10
156.249013286015
 20
265.998333854366
 10
29.16567995268171
 20
265.998333854366
  0
LWPOLYLINE
  5
101159A
330
1F
100
AcDbEntity
  8
P
  6
Continuous
 62
     0
370
     0
100
AcDbPolyline
 90
        2
 70
     0
 43
0.0
 10
115.6656799526817
 20
289.5816671876994
 10
135.4156799526817
 20
289.248333854366
  0
LWPOLYLINE
  5
101159B
330
1F
100
AcDbEntity
  8
P
  6
Continuous
 62
     0
370
     0
100
AcDbPolyline
 90
        2
 70
     0
 43
0.0
 10
135.4156799526817
 20
289.248333854366
 10
142.499013286015
 20
287.248333854366
  0
LWPOLYLINE
  5
101159C
330
1F
100
AcDbEntity
  8
P
  6
Continuous
 62
     0
370
     0
100
AcDbPolyline
 90
        2
 70
     0
 43
0.0
 10
115.6656799526817
 20
289.5816671876994
 10
107.249013286015
 20
287.748333854366
  0
LWPOLYLINE
  5
101159D
330
1F
100
AcDbEntity
  8
P
  6
Continuous
 62
     0
370
     0
100
AcDbPolyline
 90
        2
 70
     0
 43
0.0
 10
115.4156799526817
 20
290.5816671876994
 10
135.4156799526817
 20
290.248333854366
  0
LWPOLYLINE
  5
101159E
330
1F
100
AcDbEntity
  8
P
  6
Continuous
 62
     0
370
     0
100
AcDbPolyline
 90
        2
 70
     0
 43
0.0
 10
135.4156799526817
 20
290.248333854366
 10
142.499013286015
 20
288.248333854366
  0
LWPOLYLINE
  5
101159F
330
1F
100
AcDbEntity
  8
P
  6
Continuous
 62
     0
370
     0
100
AcDbPolyline
 90
        2
 70
     0
 43
0.0
 10
115.4156799526817
 20
290.5816671876994
 10
106.999013286015
 20
288.748333854366
  0
LWPOLYLINE
  5
10115A0
330
1F
100
AcDbEntity
  8
P
  6
DASHDOT
 62
     0
370
     0
100
AcDbPolyline
 90
        2
 70
     0
 43
0.0
 10
29.16567995268171
 20
223.6650005210327
 10
29.16567995268171
 20
175.248333854366
  0
LWPOLYLINE
  5
10115A1
330
1F
100
AcDbEntity
  8
P
  6
DASHDOT
 62
     0
370
     0
100
AcDbPolyline
 90
        2
 70
     0
 43
0.0
 10
29.16567995268171
 20
293.0816671876993
 10
30.41567995268171
 20
294.498333854366
  0
LWPOLYLINE
  5
10115A2
330
1F
100
AcDbEntity
  8
P
  6
DASHDOT
 62
     0
370
     0
100
AcDbPolyline
 90
        2
 70
     0
 43
0.0
 10
29.16567995268171
 20
290.0816671876994
 10
33.58234661934838
 20
294.498333854366
  0
LWPOLYLINE
  5
10115A3
330
1F
100
AcDbEntity
  8
P
  6
DASHDOT
 62
     0
370
     0
100
AcDbPolyline
 90
        2
 70
     0
 43
0.0
 10
32.33234661934838
 20
289.748333854366
 10
36.58234661934838
 20
294.1650005210327
  0
LWPOLYLINE
  5
10115A4
330
1F
100
AcDbEntity
  8
P
  6
DASHDOT
 62
     0
370
     0
100
AcDbPolyline
 90
        2
 70
     0
 43
0.0
 10
35.33234661934838
 20
289.748333854366
 10
39.74901328601504
 20
294.1650005210327
  0
LWPOLYLINE
  5
10115A5
330
1F
100
AcDbEntity
  8
P
  6
DASHDOT
 62
     0
370
     0
100
AcDbPolyline
 90
        2
 70
     0
 43
0.0
 10
38.58234661934838
 20
289.748333854366
 10
42.99901328601504
 20
294.1650005210327
  0
LWPOLYLINE
  5
10115A6
330
1F
100
AcDbEntity
  8
P
  6
DASHDOT
 62
     0
370
     0
100
AcDbPolyline
 90
        2
 70
     0
 43
0.0
 10
41.74901328601504
 20
289.748333854366
 10
46.1656799526817
 20
294.1650005210327
  0
LWPOLYLINE
  5
10115A7
330
1F
100
AcDbEntity
  8
P
  6
DASHDOT
 62
     0
370
     0
100
AcDbPolyline
 90
        2
 70
     0
 43
0.0
 10
44.9156799526817
 20
289.748333854366
 10
49.33234661934838
 20
294.1650005210327
  0
LWPOLYLINE
  5
10115A8
330
1F
100
AcDbEntity
  8
P
  6
DASHDOT
 62
     0
370
     0
100
AcDbPolyline
 90
        2
 70
     0
 43
0.0
 10
48.08234661934838
 20
289.748333854366
 10
52.49901328601504
 20
294.1650005210327
  0
LWPOLYLINE
  5
10115A9
330
1F
100
AcDbEntity
  8
P
  6
DASHDOT
 62
     0
370
     0
100
AcDbPolyline
 90
        2
 70
     0
 43
0.0
 10
51.24901328601504
 20
289.498333854366
 10
55.66567995268171
 20
293.9150005210327
  0
LWPOLYLINE
  5
10115AA
330
1F
100
AcDbEntity
  8
P
  6
DASHDOT
 62
     0
370
     0
100
AcDbPolyline
 90
        2
 70
     0
 43
0.0
 10
54.33234661934838
 20
289.498333854366
 10
58.74901328601504
 20
293.9150005210327
  0
LWPOLYLINE
  5
10115AB
330
1F
100
AcDbEntity
  8
P
  6
DASHDOT
 62
     0
370
     0
100
AcDbPolyline
 90
        2
 70
     0
 43
0.0
 10
57.49901328601504
 20
289.498333854366
 10
61.91567995268171
 20
293.9150005210327
  0
LWPOLYLINE
  5
10115AC
330
1F
100
AcDbEntity
  8
P
  6
DASHDOT
 62
     0
370
     0
100
AcDbPolyline
 90
        2
 70
     0
 43
0.0
 10
60.66567995268171
 20
289.498333854366
 10
65.08234661934837
 20
293.9150005210327
  0
LWPOLYLINE
  5
10115AD
330
1F
100
AcDbEntity
  8
P
  6
DASHDOT
 62
     0
370
     0
100
AcDbPolyline
 90
        2
 70
     0
 43
0.0
 10
63.83234661934838
 20
289.498333854366
 10
68.16567995268171
 20
293.8316671876993
  0
LWPOLYLINE
  5
10115AE
330
1F
100
AcDbEntity
  8
P
  6
DASHDOT
 62
     0
370
     0
100
AcDbPolyline
 90
        2
 70
     0
 43
0.0
 10
66.99901328601504
 20
289.498333854366
 10
71.33234661934837
 20
293.748333854366
  0
LWPOLYLINE
  5
10115AF
330
1F
100
AcDbEntity
  8
P
  6
DASHDOT
 62
     0
370
     0
100
AcDbPolyline
 90
        2
 70
     0
 43
0.0
 10
70.33234661934837
 20
289.3316671876994
 10
74.66567995268171
 20
293.6650005210327
  0
LWPOLYLINE
  5
10115B0
330
1F
100
AcDbEntity
  8
P
  6
DASHDOT
 62
     0
370
     0
100
AcDbPolyline
 90
        2
 70
     0
 43
0.0
 10
73.24901328601504
 20
289.248333854366
 10
77.66567995268172
 20
293.6650005210327
  0
LWPOLYLINE
  5
10115B1
330
1F
100
AcDbEntity
  8
P
  6
DASHDOT
 62
     0
370
     0
100
AcDbPolyline
 90
        2
 70
     0
 43
0.0
 10
76.41567995268172
 20
289.248333854366
 10
80.83234661934836
 20
293.6650005210327
  0
LWPOLYLINE
  5
10115B2
330
1F
100
AcDbEntity
  8
P
  6
DASHDOT
 62
     0
370
     0
100
AcDbPolyline
 90
        2
 70
     0
 43
0.0
 10
79.58234661934837
 20
289.248333854366
 10
84.08234661934837
 20
293.6650005210327
  0
LWPOLYLINE
  5
10115B3
330
1F
100
AcDbEntity
  8
P
  6
DASHDOT
 62
     0
370
     0
100
AcDbPolyline
 90
        2
 70
     0
 43
0.0
 10
82.83234661934837
 20
289.248333854366
 10
87.08234661934836
 20
293.498333854366
  0
LWPOLYLINE
  5
10115B4
330
1F
100
AcDbEntity
  8
P
  6
DASHDOT
 62
     0
370
     0
100
AcDbPolyline
 90
        2
 70
     0
 43
0.0
 10
85.99901328601504
 20
289.248333854366
 10
90.24901328601504
 20
293.498333854366
  0
LWPOLYLINE
  5
10115B5
330
1F
100
AcDbEntity
  8
P
  6
DASHDOT
 62
     0
370
     0
100
AcDbPolyline
 90
        2
 70
     0
 43
0.0
 10
89.16567995268172
 20
289.248333854366
 10
93.66567995268171
 20
293.498333854366
  0
LWPOLYLINE
  5
10115B6
330
1F
100
AcDbEntity
  8
P
  6
DASHDOT
 62
     0
370
     0
100
AcDbPolyline
 90
        2
 70
     0
 43
0.0
 10
92.33234661934837
 20
288.9150005210327
 10
96.74901328601505
 20
293.3316671876994
  0
LWPOLYLINE
  5
10115B7
330
1F
100
AcDbEntity
  8
P
  6
DASHDOT
 62
     0
370
     0
100
AcDbPolyline
 90
        2
 70
     0
 43
0.0
 10
95.41567995268172
 20
288.9150005210327
 10
99.83234661934837
 20
293.3316671876994
  0
LWPOLYLINE
  5
10115B8
330
1F
100
AcDbEntity
  8
P
  6
DASHDOT
 62
     0
370
     0
100
AcDbPolyline
 90
        2
 70
     0
 43
0.0
 10
98.58234661934837
 20
288.9150005210327
 10
102.999013286015
 20
293.3316671876994
  0
LWPOLYLINE
  5
10115B9
330
1F
100
AcDbEntity
  8
P
  6
DASHDOT
 62
     0
370
     0
100
AcDbPolyline
 90
        2
 70
     0
 43
0.0
 10
101.749013286015
 20
288.9150005210327
 10
106.1656799526817
 20
293.3316671876994
  0
LWPOLYLINE
  5
10115BA
330
1F
100
AcDbEntity
  8
P
  6
DASHDOT
 62
     0
370
     0
100
AcDbPolyline
 90
        2
 70
     0
 43
0.0
 10
104.9156799526817
 20
288.9150005210327
 10
109.249013286015
 20
293.248333854366
  0
LWPOLYLINE
  5
10115BB
330
1F
100
AcDbEntity
  8
P
  6
DASHDOT
 62
     0
370
     0
100
AcDbPolyline
 90
        2
 70
     0
 43
0.0
 10
108.4156799526817
 20
289.248333854366
 10
112.3323466193483
 20
293.1650005210327
  0
LWPOLYLINE
  5
10115BC
330
1F
100
AcDbEntity
  8
P
  6
DASHDOT
 62
     0
370
     0
100
AcDbPolyline
 90
        2
 70
     0
 43
0.0
 10
112.4156799526817
 20
290.0816671876994
 10
115.749013286015
 20
293.1650005210327
  0
LWPOLYLINE
  5
10115BD
330
1F
100
AcDbEntity
  8
P
  6
DASHDOT
 62
     0
370
     0
100
AcDbPolyline
 90
        2
 70
     0
 43
0.0
 10
116.249013286015
 20
290.5816671876994
 10
118.749013286015
 20
293.0816671876993
  0
LWPOLYLINE
  5
10115BE
330
1F
100
AcDbEntity
  8
P
  6
DASHDOT
 62
     0
370
     0
100
AcDbPolyline
 90
        2
 70
     0
 43
0.0
 10
119.3323466193483
 20
290.498333854366
 10
121.9156799526817
 20
292.998333854366
  0
LWPOLYLINE
  5
10115BF
330
1F
100
AcDbEntity
  8
P
  6
DASHDOT
 62
     0
370
     0
100
AcDbPolyline
 90
        2
 70
     0
 43
0.0
 10
122.499013286015
 20
290.498333854366
 10
125.0823466193484
 20
292.998333854366
  0
LWPOLYLINE
  5
10115C0
330
1F
100
AcDbEntity
  8
P
  6
DASHDOT
 62
     0
370
     0
100
AcDbPolyline
 90
        2
 70
     0
 43
0.0
 10
125.9156799526817
 20
290.4150005210326
 10
128.1656799526817
 20
292.998333854366
  0
LWPOLYLINE
  5
10115C1
330
1F
100
AcDbEntity
  8
P
  6
DASHDOT
 62
     0
370
     0
100
AcDbPolyline
 90
        2
 70
     0
 43
0.0
 10
128.9156799526817
 20
290.4150005210326
 10
131.3323466193484
 20
292.9150005210327
  0
LWPOLYLINE
  5
10115C2
330
1F
100
AcDbEntity
  8
P
  6
DASHDOT
 62
     0
370
     0
100
AcDbPolyline
 90
        2
 70
     0
 43
0.0
 10
131.999013286015
 20
290.3316671876994
 10
134.6656799526817
 20
292.8316671876993
  0
LWPOLYLINE
  5
10115C3
330
1F
100
AcDbEntity
  8
P
  6
DASHDOT
 62
     0
370
     0
100
AcDbPolyline
 90
        2
 70
     0
 43
0.0
 10
135.249013286015
 20
290.3316671876994
 10
137.8323466193484
 20
292.8316671876993
  0
LWPOLYLINE
  5
10115C4
330
1F
100
AcDbEntity
  8
P
  6
DASHDOT
 62
     0
370
     0
100
AcDbPolyline
 90
        2
 70
     0
 43
0.0
 10
137.6656799526817
 20
289.748333854366
 10
140.9156799526817
 20
292.8316671876993
  0
LWPOLYLINE
  5
10115C5
330
1F
100
AcDbEntity
  8
P
  6
DASHDOT
 62
     0
370
     0
100
AcDbPolyline
 90
        2
 70
     0
 43
0.0
 10
140.1656799526817
 20
288.9150005210327
 10
143.999013286015
 20
292.748333854366
  0
LWPOLYLINE
  5
10115C6
330
1F
100
AcDbEntity
  8
P
  6
DASHDOT
 62
     0
370
     0
100
AcDbPolyline
 90
        2
 70
     0
 43
0.0
 10
142.8323466193484
 20
288.4150005210326
 10
147.1656799526817
 20
292.748333854366
  0
LWPOLYLINE
  5
10115C7
330
1F
100
AcDbEntity
  8
P
  6
DASHDOT
 62
     0
370
     0
100
AcDbPolyline
 90
        2
 70
     0
 43
0.0
 10
145.8323466193484
 20
288.248333854366
 10
150.249013286015
 20
292.6650005210327
  0
LWPOLYLINE
  5
10115C8
330
1F
100
AcDbEntity
  8
P
  6
DASHDOT
 62
     0
370
     0
100
AcDbPolyline
 90
        2
 70
     0
 43
0.0
 10
149.3323466193483
 20
288.248333854366
 10
153.5823466193484
 20
292.498333854366
  0
LWPOLYLINE
  5
10115C9
330
1F
100
AcDbEntity
  8
P
  6
DASHDOT
 62
     0
370
     0
100
AcDbPolyline
 90
        2
 70
     0
 43
0.0
 10
152.3323466193484
 20
288.0816671876994
 10
156.749013286015
 20
292.498333854366
  0
LWPOLYLINE
  5
10115CA
330
1F
100
AcDbEntity
  8
P
  6
DASHDOT
 62
     0
370
     0
100
AcDbPolyline
 90
        2
 70
     0
 43
0.0
 10
155.4156799526817
 20
288.0816671876994
 10
159.8323466193484
 20
292.498333854366
  0
LWPOLYLINE
  5
10115CB
330
1F
100
AcDbEntity
  8
P
  6
DASHDOT
 62
     0
370
     0
100
AcDbPolyline
 90
        2
 70
     0
 43
0.0
 10
158.5823466193484
 20
288.0816671876994
 10
162.999013286015
 20
292.498333854366
  0
LWPOLYLINE
  5
10115CC
330
1F
100
AcDbEntity
  8
P
  6
DASHDOT
 62
     0
370
     0
100
AcDbPolyline
 90
        2
 70
     0
 43
0.0
 10
161.6656799526817
 20
287.998333854366
 10
166.0823466193484
 20
292.4150005210327
  0
LWPOLYLINE
  5
10115CD
330
1F
100
AcDbEntity
  8
P
  6
DASHDOT
 62
     0
370
     0
100
AcDbPolyline
 90
        2
 70
     0
 43
0.0
 10
164.8323466193484
 20
287.998333854366
 10
168.499013286015
 20
291.6650005210327
  0
LWPOLYLINE
  5
10115CE
330
1F
100
AcDbEntity
  8
P
  6
DASHDOT
 62
     0
370
     0
100
AcDbPolyline
 90
        2
 70
     0
 43
0.0
 10
167.8323466193484
 20
287.9150005210327
 10
168.499013286015
 20
288.5816671876994
  0
MTEXT
  5
10115CF
330
1F
100
AcDbEntity
  8
Text
  6
DASHDOT
 62
     0
370
     0
100
AcDbMText
 10
37.41567995268171
 20
78.08166718769934
 30
0.0
 40
3.0
 41
97.5
 46
0.0
 71
     4
 72
     5
  1
{\fHelveticaNeueLTPro|b0|i0|c1|p15;PRIM EG Epoxidgrundierung mit }
 73
     2
 44
1.0
  0
MTEXT
  5
10115D0
330
1F
100
AcDbEntity
  8
Text
  6
DASHDOT
 62
     0
370
     0
100
AcDbMText
 10
37.41567995268171
 20
74.16500052103271
 30
0.0
 40
3.0
 41
110.5
 46
0.0
 71
     4
 72
     5
  1
{\fHelveticaNeueLTPro|b0|i0|c1|p15;PLUS GQS Grober Quarzsand absanden}
 73
     2
 44
1.0
  0
LWPOLYLINE
  5
10115D1
330
1F
100
AcDbEntity
  8
P
  6
DASHDOT
 62
     0
370
     0
100
AcDbPolyline
 90
        2
 70
     0
 43
0.0
 10
54.1656799526817
 20
311.5816671876993
 10
54.1656799526817
 20
291.7483338543661
  0
MTEXT
  5
10115D2
330
1F
100
AcDbEntity
  8
Text
  6
DASHDOT
 62
     7
370
     0
100
AcDbMText
 10
53.16567995268171
 20
315.9150005210327
 30
0.0
 40
3.25
 41
3.5
 46
0.0
 71
     4
 72
     5
  1
{\fHelveticaNeueLTPro|b0|i0|c1|p15;2}
 73
     2
 44
1.0
  0
LWPOLYLINE
  5
10115D3
330
1F
100
AcDbEntity
  8
P
  6
DASHDOT
 62
     0
370
     0
100
AcDbPolyline
 90
        2
 70
     0
 43
0.0
 10
67.74901328601504
 20
311.5816671876993
 10
67.74901328601504
 20
276.8316671876994
  0
MTEXT
  5
10115D4
330
1F
100
AcDbEntity
  8
Text
  6
DASHDOT
 62
     0
370
     0
100
AcDbMText
 10
66.74901328601504
 20
315.9150005210327
 30
0.0
 40
3.25
 41
3.5
 46
0.0
 71
     4
 72
     5
  1
{\fHelveticaNeueLTPro|b0|i0|c1|p15;6}
 73
     2
 44
1.0
  0
LWPOLYLINE
  5
10115D5
330
1F
100
AcDbEntity
  8
P
  6
DASHDOT
 62
     0
370
     0
100
AcDbPolyline
 90
        2
 70
     0
 43
0.0
 10
95.99901328601504
 20
311.5816671876993
 10
95.99901328601504
 20
295.248333854366
  0
MTEXT
  5
10115D6
330
1F
100
AcDbEntity
  8
Text
  6
DASHDOT
 62
     0
370
     0
100
AcDbMText
 10
94.99901328601504
 20
315.9150005210327
 30
0.0
 40
3.25
 41
3.5
 46
0.0
 71
     4
 72
     5
  1
{\fHelveticaNeueLTPro|b0|i0|c1|p15;3}
 73
     2
 44
1.0
  0
LWPOLYLINE
  5
10115D7
330
1F
100
AcDbEntity
  8
P
  6
DASHDOT
 62
     0
370
     0
100
AcDbPolyline
 90
        2
 70
     0
 43
0.0
 10
130.1656799526817
 20
311.5816671876993
 10
130.1656799526817
 20
288.9150005210327
  0
MTEXT
  5
10115D8
330
1F
100
AcDbEntity
  8
Text
  6
DASHDOT
 62
     0
370
     0
100
AcDbMText
 10
129.0823466193484
 20
315.9150005210327
 30
0.0
 40
3.25
 41
3.5
 46
0.0
 71
     4
 72
     5
  1
{\fHelveticaNeueLTPro|b0|i0|c1|p15;7}
 73
     2
 44
1.0
  0
HATCH
  5
10115D9
330
1F
100
AcDbEntity
  8
H
  6
DASHDOT
 62
     0
370
     0
100
AcDbHatch
 10
0.0
 20
0.0
 30
0.0
210
0.0
220
0.0
230
1.0
  2
SOLID
 70
     1
 71
     0
 91
        1
 92
        1
 93
        4
 72
     1
 10
37.24901328601504
 20
288.748333854366
 11
38.24901328601504
 21
288.748333854366
 72
     1
 10
38.24901328601504
 20
288.748333854366
 11
38.24901328601504
 21
289.748333854366
 72
     1
 10
38.24901328601504
 20
289.748333854366
 11
37.24901328601504
 21
289.748333854366
 72
     1
 10
37.24901328601504
 20
289.748333854366
 11
37.24901328601504
 21
288.748333854366
 97
        0
 75
     0
 76
     1
 98
        0
450
        0
451
        0
460
0.0
461
0.0
452
        0
462
0.0
453
        0
470

  0
HATCH
  5
10115DA
330
1F
100
AcDbEntity
  8
H
  6
DASHDOT
 62
     0
370
     0
100
AcDbHatch
 10
0.0
 20
0.0
 30
0.0
210
0.0
220
0.0
230
1.0
  2
SOLID
 70
     1
 71
     0
 91
        1
 92
        1
 93
        4
 72
     1
 10
53.74901328601504
 20
291.1650005210327
 11
54.66567995268171
 21
291.1650005210327
 72
     1
 10
54.66567995268171
 20
291.1650005210327
 11
54.66567995268171
 21
292.1650005210327
 72
     1
 10
54.66567995268171
 20
292.1650005210327
 11
53.74901328601504
 21
292.1650005210327
 72
     1
 10
53.74901328601504
 20
292.1650005210327
 11
53.74901328601504
 21
291.1650005210327
 97
        0
 75
     0
 76
     1
 98
        0
450
        0
451
        0
460
0.0
461
0.0
452
        0
462
0.0
453
        0
470

  0
HATCH
  5
10115DB
330
1F
100
AcDbEntity
  8
H
  6
DASHDOT
 62
     0
370
     0
100
AcDbHatch
 10
0.0
 20
0.0
 30
0.0
210
0.0
220
0.0
230
1.0
  2
SOLID
 70
     1
 71
     0
 91
        1
 92
        1
 93
        4
 72
     1
 10
67.24901328601504
 20
276.3316671876994
 11
68.24901328601504
 21
276.3316671876994
 72
     1
 10
68.24901328601504
 20
276.3316671876994
 11
68.24901328601504
 21
277.3316671876994
 72
     1
 10
68.24901328601504
 20
277.3316671876994
 11
67.24901328601504
 21
277.3316671876994
 72
     1
 10
67.24901328601504
 20
277.3316671876994
 11
67.24901328601504
 21
276.3316671876994
 97
        0
 75
     0
 76
     1
 98
        0
450
        0
451
        0
460
0.0
461
0.0
452
        0
462
0.0
453
        0
470

  0
HATCH
  5
10115DC
330
1F
100
AcDbEntity
  8
H
  6
DASHDOT
 62
     0
370
     0
100
AcDbHatch
 10
0.0
 20
0.0
 30
0.0
210
0.0
220
0.0
230
1.0
  2
SOLID
 70
     1
 71
     0
 91
        1
 92
        1
 93
        4
 72
     1
 10
95.49901328601505
 20
294.748333854366
 11
96.49901328601504
 21
294.748333854366
 72
     1
 10
96.49901328601504
 20
294.748333854366
 11
96.49901328601504
 21
295.748333854366
 72
     1
 10
96.49901328601504
 20
295.748333854366
 11
95.49901328601505
 21
295.748333854366
 72
     1
 10
95.49901328601505
 20
295.748333854366
 11
95.49901328601505
 21
294.748333854366
 97
        0
 75
     0
 76
     1
 98
        0
450
        0
451
        0
460
0.0
461
0.0
452
        0
462
0.0
453
        0
470

  0
HATCH
  5
10115DD
330
1F
100
AcDbEntity
  8
H
  6
DASHDOT
 62
     0
370
     0
100
AcDbHatch
 10
0.0
 20
0.0
 30
0.0
210
0.0
220
0.0
230
1.0
  2
SOLID
 70
     1
 71
     0
 91
        1
 92
        1
 93
        4
 72
     1
 10
129.6656799526817
 20
288.498333854366
 11
130.6656799526817
 21
288.498333854366
 72
     1
 10
130.6656799526817
 20
288.498333854366
 11
130.6656799526817
 21
289.498333854366
 72
     1
 10
130.6656799526817
 20
289.498333854366
 11
129.6656799526817
 21
289.498333854366
 72
     1
 10
129.6656799526817
 20
289.498333854366
 11
129.6656799526817
 21
288.498333854366
 97
        0
 75
     0
 76
     1
 98
        0
450
        0
451
        0
460
0.0
461
0.0
452
        0
462
0.0
453
        0
470

  0
LWPOLYLINE
  5
10115DE
330
1F
100
AcDbEntity
  8
P
  6
DASHDOT
 62
     0
370
     0
100
AcDbPolyline
 90
        2
 70
     0
 43
0.0
 10
175.3323466193483
 20
311.6650005210327
 10
175.3323466193483
 20
294.9150005210327
  0
MTEXT
  5
10115DF
330
1F
100
AcDbEntity
  8
Text
  6
DASHDOT
 62
     0
370
     0
100
AcDbMText
 10
174.249013286015
 20
315.998333854366
 30
0.0
 40
3.25
 41
3.5
 46
0.0
 71
     4
 72
     5
  1
{\fHelveticaNeueLTPro|b0|i0|c1|p15;9}
 73
     2
 44
1.0
  0
HATCH
  5
10115E0
330
1F
100
AcDbEntity
  8
H
  6
DASHDOT
 62
     0
370
     0
100
AcDbHatch
 10
0.0
 20
0.0
 30
0.0
210
0.0
220
0.0
230
1.0
  2
SOLID
 70
     1
 71
     0
 91
        1
 92
        1
 93
        4
 72
     1
 10
168.9156799526817
 20
294.4150005210327
 11
169.9156799526817
 21
294.4150005210327
 72
     1
 10
169.9156799526817
 20
294.4150005210327
 11
169.9156799526817
 21
295.4150005210327
 72
     1
 10
169.9156799526817
 20
295.4150005210327
 11
168.9156799526817
 21
295.4150005210327
 72
     1
 10
168.9156799526817
 20
295.4150005210327
 11
168.9156799526817
 21
294.4150005210327
 97
        0
 75
     0
 76
     1
 98
        0
450
        0
451
        0
460
0.0
461
0.0
452
        0
462
0.0
453
        0
470

  0
LWPOLYLINE
  5
10115E1
330
1F
100
AcDbEntity
  8
P
  6
DASHDOT
 62
     0
370
     0
100
AcDbPolyline
 90
        2
 70
     0
 43
0.0
 10
169.499013286015
 20
294.9150005210327
 10
175.3323466193483
 20
294.9150005210327
  0
LWPOLYLINE
  5
10115E2
330
1F
100
AcDbEntity
  8
P
  6
DASHDOT
 62
     0
370
     0
100
AcDbPolyline
 90
        2
 70
     0
 43
0.0
 10
145.8323466193484
 20
311.5816671876993
 10
145.8323466193484
 20
295.248333854366
  0
MTEXT
  5
10115E3
330
1F
100
AcDbEntity
  8
Text
  6
DASHDOT
 62
     0
370
     0
100
AcDbMText
 10
144.8323466193484
 20
315.9150005210327
 30
0.0
 40
3.25
 41
3.5
 46
0.0
 71
     4
 72
     5
  1
{\fHelveticaNeueLTPro|b0|i0|c1|p15;8}
 73
     2
 44
1.0
  0
HATCH
  5
10115E4
330
1F
100
AcDbEntity
  8
H
  6
DASHDOT
 62
     0
370
     0
100
AcDbHatch
 10
0.0
 20
0.0
 30
0.0
210
0.0
220
0.0
230
1.0
  2
SOLID
 70
     1
 71
     0
 91
        1
 92
        1
 93
        4
 72
     1
 10
145.3323466193484
 20
294.748333854366
 11
146.3323466193484
 21
294.748333854366
 72
     1
 10
146.3323466193484
 20
294.748333854366
 11
146.3323466193484
 21
295.748333854366
 72
     1
 10
146.3323466193484
 20
295.748333854366
 11
145.3323466193484
 21
295.748333854366
 72
     1
 10
145.3323466193484
 20
295.748333854366
 11
145.3323466193484
 21
294.748333854366
 97
        0
 75
     0
 76
     1
 98
        0
450
        0
451
        0
460
0.0
461
0.0
452
        0
462
0.0
453
        0
470

  0
LWPOLYLINE
  5
10115E5
330
1F
100
AcDbEntity
  8
P
  6
Continuous
 62
     0
370
     0
100
AcDbPolyline
 90
        2
 70
     0
 43
0.0
 10
29.49901328601504
 20
288.0816671876994
 10
168.4156799526817
 20
286.0816671876994
  0
LWPOLYLINE
  5
10115E6
330
1F
100
AcDbEntity
  8
P
  6
DASHED2
 62
     0
370
     0
100
AcDbPolyline
 90
        2
 70
     0
 43
0.0
 10
126.9156799526817
 20
287.0816671876994
 10
168.499013286015
 20
286.498333854366
  0
LWPOLYLINE
  5
10115E7
330
1F
100
AcDbEntity
  8
P
  6
Continuous
 62
     0
370
     0
100
AcDbPolyline
 90
        2
 70
     0
 43
0.0
 10
126.6656799526817
 20
285.748333854366
 10
159.5823466193484
 20
285.248333854366
  0
LWPOLYLINE
  5
10115E8
330
1F
100
AcDbEntity
  8
P
  6
Continuous
 62
     0
370
     0
100
AcDbPolyline
 90
        2
 70
     0
 43
0.0
 10
126.6656799526817
 20
285.748333854366
 10
126.6656799526817
 20
287.498333854366
  0
LWPOLYLINE
  5
10115E9
330
1F
100
AcDbEntity
  8
P
  6
Continuous
 62
     0
370
     0
100
AcDbPolyline
 90
        2
 70
     0
 43
0.0
 10
158.5823466193484
 20
264.6650005210327
 10
132.6656799526817
 20
264.6650005210327
  0
LWPOLYLINE
  5
10115EA
330
1F
100
AcDbEntity
  8
P
  6
Continuous
 62
     0
370
     0
100
AcDbPolyline
 90
        2
 70
     0
 43
0.0
 10
132.6656799526817
 20
264.6650005210327
 10
132.6656799526817
 20
265.5816671876994
  0
LWPOLYLINE
  5
10115EB
330
1F
100
AcDbEntity
  8
P
  6
Continuous
 62
     0
370
     0
100
AcDbPolyline
 90
        2
 70
     0
 43
0.0
 10
80.83234661934836
 20
311.6650005210327
 10
80.83234661934836
 20
287.748333854366
  0
HATCH
  5
10115EC
330
1F
100
AcDbEntity
  8
H
  6
Continuous
 62
     0
370
     0
100
AcDbHatch
 10
0.0
 20
0.0
 30
0.0
210
0.0
220
0.0
230
1.0
  2
SOLID
 70
     1
 71
     0
 91
        1
 92
        1
 93
        4
 72
     1
 10
80.33234661934837
 20
287.248333854366
 11
81.33234661934837
 21
287.248333854366
 72
     1
 10
81.33234661934837
 20
287.248333854366
 11
81.33234661934837
 21
288.248333854366
 72
     1
 10
81.33234661934837
 20
288.248333854366
 11
80.33234661934837
 21
288.248333854366
 72
     1
 10
80.33234661934837
 20
288.248333854366
 11
80.33234661934837
 21
287.248333854366
 97
        0
 75
     0
 76
     1
 98
        0
450
        0
451
        0
460
0.0
461
0.0
452
        0
462
0.0
453
        0
470

  0
MTEXT
  5
10115ED
330
1F
100
AcDbEntity
  8
Text
  6
Continuous
 62
     0
370
     0
100
AcDbMText
 10
79.83234661934837
 20
315.998333854366
 30
0.0
 40
3.25
 41
3.5
 46
0.0
 71
     4
 72
     5
  1
{\fHelveticaNeueLTPro|b0|i0|c1|p15;5}
 73
     2
 44
1.0
  0
MTEXT
  5
10115EE
330
1F
100
AcDbEntity
  8
Text
  6
Continuous
 62
     0
370
     0
100
AcDbMText
 10
131.5823466193484
 20
104.248333854366
 30
0.0
 40
3.75
 41
64.0
 46
0.0
 71
     4
 72
     5
  1
{\fHelveticaNeueLTPro|b0|i0|c1|p15;Fliesenbelag neu}
 73
     2
 44
1.0
  0
MTEXT
  5
10115EF
330
1F
100
AcDbEntity
  8
Text
  6
Continuous
 62
     7
370
     0
100
AcDbMText
 10
124.5823466193483
 20
104.1650005210327
 30
0.0
 40
3.25
 41
3.5
 46
0.0
 71
     4
 72
     5
  1
{\fHelveticaNeueLTPro|b0|i0|c1|p15;8}
 73
     2
 44
1.0
  0
MTEXT
  5
10115F0
330
1F
100
AcDbEntity
  8
Text
  6
Continuous
 62
     0
370
     0
100
AcDbMText
 10
131.5823466193484
 20
91.24833385436602
 30
0.0
 40
3.75
 41
60.0
 46
0.0
 71
     4
 72
     5
  1
{\fHelveticaNeueLTPro|b0|i0|c1|p15;Elastische Fuge}
 73
     2
 44
1.0
  0
MTEXT
  5
10115F1
330
1F
100
AcDbEntity
  8
Text
  6
Continuous
 62
     7
370
     0
100
AcDbMText
 10
124.5823466193483
 20
91.24833385436602
 30
0.0
 40
3.25
 41
3.5
 46
0.0
 71
     4
 72
     5
  1
{\fHelveticaNeueLTPro|b0|i0|c1|p15;9}
 73
     2
 44
1.0
  0
MTEXT
  5
10115F2
330
1F
100
AcDbEntity
  8
Text
  6
Continuous
 62
     0
370
     0
100
AcDbMText
 10
131.5823466193484
 20
85.9150005210327
 30
0.0
 40
3.0
 41
58.5
 46
0.0
 71
     4
 72
     5
  1
{\fHelveticaNeueLTPro|b0|i0|c1|p15;z.B. Ottoseal S100}
 73
     2
 44
1.0
  0
LWPOLYLINE
  5
10115F3
330
1F
100
AcDbEntity
  8
P
  6
Continuous
 62
     0
370
     0
100
AcDbPolyline
 90
        2
 70
     0
 43
0.0
 10
162.499013286015
 20
311.5816671876993
 10
162.499013286015
 20
286.998333854366
  0
MTEXT
  5
10115F4
330
1F
100
AcDbEntity
  8
Text
  6
Continuous
 62
     7
370
     0
100
AcDbMText
 10
161.4156799526817
 20
315.9150005210327
 30
0.0
 40
3.25
 41
3.5
 46
0.0
 71
     4
 72
     5
  1
{\fHelveticaNeueLTPro|b0|i0|c1|p15;4}
 73
     2
 44
1.0
  0
HATCH
  5
10115F5
330
1F
100
AcDbEntity
  8
H
  6
Continuous
 62
     0
370
     0
100
AcDbHatch
 10
0.0
 20
0.0
 30
0.0
210
0.0
220
0.0
230
1.0
  2
SOLID
 70
     1
 71
     0
 91
        1
 92
        1
 93
        4
 72
     1
 10
161.999013286015
 20
285.998333854366
 11
162.999013286015
 21
285.998333854366
 72
     1
 10
162.999013286015
 20
285.998333854366
 11
162.999013286015
 21
286.998333854366
 72
     1
 10
162.999013286015
 20
286.998333854366
 11
161.999013286015
 21
286.998333854366
 72
     1
 10
161.999013286015
 20
286.998333854366
 11
161.999013286015
 21
285.998333854366
 97
        0
 75
     0
 76
     1
 98
        0
450
        0
451
        0
460
0.0
461
0.0
452
        0
462
0.0
453
        0
470

  0
HATCH
  5
10115F6
330
1F
100
AcDbEntity
  8
H
  6
Continuous
 62
     0
370
     0
100
AcDbHatch
 10
0.0
 20
0.0
 30
0.0
210
0.0
220
0.0
230
1.0
  2
SOLID
 70
     1
 71
     0
 91
        1
 92
        1
 93
        3
 72
     1
 10
119.749013286015
 20
303.4150005210327
 11
119.749013286015
 21
305.6650005210327
 72
     1
 10
119.749013286015
 20
305.6650005210327
 11
125.749013286015
 21
304.4150005210327
 72
     1
 10
125.749013286015
 20
304.4150005210327
 11
119.749013286015
 21
303.4150005210327
 97
        0
 75
     0
 76
     1
 98
        0
450
        0
451
        0
460
0.0
461
0.0
452
        0
462
0.0
453
        0
470

  0
LWPOLYLINE
  5
10115F7
330
1F
100
AcDbEntity
  8
P
  6
Continuous
 62
     0
370
     0
100
AcDbPolyline
 90
        2
 70
     0
 43
0.0
 10
119.749013286015
 20
303.4150005210327
 10
125.9156799526817
 20
304.4150005210327
  0
LWPOLYLINE
  5
10115F8
330
1F
100
AcDbEntity
  8
P
  6
Continuous
 62
     0
370
     0
100
AcDbPolyline
 90
        2
 70
     0
 43
0.0
 10
119.8323466193484
 20
305.6650005210327
 10
119.749013286015
 20
303.4150005210327
  0
LWPOLYLINE
  5
10115F9
330
1F
100
AcDbEntity
  8
P
  6
Continuous
 62
     0
370
     0
100
AcDbPolyline
 90
        2
 70
     0
 43
0.0
 10
119.8323466193484
 20
305.6650005210327
 10
125.9156799526817
 20
304.4150005210327
  0
LWPOLYLINE
  5
10115FA
330
1F
100
AcDbEntity
  8
P
  6
Continuous
 62
     0
370
     0
100
AcDbPolyline
 90
        2
 70
     0
 43
0.0
 10
119.8323466193484
 20
304.498333854366
 10
102.999013286015
 20
304.8316671876993
  0
MTEXT
  5
10115FB
102
{ACAD_XDICTIONARY
360
10115FC
102
}
330
1F
100
AcDbEntity
  8
Text
  6
Continuous
 62
     0
370
     0
100
AcDbMText
 10
103.0823466193483
 20
310.248333854366
 30
0.0
 40
3.0
 41
45.49999999999999
 46
0.0
 71
     4
 72
     5
  1
{\fHelveticaNeueLTPro|b0|i0|c0|p15;Gefälle \fArial|b0|i0|c0|p34;≥ \fHelveticaNeueLTPro|b0|i0|c0|p15;1,5%}
 73
     2
 44
1.0
  0
ENDSEC
  0
SECTION
  2
OBJECTS
  0
DICTIONARY
  5
C
330
0
100
AcDbDictionary
281
     1
  3
ACAD_CIP_PREVIOUS_PRODUCT_INFO
350
10051
  3
ACAD_COLOR
350
10034
  3
ACAD_DETAILVIEWSTYLE
350
1004D
  3
ACAD_GROUP
350
D
  3
ACAD_LAYOUT
350
1A
  3
ACAD_MATERIAL
350
10002
  3
ACAD_MLEADERSTYLE
350
10049
  3
ACAD_MLINESTYLE
350
17
  3
ACAD_PLOTSETTINGS
350
19
  3
ACAD_PLOTSTYLENAME
350
E
  3
ACAD_SCALELIST
350
10037
  3
ACAD_SECTIONVIEWSTYLE
350
1004B
  3
ACAD_TABLESTYLE
350
10035
  3
ACAD_VISUALSTYLE
350
1001B
  3
ACDB_RECOMPOSE_DATA
350
1011609
  3
AcDbVariableDictionary
350
2D6
  0
DICTIONARY
  5
100FC
330
8
100
AcDbDictionary
280
     1
281
     1
  0
DICTIONARY
  5
101018B
330
2
100
AcDbDictionary
280
     1
281
     1
  3
ACAD_LAYERSTATES
360
101018C
  0
DICTIONARY
  5
10059
330
10
100
AcDbDictionary
280
     1
281
     1
  3
ADSK_XREC_LAYER_RECONCILED
360
1005A
  0
DICTIONARY
  5
1005B
330
47
100
AcDbDictionary
280
     1
281
     1
  3
ADSK_XREC_LAYER_RECONCILED
360
1005C
  0
DICTIONARY
  5
1005D
330
48
100
AcDbDictionary
280
     1
281
     1
  3
ADSK_XREC_LAYER_RECONCILED
360
1005E
  0
DICTIONARY
  5
1005F
330
49
100
AcDbDictionary
280
     1
281
     1
  3
ADSK_XREC_LAYER_RECONCILED
360
10060
  0
DICTIONARY
  5
10061
330
4A
100
AcDbDictionary
280
     1
281
     1
  3
ADSK_XREC_LAYER_RECONCILED
360
10062
  0
DICTIONARY
  5
10113EC
330
10113EB
100
AcDbDictionary
280
     1
281
     1
  0
DICTIONARY
  5
10113F8
330
10113F7
100
AcDbDictionary
280
     1
281
     1
  0
DICTIONARY
  5
10113FF
330
10113FE
100
AcDbDictionary
280
     1
281
     1
  0
DICTIONARY
  5
1011404
330
1011403
100
AcDbDictionary
280
     1
281
     1
  0
DICTIONARY
  5
10115FC
330
10115FB
100
AcDbDictionary
280
     1
281
     1
  0
XRECORD
  5
10051
102
{ACAD_REACTORS
330
C
102
}
330
C
100
AcDbXrecord
280
     1
300
ACDLT
300
2017
300
ACDLT_F_S
  0
DICTIONARY
  5
10034
102
{ACAD_REACTORS
330
C
102
}
330
C
100
AcDbDictionary
281
     1
  0
DICTIONARY
  5
1004D
102
{ACAD_REACTORS
330
C
102
}
330
C
100
AcDbDictionary
281
     1
  3
Imperial24
350
1004E
  0
DICTIONARY
  5
D
330
C
100
AcDbDictionary
281
     1
  0
DICTIONARY
  5
1A
330
C
100
AcDbDictionary
281
     1
  3
Layout1
350
1E
  3
Layout2
350
26
  3
Model
350
22
  0
DICTIONARY
  5
10002
102
{ACAD_REACTORS
330
C
102
}
330
C
100
AcDbDictionary
281
     1
  3
ByBlock
350
1000B
  3
ByLayer
350
10003
  3
Global
350
10013
  0
DICTIONARY
  5
10049
102
{ACAD_REACTORS
330
C
102
}
330
C
100
AcDbDictionary
281
     1
  3
Standard
350
1004A
  0
DICTIONARY
  5
17
330
C
100
AcDbDictionary
281
     1
  3
Standard
350
18
  0
DICTIONARY
  5
19
330
C
100
AcDbDictionary
281
     1
  0
ACDBDICTIONARYWDFLT
  5
E
330
C
100
AcDbDictionary
281
     1
  3
Normal
350
F
100
AcDbDictionaryWithDefault
340
F
  0
DICTIONARY
  5
10037
102
{ACAD_REACTORS
330
C
102
}
330
C
100
AcDbDictionary
281
     1
  3
A0
350
10038
  3
A1
350
10039
  3
A2
350
1003A
  3
A3
350
1003B
  3
A4
350
1003C
  3
A5
350
1003D
  3
A6
350
1003E
  3
A7
350
1003F
  3
A8
350
10040
  3
A9
350
10041
  3
B0
350
10042
  3
B1
350
10043
  3
B2
350
10044
  3
B3
350
10045
  3
B4
350
10046
  3
B5
350
10047
  3
B6
350
10048
  0
DICTIONARY
  5
1004B
102
{ACAD_REACTORS
330
C
102
}
330
C
100
AcDbDictionary
281
     1
  3
Imperial24
350
1004C
  0
DICTIONARY
  5
10035
102
{ACAD_REACTORS
330
C
102
}
330
C
100
AcDbDictionary
281
     1
  3
Standard
350
10036
  0
DICTIONARY
  5
1001B
102
{ACAD_REACTORS
330
C
102
}
330
C
100
AcDbDictionary
281
     1
  3
2dWireframe
350
10021
  3
Basic
350
10020
  3
Brighten
350
10027
  3
ColorChange
350
1002B
  3
Conceptual
350
10024
  3
Dim
350
10026
  3
EdgeColorOff
350
10033
  3
Facepattern
350
1002A
  3
Flat
350
1001C
  3
FlatWithEdges
350
1001D
  3
Gouraud
350
1001E
  3
GouraudWithEdges
350
1001F
  3
Hidden
350
10023
  3
JitterOff
350
10031
  3
Linepattern
350
10029
  3
OverhangOff
350
10032
  3
Realistic
350
10025
  3
Shaded
350
10030
  3
Shaded with edges
350
1002F
  3
Shades of Gray
350
1002C
  3
Sketchy
350
1002D
  3
Thicken
350
10028
  3
Wireframe
350
10022
  3
X-Ray
350
1002E
  0
XRECORD
  5
1011609
102
{ACAD_REACTORS
330
C
102
}
330
C
100
AcDbXrecord
280
     1
 90
        1
330
10036
330
1004C
330
1004E
  0
DICTIONARY
  5
2D6
330
C
100
AcDbDictionary
281
     1
  3
CANNOSCALE
350
10067
  3
CMLEADERSTYLE
350
10064
  3
CTABLESTYLE
350
10063
  3
CVIEWDETAILSTYLE
350
10065
  3
CVIEWSECTIONSTYLE
350
10066
  3
DIMASSOC
350
2D8
  3
HIDETEXT
350
2D7
  3
INDEXCTL
350
10069
  3
LAYEREVAL
350
1011082
  3
LAYERNOTIFY
350
1011083
  3
LIGHTINGUNITS
350
1011081
  3
MSLTSCALE
350
1011080
  3
SORTENTS
350
10068
  0
DICTIONARY
  5
101018C
102
{ACAD_REACTORS
330
101018B
102
}
330
101018B
100
AcDbDictionary
281
     1
  0
XRECORD
  5
1005A
102
{ACAD_REACTORS
330
10059
102
}
330
10059
100
AcDbXrecord
280
     1
290
     1
  0
XRECORD
  5
1005C
102
{ACAD_REACTORS
330
1005B
102
}
330
1005B
100
AcDbXrecord
280
     1
290
     1
  0
XRECORD
  5
1005E
102
{ACAD_REACTORS
330
1005D
102
}
330
1005D
100
AcDbXrecord
280
     1
290
     1
  0
XRECORD
  5
10060
102
{ACAD_REACTORS
330
1005F
102
}
330
1005F
100
AcDbXrecord
280
     1
290
     1
  0
XRECORD
  5
10062
102
{ACAD_REACTORS
330
10061
102
}
330
10061
100
AcDbXrecord
280
     1
290
     1
  0
ACDBDETAILVIEWSTYLE
  5
1004E
102
{ACAD_XDICTIONARY
360
101107D
102
}
102
{ACAD_REACTORS
330
1004D
102
}
330
1004D
100
AcDbModelDocViewStyle
 70
     0
  3
Imperial24
290
     0
100
AcDbDetailViewStyle
 70
     0
 71
     0
 90
        3
 71
     1
340
11
 62
   256
 40
0.24
340
0
 62
   256
 40
0.24
300

 40
0.36
280
     3
 71
     2
340
16
 90
       25
 62
   256
 71
     3
340
11
 62
   256
 40
0.24
 90
        1
 40
0.75
 90
        1
300
%<\AcVar ViewType \f "%tc1">% %<\AcVar ViewDetailId>%\PVARIA %<\AcVar ViewScale \f "%sn">%
 71
     4
340
16
 90
       25
 62
   256
340
16
 90
       25
 62
   256
280
     0
  0
LAYOUT
  5
1E
330
1A
100
AcDbPlotSettings
  1

  2
C:\Program Files\AutoCAD 2002\plotters\DWF ePlot (optimized for plotting).pc3
  4

  6

 40
0.0
 41
0.0
 42
0.0
 43
0.0
 44
0.0
 45
0.0
 46
0.0
 47
0.0
 48
0.0
 49
0.0
140
0.0
141
0.0
142
1.0
143
1.0
 70
   688
 72
     0
 73
     0
 74
     5
  7

 75
    16
147
1.0
 76
     0
 77
     2
 78
   300
148
0.0
149
0.0
100
AcDbLayout
  1
Layout1
 70
     1
 71
     1
 10
0.0
 20
0.0
 11
12.0
 21
9.0
 12
0.0
 22
0.0
 32
0.0
 14
1.000000000000000E+20
 24
1.000000000000000E+20
 34
1.000000000000000E+20
 15
-1.000000000000000E+20
 25
-1.000000000000000E+20
 35
-1.000000000000000E+20
146
0.0
 13
0.0
 23
0.0
 33
0.0
 16
1.0
 26
0.0
 36
0.0
 17
0.0
 27
1.0
 37
0.0
 76
     0
330
1B
  0
LAYOUT
  5
26
330
1A
100
AcDbPlotSettings
  1

  2
C:\Program Files\AutoCAD 2002\plotters\DWF ePlot (optimized for plotting).pc3
  4

  6

 40
0.0
 41
0.0
 42
0.0
 43
0.0
 44
0.0
 45
0.0
 46
0.0
 47
0.0
 48
0.0
 49
0.0
140
0.0
141
0.0
142
1.0
143
1.0
 70
   688
 72
     0
 73
     0
 74
     5
  7

 75
    16
147
1.0
 76
     0
 77
     2
 78
   300
148
0.0
149
0.0
100
AcDbLayout
  1
Layout2
 70
     1
 71
     2
 10
0.0
 20
0.0
 11
12.0
 21
9.0
 12
0.0
 22
0.0
 32
0.0
 14
0.0
 24
0.0
 34
0.0
 15
0.0
 25
0.0
 35
0.0
146
0.0
 13
0.0
 23
0.0
 33
0.0
 16
1.0
 26
0.0
 36
0.0
 17
0.0
 27
1.0
 37
0.0
 76
     0
330
23
  0
LAYOUT
  5
22
330
1A
100
AcDbPlotSettings
  1

  2
C:\Program Files\AutoCAD 2002\plotters\DWF ePlot (optimized for plotting).pc3
  4

  6

 40
0.0
 41
0.0
 42
0.0
 43
0.0
 44
0.0
 45
0.0
 46
0.0
 47
0.0
 48
0.0
 49
0.0
140
0.0
141
0.0
142
1.0
143
1.0
 70
  1712
 72
     0
 73
     0
 74
     0
  7

 75
     0
147
1.0
 76
     0
 77
     2
 78
   300
148
0.0
149
0.0
100
AcDbLayout
  1
Model
 70
     1
 71
     0
 10
0.0
 20
0.0
 11
12.0
 21
9.0
 12
0.0
 22
0.0
 32
0.0
 14
0.0
 24
0.0
 34
0.0
 15
0.0
 25
0.0
 35
0.0
146
0.0
 13
0.0
 23
0.0
 33
0.0
 16
1.0
 26
0.0
 36
0.0
 17
0.0
 27
1.0
 37
0.0
 76
     0
330
1F
331
30
  0
MATERIAL
  5
1000B
102
{ACAD_XDICTIONARY
360
1000C
102
}
102
{ACAD_REACTORS
330
10002
102
}
330
10002
100
AcDbMaterial
  1
ByBlock
 72
     0
 43
0.0208333333333333
 43
0.0
 43
0.0
 43
0.0
 43
0.0
 43
0.0208333333333333
 43
0.0
 43
0.0
 43
0.0
 43
0.0
 43
1.0
 43
0.0
 43
0.0
 43
0.0
 43
0.0
 43
1.0
 77
     0
 47
0.0208333333333333
 47
0.0
 47
0.0
 47
0.0
 47
0.0
 47
0.0208333333333333
 47
0.0
 47
0.0
 47
0.0
 47
0.0
 47
1.0
 47
0.0
 47
0.0
 47
0.0
 47
0.0
 47
1.0
171
     0
 49
0.0208333333333333
 49
0.0
 49
0.0
 49
0.0
 49
0.0
 49
0.0208333333333333
 49
0.0
 49
0.0
 49
0.0
 49
0.0
 49
1.0
 49
0.0
 49
0.0
 49
0.0
 49
0.0
 49
1.0
175
     0
142
0.0208333333333333
142
0.0
142
0.0
142
0.0
142
0.0
142
0.0208333333333333
142
0.0
142
0.0
142
0.0
142
0.0
142
1.0
142
0.0
142
0.0
142
0.0
142
0.0
142
1.0
179
     0
144
0.0208333333333333
144
0.0
144
0.0
144
0.0
144
0.0
144
0.0208333333333333
144
0.0
144
0.0
144
0.0
144
0.0
144
1.0
144
0.0
144
0.0
144
0.0
144
0.0
144
1.0
147
0.0208333333333333
147
0.0
147
0.0
147
0.0
147
0.0
147
0.0208333333333333
147
0.0
147
0.0
147
0.0
147
0.0
147
1.0
147
0.0
147
0.0
147
0.0
147
0.0
147
1.0
  0
MATERIAL
  5
10003
102
{ACAD_XDICTIONARY
360
10004
102
}
102
{ACAD_REACTORS
330
10002
102
}
330
10002
100
AcDbMaterial
  1
ByLayer
 72
     0
 43
0.0208333333333333
 43
0.0
 43
0.0
 43
0.0
 43
0.0
 43
0.0208333333333333
 43
0.0
 43
0.0
 43
0.0
 43
0.0
 43
1.0
 43
0.0
 43
0.0
 43
0.0
 43
0.0
 43
1.0
 77
     0
 47
0.0208333333333333
 47
0.0
 47
0.0
 47
0.0
 47
0.0
 47
0.0208333333333333
 47
0.0
 47
0.0
 47
0.0
 47
0.0
 47
1.0
 47
0.0
 47
0.0
 47
0.0
 47
0.0
 47
1.0
171
     0
 49
0.0208333333333333
 49
0.0
 49
0.0
 49
0.0
 49
0.0
 49
0.0208333333333333
 49
0.0
 49
0.0
 49
0.0
 49
0.0
 49
1.0
 49
0.0
 49
0.0
 49
0.0
 49
0.0
 49
1.0
175
     0
142
0.0208333333333333
142
0.0
142
0.0
142
0.0
142
0.0
142
0.0208333333333333
142
0.0
142
0.0
142
0.0
142
0.0
142
1.0
142
0.0
142
0.0
142
0.0
142
0.0
142
1.0
179
     0
144
0.0208333333333333
144
0.0
144
0.0
144
0.0
144
0.0
144
0.0208333333333333
144
0.0
144
0.0
144
0.0
144
0.0
144
1.0
144
0.0
144
0.0
144
0.0
144
0.0
144
1.0
147
0.0208333333333333
147
0.0
147
0.0
147
0.0
147
0.0
147
0.0208333333333333
147
0.0
147
0.0
147
0.0
147
0.0
147
1.0
147
0.0
147
0.0
147
0.0
147
0.0
147
1.0
  0
MATERIAL
  5
10013
102
{ACAD_XDICTIONARY
360
10014
102
}
102
{ACAD_REACTORS
330
10002
102
}
330
10002
100
AcDbMaterial
  1
Global
 72
     0
 43
0.0208333333333333
 43
0.0
 43
0.0
 43
0.0
 43
0.0
 43
0.0208333333333333
 43
0.0
 43
0.0
 43
0.0
 43
0.0
 43
1.0
 43
0.0
 43
0.0
 43
0.0
 43
0.0
 43
1.0
 77
     0
 47
0.0208333333333333
 47
0.0
 47
0.0
 47
0.0
 47
0.0
 47
0.0208333333333333
 47
0.0
 47
0.0
 47
0.0
 47
0.0
 47
1.0
 47
0.0
 47
0.0
 47
0.0
 47
0.0
 47
1.0
171
     0
 49
0.0208333333333333
 49
0.0
 49
0.0
 49
0.0
 49
0.0
 49
0.0208333333333333
 49
0.0
 49
0.0
 49
0.0
 49
0.0
 49
1.0
 49
0.0
 49
0.0
 49
0.0
 49
0.0
 49
1.0
175
     0
142
0.0208333333333333
142
0.0
142
0.0
142
0.0
142
0.0
142
0.0208333333333333
142
0.0
142
0.0
142
0.0
142
0.0
142
1.0
142
0.0
142
0.0
142
0.0
142
0.0
142
1.0
179
     0
144
0.0208333333333333
144
0.0
144
0.0
144
0.0
144
0.0
144
0.0208333333333333
144
0.0
144
0.0
144
0.0
144
0.0
144
1.0
144
0.0
144
0.0
144
0.0
144
0.0
144
1.0
147
0.0208333333333333
147
0.0
147
0.0
147
0.0
147
0.0
147
0.0208333333333333
147
0.0
147
0.0
147
0.0
147
0.0
147
1.0
147
0.0
147
0.0
147
0.0
147
0.0
147
1.0
  0
MLEADERSTYLE
  5
1004A
102
{ACAD_REACTORS
330
10049
102
}
330
10049
100
AcDbMLeaderStyle
179
     2
170
     2
171
     1
172
     0
 90
        2
 40
0.0
 41
0.0
173
     1
 91
-1056964608
340
14
 92
       -2
290
     1
 42
0.09
291
     1
 43
0.36
  3
Standard
 44
0.18
300

342
11
174
     1
178
     6
175
     1
176
     0
 93
-1056964608
 45
0.18
292
     0
297
     0
 46
0.18
 94
-1056964608
 47
1.0
 49
1.0
140
1.0
293
     1
141
0.0
294
     1
177
     0
142
1.0
295
     0
296
     0
143
0.125
271
     0
272
     9
273
     9
298
     0
  0
MLINESTYLE
  5
18
330
17
100
AcDbMlineStyle
  2
STANDARD
 70
     0
  3

 62
   256
 51
90.0
 52
90.0
 71
     2
 49
0.5
 62
   256
  6
BYLAYER
 49
-0.5
 62
   256
  6
BYLAYER
  0
ACDBPLACEHOLDER
  5
F
330
E
  0
SCALE
  5
10038
102
{ACAD_REACTORS
330
10037
102
}
330
10037
100
AcDbScale
 70
     0
300
1:1
140
1.0
141
1.0
290
     1
  0
SCALE
  5
10039
102
{ACAD_REACTORS
330
10037
102
}
330
10037
100
AcDbScale
 70
     0
300
1/128" = 1'-0"
140
0.0078125
141
12.0
290
     0
  0
SCALE
  5
1003A
102
{ACAD_REACTORS
330
10037
102
}
330
10037
100
AcDbScale
 70
     0
300
1/64" = 1'-0"
140
0.015625
141
12.0
290
     0
  0
SCALE
  5
1003B
102
{ACAD_REACTORS
330
10037
102
}
330
10037
100
AcDbScale
 70
     0
300
1/32" = 1'-0"
140
0.03125
141
12.0
290
     0
  0
SCALE
  5
1003C
102
{ACAD_REACTORS
330
10037
102
}
330
10037
100
AcDbScale
 70
     0
300
1/16" = 1'-0"
140
0.0625
141
12.0
290
     0
  0
SCALE
  5
1003D
102
{ACAD_REACTORS
330
10037
102
}
330
10037
100
AcDbScale
 70
     0
300
3/32" = 1'-0"
140
0.09375
141
12.0
290
     0
  0
SCALE
  5
1003E
102
{ACAD_REACTORS
330
10037
102
}
330
10037
100
AcDbScale
 70
     0
300
1/8" = 1'-0"
140
0.125
141
12.0
290
     0
  0
SCALE
  5
1003F
102
{ACAD_REACTORS
330
10037
102
}
330
10037
100
AcDbScale
 70
     0
300
3/16" = 1'-0"
140
0.1875
141
12.0
290
     0
  0
SCALE
  5
10040
102
{ACAD_REACTORS
330
10037
102
}
330
10037
100
AcDbScale
 70
     0
300
1/4" = 1'-0"
140
0.25
141
12.0
290
     0
  0
SCALE
  5
10041
102
{ACAD_REACTORS
330
10037
102
}
330
10037
100
AcDbScale
 70
     0
300
3/8" = 1'-0"
140
0.375
141
12.0
290
     0
  0
SCALE
  5
10042
102
{ACAD_REACTORS
330
10037
102
}
330
10037
100
AcDbScale
 70
     0
300
1/2" = 1'-0"
140
0.5
141
12.0
290
     0
  0
SCALE
  5
10043
102
{ACAD_REACTORS
330
10037
102
}
330
10037
100
AcDbScale
 70
     0
300
3/4" = 1'-0"
140
0.75
141
12.0
290
     0
  0
SCALE
  5
10044
102
{ACAD_REACTORS
330
10037
102
}
330
10037
100
AcDbScale
 70
     0
300
1" = 1'-0"
140
1.0
141
12.0
290
     0
  0
SCALE
  5
10045
102
{ACAD_REACTORS
330
10037
102
}
330
10037
100
AcDbScale
 70
     0
300
1-1/2" = 1'-0"
140
1.5
141
12.0
290
     0
  0
SCALE
  5
10046
102
{ACAD_REACTORS
330
10037
102
}
330
10037
100
AcDbScale
 70
     0
300
3" = 1'-0"
140
3.0
141
12.0
290
     0
  0
SCALE
  5
10047
102
{ACAD_REACTORS
330
10037
102
}
330
10037
100
AcDbScale
 70
     0
300
6" = 1'-0"
140
6.0
141
12.0
290
     0
  0
SCALE
  5
10048
102
{ACAD_REACTORS
330
10037
102
}
330
10037
100
AcDbScale
 70
     0
300
1'-0" = 1'-0"
140
12.0
141
12.0
290
     0
  0
ACDBSECTIONVIEWSTYLE
  5
1004C
102
{ACAD_XDICTIONARY
360
101107B
102
}
102
{ACAD_REACTORS
330
1004B
102
}
330
1004B
100
AcDbModelDocViewStyle
 70
     0
  3
Imperial24
290
     0
100
AcDbSectionViewStyle
 70
     0
 71
     0
 90
       78
 71
     1
340
11
 62
   256
 40
0.24
340
0
340
0
 62
   256
 40
0.24
300
I, O, Q, S, X, Z
 40
0.48
 90
        3
 40
0.18
 90
        1
 71
     2
340
16
 90
       25
 62
   256
340
16
 90
       50
 62
   256
 40
0.24
 40
0.0
 40
0.24
 71
     3
340
11
 62
   256
 40
0.24
 90
        1
 40
0.75
 90
        1
300
%<\AcVar ViewType \f "%tc1">% %<\AcVar ViewSectionStartId>%-%<\AcVar ViewSectionEndId>%\PVARIA %<\AcVar ViewScale \f "%sn">%
 71
     4
 62
   256
 62
   257
300
ANSI31
 40
1.0
 90
        0
290
     0
290
     0
 90
        6
 40
0.0
 40
1.570796326794896
 40
0.2617993877991494
 40
1.308996938995747
 40
-0.2617993877991494
 40
1.832595714594045
  0
TABLESTYLE
  5
10036
102
{ACAD_XDICTIONARY
360
1006C
102
}
102
{ACAD_REACTORS
330
10035
102
}
330
10035
100
AcDbTableStyle
280
     0
  3
Standard
 70
     0
 71
     0
 40
0.06
 41
0.06
280
     0
281
     0
  7
Standard
140
0.18
170
     2
 62
     0
 63
     7
283
     0
 90
      512
 91
        0
  1

274
    -2
284
     1
 64
     0
275
    -2
285
     1
 65
     0
276
    -2
286
     1
 66
     0
277
    -2
287
     1
 67
     0
278
    -2
288
     1
 68
     0
279
    -2
289
     1
 69
     0
  7
Standard
140
0.25
170
     5
 62
     0
 63
     7
283
     0
 90
      512
 91
        0
  1

274
    -2
284
     1
 64
     0
275
    -2
285
     1
 65
     0
276
    -2
286
     1
 66
     0
277
    -2
287
     1
 67
     0
278
    -2
288
     1
 68
     0
279
    -2
289
     1
 69
     0
  7
Standard
140
0.18
170
     5
 62
     0
 63
     7
283
     0
 90
      512
 91
        0
  1

274
    -2
284
     1
 64
     0
275
    -2
285
     1
 65
     0
276
    -2
286
     1
 66
     0
277
    -2
287
     1
 67
     0
278
    -2
288
     1
 68
     0
279
    -2
289
     1
 69
     0
  0
VISUALSTYLE
  5
10021
102
{ACAD_REACTORS
330
1001B
102
}
330
1001B
100
AcDbVisualStyle
  2

 70
     4
177
     3
291
     0
 70
    58
 90
        0
176
     1
 90
        2
176
     1
 90
        0
176
     1
 90
        0
176
     1
 40
0.6
176
     1
 40
30.0
176
     1
 62
     7
176
     1
 90
        1
176
     1
 90
        4
176
     1
 62
     7
176
     1
 62
   257
176
     1
 90
        1
176
     1
 90
        1
176
     1
 40
1.0
176
     1
 90
        0
176
     1
 62
   257
176
     1
 40
1.0
176
     1
 90
        1
176
     1
 90
        6
176
     1
 90
        2
176
     1
 62
     7
176
     1
 90
        5
176
     1
 90
        0
176
     1
 90
        0
176
     1
290
     0
176
     1
 90
        1
176
     1
 40
0.0
176
     1
 90
        0
176
     1
290
     1
176
     1
290
     1
176
     1
290
     0
176
     1
290
     0
176
     1
290
     0
176
     1
290
     0
176
     1
290
     0
176
     1
290
     0
176
     1
290
     0
176
     1
 90
       50
176
     1
 40
0.0
176
     1
 40
1.0
176
     1
 90
        0
176
     1
 62
    18
420
        0
176
     1
 90
       50
176
     1
 90
        3
176
     1
 62
     5
420
      255
176
     1
290
     0
176
     1
 90
       50
176
     1
 90
       50
176
     1
 90
       50
176
     1
290
     0
176
     1
 90
       50
176
     1
 62
   256
176
     0
 40
1.0
176
     0
 90
        2
176
     1
  1
strokes_ogs.tif
176
     1
290
     0
176
     1
 40
1.0
176
     1
 40
1.0
176
     1
  0
VISUALSTYLE
  5
10020
102
{ACAD_REACTORS
330
1001B
102
}
330
1001B
100
AcDbVisualStyle
  2

 70
     7
177
     3
291
     1
 70
    58
 90
        1
176
     1
 90
        0
176
     1
 90
        1
176
     1
 90
        0
176
     1
 40
0.6
176
     1
 40
30.0
176
     1
 62
     7
176
     1
 90
        0
176
     1
 90
        4
176
     1
 62
     7
176
     1
 62
   257
176
     1
 90
        1
176
     1
 90
        1
176
     1
 40
1.0
176
     1
 90
        8
176
     1
 62
     7
176
     1
 40
1.0
176
     1
 90
        1
176
     1
 90
        6
176
     1
 90
        2
176
     1
 62
     7
176
     1
 90
        5
176
     1
 90
        0
176
     1
 90
        0
176
     1
290
     0
176
     1
 90
        1
176
     1
 40
0.0
176
     1
 90
        0
176
     1
290
     0
176
     1
290
     1
176
     1
290
     1
176
     1
290
     0
176
     1
290
     0
176
     1
290
     0
176
     1
290
     0
176
     1
290
     0
176
     1
290
     0
176
     1
 90
       50
176
     1
 40
0.0
176
     1
 40
1.0
176
     1
 90
        0
176
     1
 62
    18
420
        0
176
     1
 90
       50
176
     1
 90
        3
176
     1
 62
     5
420
      255
176
     1
290
     0
176
     1
 90
       50
176
     1
 90
       50
176
     1
 90
       50
176
     1
290
     0
176
     1
 90
       50
176
     1
 62
   256
176
     0
 40
1.0
176
     0
 90
        2
176
     1
  1
strokes_ogs.tif
176
     1
290
     0
176
     1
 40
1.0
176
     1
 40
1.0
176
     1
  0
VISUALSTYLE
  5
10027
102
{ACAD_REACTORS
330
1001B
102
}
330
1001B
100
AcDbVisualStyle
  2

 70
    12
177
     3
291
     1
 70
    58
 90
        2
176
     1
 90
        2
176
     1
 90
        0
176
     1
 90
        0
176
     1
 40
0.6
176
     1
 40
30.0
176
     1
 62
     7
176
     1
 90
        1
176
     1
 90
        4
176
     1
 62
     7
176
     1
 62
   257
176
     1
 90
        1
176
     1
 90
        1
176
     1
 40
1.0
176
     1
 90
        8
176
     1
 62
     7
176
     1
 40
1.0
176
     1
 90
        1
176
     1
 90
        6
176
     1
 90
        2
176
     1
 62
     7
176
     1
 90
        5
176
     1
 90
        0
176
     1
 90
        0
176
     1
290
     0
176
     1
 90
        1
176
     1
 40
50.0
176
     1
 90
        0
176
     1
290
     0
176
     1
290
     1
176
     1
290
     1
176
     1
290
     0
176
     1
290
     0
176
     1
290
     0
176
     1
290
     0
176
     1
290
     0
176
     1
290
     0
176
     1
 90
       50
176
     1
 40
0.0
176
     1
 40
1.0
176
     1
 90
        0
176
     1
 62
    18
420
        0
176
     1
 90
       50
176
     1
 90
        3
176
     1
 62
     5
420
      255
176
     1
290
     0
176
     1
 90
       50
176
     1
 90
       50
176
     1
 90
       50
176
     1
290
     0
176
     1
 90
       50
176
     1
 62
   256
176
     0
 40
1.0
176
     0
 90
        2
176
     1
  1
strokes_ogs.tif
176
     1
290
     0
176
     1
 40
1.0
176
     1
 40
1.0
176
     1
  0
VISUALSTYLE
  5
1002B
102
{ACAD_REACTORS
330
1001B
102
}
330
1001B
100
AcDbVisualStyle
  2

 70
    16
177
     3
291
     1
 70
    58
 90
        2
176
     1
 90
        2
176
     1
 90
        3
176
     1
 90
        0
176
     1
 40
0.6
176
     1
 40
30.0
176
     1
 62
     8
176
     1
 90
        1
176
     1
 90
        4
176
     1
 62
     7
176
     1
 62
   257
176
     1
 90
        1
176
     1
 90
        1
176
     1
 40
1.0
176
     1
 90
        8
176
     1
 62
     8
176
     1
 40
1.0
176
     1
 90
        1
176
     1
 90
        6
176
     1
 90
        2
176
     1
 62
     7
176
     1
 90
        5
176
     1
 90
        0
176
     1
 90
        0
176
     1
290
     0
176
     1
 90
        1
176
     1
 40
0.0
176
     1
 90
        0
176
     1
290
     0
176
     1
290
     1
176
     1
290
     1
176
     1
290
     0
176
     1
290
     0
176
     1
290
     0
176
     1
290
     0
176
     1
290
     0
176
     1
290
     0
176
     1
 90
       50
176
     1
 40
0.0
176
     1
 40
1.0
176
     1
 90
        0
176
     1
 62
    18
420
        0
176
     1
 90
       50
176
     1
 90
        3
176
     1
 62
     5
420
      255
176
     1
290
     0
176
     1
 90
       50
176
     1
 90
       50
176
     1
 90
       50
176
     1
290
     0
176
     1
 90
       50
176
     1
 62
   256
176
     0
 40
1.0
176
     0
 90
        2
176
     1
  1
strokes_ogs.tif
176
     1
290
     0
176
     1
 40
1.0
176
     1
 40
1.0
176
     1
  0
VISUALSTYLE
  5
10024
102
{ACAD_REACTORS
330
1001B
102
}
330
1001B
100
AcDbVisualStyle
  2

 70
     9
177
     3
291
     0
 70
    58
 90
        3
176
     1
 90
        2
176
     1
 90
        0
176
     1
 90
        0
176
     1
 40
0.6
176
     1
 40
30.0
176
     1
 62
     7
176
     1
 90
        2
176
     1
 90
        2
176
     1
 62
     7
176
     1
 62
   257
176
     1
 90
        1
176
     1
 90
        1
176
     1
 40
179.0
176
     1
 90
        8
176
     1
 62
     7
176
     1
 40
1.0
176
     1
 90
        1
176
     1
 90
        6
176
     1
 90
        2
176
     1
 62
     7
176
     1
 90
        3
176
     1
 90
        0
176
     1
 90
        0
176
     1
290
     0
176
     1
 90
        1
176
     1
 40
0.0
176
     1
 90
        0
176
     1
290
     0
176
     1
290
     1
176
     1
290
     1
176
     1
290
     0
176
     1
290
     0
176
     1
290
     0
176
     1
290
     0
176
     1
290
     0
176
     1
290
     0
176
     1
 90
       50
176
     1
 40
0.0
176
     1
 40
1.0
176
     1
 90
        0
176
     1
 62
    18
420
        0
176
     1
 90
       50
176
     1
 90
        3
176
     1
 62
     5
420
      255
176
     1
290
     0
176
     1
 90
       50
176
     1
 90
       50
176
     1
 90
       50
176
     1
290
     0
176
     1
 90
       50
176
     1
 62
   256
176
     0
 40
1.0
176
     0
 90
        2
176
     1
  1
strokes_ogs.tif
176
     1
290
     0
176
     1
 40
1.0
176
     1
 40
1.0
176
     1
  0
VISUALSTYLE
  5
10026
102
{ACAD_REACTORS
330
1001B
102
}
330
1001B
100
AcDbVisualStyle
  2

 70
    11
177
     3
291
     1
 70
    58
 90
        2
176
     1
 90
        2
176
     1
 90
        0
176
     1
 90
        0
176
     1
 40
0.6
176
     1
 40
30.0
176
     1
 62
     7
176
     1
 90
        1
176
     1
 90
        4
176
     1
 62
     7
176
     1
 62
   257
176
     1
 90
        1
176
     1
 90
        1
176
     1
 40
1.0
176
     1
 90
        8
176
     1
 62
     7
176
     1
 40
1.0
176
     1
 90
        1
176
     1
 90
        6
176
     1
 90
        2
176
     1
 62
     7
176
     1
 90
        5
176
     1
 90
        0
176
     1
 90
        0
176
     1
290
     0
176
     1
 90
        1
176
     1
 40
-50.0
176
     1
 90
        0
176
     1
290
     0
176
     1
290
     1
176
     1
290
     1
176
     1
290
     0
176
     1
290
     0
176
     1
290
     0
176
     1
290
     0
176
     1
290
     0
176
     1
290
     0
176
     1
 90
       50
176
     1
 40
0.0
176
     1
 40
1.0
176
     1
 90
        0
176
     1
 62
    18
420
        0
176
     1
 90
       50
176
     1
 90
        3
176
     1
 62
     5
420
      255
176
     1
290
     0
176
     1
 90
       50
176
     1
 90
       50
176
     1
 90
       50
176
     1
290
     0
176
     1
 90
       50
176
     1
 62
   256
176
     0
 40
1.0
176
     0
 90
        2
176
     1
  1
strokes_ogs.tif
176
     1
290
     0
176
     1
 40
1.0
176
     1
 40
1.0
176
     1
  0
VISUALSTYLE
  5
10033
102
{ACAD_REACTORS
330
1001B
102
}
330
1001B
100
AcDbVisualStyle
  2

 70
    22
177
     3
291
     1
 70
    58
 90
        2
176
     0
 90
        2
176
     0
 90
        0
176
     0
 90
        0
176
     0
 40
0.6
176
     0
 40
30.0
176
     0
 62
     7
176
     0
 90
        1
176
     0
 90
        4
176
     0
 62
     7
176
     0
 62
   257
176
     0
 90
        1
176
     0
 90
        1
176
     0
 40
1.0
176
     0
 90
        8
176
     2
 62
     7
176
     0
 40
1.0
176
     0
 90
        1
176
     0
 90
        6
176
     0
 90
        2
176
     0
 62
     7
176
     0
 90
        5
176
     0
 90
        0
176
     0
 90
        0
176
     0
290
     0
176
     0
 90
        1
176
     0
 40
0.0
176
     0
 90
        0
176
     0
290
     0
176
     1
290
     1
176
     1
290
     1
176
     1
290
     0
176
     1
290
     0
176
     1
290
     0
176
     1
290
     0
176
     1
290
     0
176
     1
290
     0
176
     1
 90
       50
176
     0
 40
0.0
176
     0
 40
1.0
176
     0
 90
        0
176
     0
 62
    18
420
        0
176
     0
 90
       50
176
     0
 90
        3
176
     0
 62
     5
420
      255
176
     0
290
     0
176
     1
 90
       50
176
     0
 90
       50
176
     0
 90
       50
176
     0
290
     0
176
     1
 90
       50
176
     0
 62
   256
176
     0
 40
1.0
176
     0
 90
        2
176
     0
  1
strokes_ogs.tif
176
     0
290
     0
176
     1
 40
1.0
176
     0
 40
1.0
176
     0
  0
VISUALSTYLE
  5
1002A
102
{ACAD_REACTORS
330
1001B
102
}
330
1001B
100
AcDbVisualStyle
  2

 70
    15
177
     3
291
     1
 70
    58
 90
        2
176
     1
 90
        2
176
     1
 90
        0
176
     1
 90
        0
176
     1
 40
0.6
176
     1
 40
30.0
176
     1
 62
     7
176
     1
 90
        1
176
     1
 90
        4
176
     1
 62
     7
176
     1
 62
   257
176
     1
 90
        1
176
     1
 90
        1
176
     1
 40
1.0
176
     1
 90
        8
176
     1
 62
     7
176
     1
 40
1.0
176
     1
 90
        1
176
     1
 90
        6
176
     1
 90
        2
176
     1
 62
     7
176
     1
 90
        5
176
     1
 90
        0
176
     1
 90
        0
176
     1
290
     0
176
     1
 90
        1
176
     1
 40
0.0
176
     1
 90
        0
176
     1
290
     0
176
     1
290
     1
176
     1
290
     1
176
     1
290
     0
176
     1
290
     0
176
     1
290
     0
176
     1
290
     0
176
     1
290
     0
176
     1
290
     0
176
     1
 90
       50
176
     1
 40
0.0
176
     1
 40
1.0
176
     1
 90
        0
176
     1
 62
    18
420
        0
176
     1
 90
       50
176
     1
 90
        3
176
     1
 62
     5
420
      255
176
     1
290
     0
176
     1
 90
       50
176
     1
 90
       50
176
     1
 90
       50
176
     1
290
     0
176
     1
 90
       50
176
     1
 62
   256
176
     0
 40
1.0
176
     0
 90
        2
176
     1
  1
strokes_ogs.tif
176
     1
290
     0
176
     1
 40
1.0
176
     1
 40
1.0
176
     1
  0
VISUALSTYLE
  5
1001C
102
{ACAD_REACTORS
330
1001B
102
}
330
1001B
100
AcDbVisualStyle
  2

 70
     0
177
     3
291
     1
 70
    58
 90
        2
176
     1
 90
        1
176
     1
 90
        1
176
     1
 90
        2
176
     1
 40
0.6
176
     1
 40
30.0
176
     1
 62
     7
176
     1
 90
        0
176
     1
 90
        0
176
     1
 62
     7
176
     1
 62
   257
176
     1
 90
        1
176
     1
 90
        1
176
     1
 40
1.0
176
     1
 90
        8
176
     1
 62
     7
176
     1
 40
1.0
176
     1
 90
        1
176
     1
 90
        6
176
     1
 90
        2
176
     1
 62
     7
176
     1
 90
        5
176
     1
 90
        0
176
     1
 90
        0
176
     1
290
     0
176
     1
 90
       13
176
     1
 40
0.0
176
     1
 90
        0
176
     1
290
     0
176
     1
290
     1
176
     1
290
     1
176
     1
290
     0
176
     1
290
     0
176
     1
290
     0
176
     1
290
     0
176
     1
290
     0
176
     1
290
     0
176
     1
 90
       50
176
     1
 40
0.0
176
     1
 40
1.0
176
     1
 90
        0
176
     1
 62
    18
420
        0
176
     1
 90
       50
176
     1
 90
        3
176
     1
 62
     5
420
      255
176
     1
290
     0
176
     1
 90
       50
176
     1
 90
       50
176
     1
 90
       50
176
     1
290
     0
176
     1
 90
       50
176
     1
 62
   256
176
     0
 40
1.0
176
     0
 90
        2
176
     1
  1
strokes_ogs.tif
176
     1
290
     0
176
     1
 40
1.0
176
     1
 40
1.0
176
     1
  0
VISUALSTYLE
  5
1001D
102
{ACAD_REACTORS
330
1001B
102
}
330
1001B
100
AcDbVisualStyle
  2

 70
     1
177
     3
291
     1
 70
    58
 90
        2
176
     1
 90
        1
176
     1
 90
        1
176
     1
 90
        2
176
     1
 40
0.6
176
     1
 40
30.0
176
     1
 62
     7
176
     1
 90
        1
176
     1
 90
        0
176
     1
 62
     7
176
     1
 62
   257
176
     1
 90
        1
176
     1
 90
        1
176
     1
 40
1.0
176
     1
 90
        0
176
     1
 62
   257
176
     1
 40
1.0
176
     1
 90
        1
176
     1
 90
        6
176
     1
 90
        2
176
     1
 62
     7
176
     1
 90
        5
176
     1
 90
        0
176
     1
 90
        0
176
     1
290
     0
176
     1
 90
       13
176
     1
 40
0.0
176
     1
 90
        0
176
     1
290
     0
176
     1
290
     1
176
     1
290
     1
176
     1
290
     0
176
     1
290
     0
176
     1
290
     0
176
     1
290
     0
176
     1
290
     0
176
     1
290
     0
176
     1
 90
       50
176
     1
 40
0.0
176
     1
 40
1.0
176
     1
 90
        0
176
     1
 62
    18
420
        0
176
     1
 90
       50
176
     1
 90
        3
176
     1
 62
     5
420
      255
176
     1
290
     0
176
     1
 90
       50
176
     1
 90
       50
176
     1
 90
       50
176
     1
290
     0
176
     1
 90
       50
176
     1
 62
   256
176
     0
 40
1.0
176
     0
 90
        2
176
     1
  1
strokes_ogs.tif
176
     1
290
     0
176
     1
 40
1.0
176
     1
 40
1.0
176
     1
  0
VISUALSTYLE
  5
1001E
102
{ACAD_REACTORS
330
1001B
102
}
330
1001B
100
AcDbVisualStyle
  2

 70
     2
177
     3
291
     1
 70
    58
 90
        2
176
     1
 90
        2
176
     1
 90
        1
176
     1
 90
        2
176
     1
 40
0.6
176
     1
 40
30.0
176
     1
 62
     7
176
     1
 90
        0
176
     1
 90
        0
176
     1
 62
     7
176
     1
 62
   257
176
     1
 90
        1
176
     1
 90
        1
176
     1
 40
1.0
176
     1
 90
        0
176
     1
 62
     7
176
     1
 40
1.0
176
     1
 90
        1
176
     1
 90
        6
176
     1
 90
        2
176
     1
 62
     7
176
     1
 90
        5
176
     1
 90
        0
176
     1
 90
        0
176
     1
290
     0
176
     1
 90
       13
176
     1
 40
0.0
176
     1
 90
        0
176
     1
290
     0
176
     1
290
     1
176
     1
290
     1
176
     1
290
     0
176
     1
290
     0
176
     1
290
     0
176
     1
290
     0
176
     1
290
     0
176
     1
290
     0
176
     1
 90
       50
176
     1
 40
0.0
176
     1
 40
1.0
176
     1
 90
        0
176
     1
 62
    18
420
        0
176
     1
 90
       50
176
     1
 90
        3
176
     1
 62
     5
420
      255
176
     1
290
     0
176
     1
 90
       50
176
     1
 90
       50
176
     1
 90
       50
176
     1
290
     0
176
     1
 90
       50
176
     1
 62
   256
176
     0
 40
1.0
176
     0
 90
        2
176
     1
  1
strokes_ogs.tif
176
     1
290
     0
176
     1
 40
1.0
176
     1
 40
1.0
176
     1
  0
VISUALSTYLE
  5
1001F
102
{ACAD_REACTORS
330
1001B
102
}
330
1001B
100
AcDbVisualStyle
  2

 70
     3
177
     3
291
     1
 70
    58
 90
        2
176
     1
 90
        2
176
     1
 90
        1
176
     1
 90
        2
176
     1
 40
0.6
176
     1
 40
30.0
176
     1
 62
     7
176
     1
 90
        1
176
     1
 90
        0
176
     1
 62
     7
176
     1
 62
   257
176
     1
 90
        1
176
     1
 90
        1
176
     1
 40
1.0
176
     1
 90
        0
176
     1
 62
   257
176
     1
 40
1.0
176
     1
 90
        1
176
     1
 90
        6
176
     1
 90
        2
176
     1
 62
     7
176
     1
 90
        5
176
     1
 90
        0
176
     1
 90
        0
176
     1
290
     0
176
     1
 90
       13
176
     1
 40
0.0
176
     1
 90
        0
176
     1
290
     0
176
     1
290
     1
176
     1
290
     1
176
     1
290
     0
176
     1
290
     0
176
     1
290
     0
176
     1
290
     0
176
     1
290
     0
176
     1
290
     0
176
     1
 90
       50
176
     1
 40
0.0
176
     1
 40
1.0
176
     1
 90
        0
176
     1
 62
    18
420
        0
176
     1
 90
       50
176
     1
 90
        3
176
     1
 62
     5
420
      255
176
     1
290
     0
176
     1
 90
       50
176
     1
 90
       50
176
     1
 90
       50
176
     1
290
     0
176
     1
 90
       50
176
     1
 62
   256
176
     0
 40
1.0
176
     0
 90
        2
176
     1
  1
strokes_ogs.tif
176
     1
290
     0
176
     1
 40
1.0
176
     1
 40
1.0
176
     1
  0
VISUALSTYLE
  5
10023
102
{ACAD_REACTORS
330
1001B
102
}
330
1001B
100
AcDbVisualStyle
  2

 70
     6
177
     3
291
     0
 70
    58
 90
        1
176
     1
 90
        2
176
     1
 90
        2
176
     1
 90
        0
176
     1
 40
0.6
176
     1
 40
30.0
176
     1
 62
     7
176
     1
 90
        2
176
     1
 90
        2
176
     1
 62
     7
176
     1
 62
   257
176
     1
 90
        2
176
     1
 90
        1
176
     1
 40
40.0
176
     1
 90
        0
176
     1
 62
   257
176
     1
 40
1.0
176
     1
 90
        1
176
     1
 90
        6
176
     1
 90
        2
176
     1
 62
     7
176
     1
 90
        3
176
     1
 90
        0
176
     1
 90
        0
176
     1
290
     0
176
     1
 90
        1
176
     1
 40
0.0
176
     1
 90
        0
176
     1
290
     0
176
     1
290
     1
176
     1
290
     1
176
     1
290
     0
176
     1
290
     0
176
     1
290
     0
176
     1
290
     0
176
     1
290
     0
176
     1
290
     0
176
     1
 90
       50
176
     1
 40
0.0
176
     1
 40
1.0
176
     1
 90
        0
176
     1
 62
    18
420
        0
176
     1
 90
       50
176
     1
 90
        3
176
     1
 62
     5
420
      255
176
     1
290
     0
176
     1
 90
       50
176
     1
 90
       50
176
     1
 90
       50
176
     1
290
     0
176
     1
 90
       50
176
     1
 62
   256
176
     0
 40
1.0
176
     0
 90
        2
176
     1
  1
strokes_ogs.tif
176
     1
290
     0
176
     1
 40
1.0
176
     1
 40
1.0
176
     1
  0
VISUALSTYLE
  5
10031
102
{ACAD_REACTORS
330
1001B
102
}
330
1001B
100
AcDbVisualStyle
  2

 70
    20
177
     3
291
     1
 70
    58
 90
        2
176
     0
 90
        2
176
     0
 90
        0
176
     0
 90
        0
176
     0
 40
0.6
176
     0
 40
30.0
176
     0
 62
     7
176
     0
 90
        1
176
     0
 90
        4
176
     0
 62
     7
176
     0
 62
   257
176
     0
 90
        1
176
     0
 90
        1
176
     0
 40
1.0
176
     0
 90
       10
176
     2
 62
     7
176
     0
 40
1.0
176
     0
 90
        1
176
     0
 90
        6
176
     0
 90
        2
176
     0
 62
     7
176
     0
 90
        5
176
     0
 90
        0
176
     0
 90
        0
176
     0
290
     0
176
     0
 90
        1
176
     0
 40
0.0
176
     0
 90
        0
176
     0
290
     0
176
     1
290
     1
176
     1
290
     1
176
     1
290
     0
176
     1
290
     0
176
     1
290
     0
176
     1
290
     0
176
     1
290
     0
176
     1
290
     0
176
     1
 90
       50
176
     0
 40
0.0
176
     0
 40
1.0
176
     0
 90
        0
176
     0
 62
    18
420
        0
176
     0
 90
       50
176
     0
 90
        3
176
     0
 62
     5
420
      255
176
     0
290
     0
176
     1
 90
       50
176
     0
 90
       50
176
     0
 90
       50
176
     0
290
     0
176
     1
 90
       50
176
     0
 62
   256
176
     0
 40
1.0
176
     0
 90
        2
176
     0
  1
strokes_ogs.tif
176
     0
290
     0
176
     1
 40
1.0
176
     0
 40
1.0
176
     0
  0
VISUALSTYLE
  5
10029
102
{ACAD_REACTORS
330
1001B
102
}
330
1001B
100
AcDbVisualStyle
  2

 70
    14
177
     3
291
     1
 70
    58
 90
        2
176
     1
 90
        2
176
     1
 90
        0
176
     1
 90
        0
176
     1
 40
0.6
176
     1
 40
30.0
176
     1
 62
     7
176
     1
 90
        1
176
     1
 90
        4
176
     1
 62
     7
176
     1
 62
   257
176
     1
 90
        7
176
     1
 90
        7
176
     1
 40
1.0
176
     1
 90
        8
176
     1
 62
     7
176
     1
 40
1.0
176
     1
 90
        1
176
     1
 90
        6
176
     1
 90
        2
176
     1
 62
     7
176
     1
 90
        5
176
     1
 90
        0
176
     1
 90
        0
176
     1
290
     0
176
     1
 90
        1
176
     1
 40
0.0
176
     1
 90
        0
176
     1
290
     0
176
     1
290
     1
176
     1
290
     1
176
     1
290
     0
176
     1
290
     0
176
     1
290
     0
176
     1
290
     0
176
     1
290
     0
176
     1
290
     0
176
     1
 90
       50
176
     1
 40
0.0
176
     1
 40
1.0
176
     1
 90
        0
176
     1
 62
    18
420
        0
176
     1
 90
       50
176
     1
 90
        3
176
     1
 62
     5
420
      255
176
     1
290
     0
176
     1
 90
       50
176
     1
 90
       50
176
     1
 90
       50
176
     1
290
     0
176
     1
 90
       50
176
     1
 62
   256
176
     0
 40
1.0
176
     0
 90
        2
176
     1
  1
strokes_ogs.tif
176
     1
290
     0
176
     1
 40
1.0
176
     1
 40
1.0
176
     1
  0
VISUALSTYLE
  5
10032
102
{ACAD_REACTORS
330
1001B
102
}
330
1001B
100
AcDbVisualStyle
  2

 70
    21
177
     3
291
     1
 70
    58
 90
        2
176
     0
 90
        2
176
     0
 90
        0
176
     0
 90
        0
176
     0
 40
0.6
176
     0
 40
30.0
176
     0
 62
     7
176
     0
 90
        1
176
     0
 90
        4
176
     0
 62
     7
176
     0
 62
   257
176
     0
 90
        1
176
     0
 90
        1
176
     0
 40
1.0
176
     0
 90
        9
176
     2
 62
     7
176
     0
 40
1.0
176
     0
 90
        1
176
     0
 90
        6
176
     0
 90
        2
176
     0
 62
     7
176
     0
 90
        5
176
     0
 90
        0
176
     0
 90
        0
176
     0
290
     0
176
     0
 90
        1
176
     0
 40
0.0
176
     0
 90
        0
176
     0
290
     0
176
     1
290
     1
176
     1
290
     1
176
     1
290
     0
176
     1
290
     0
176
     1
290
     0
176
     1
290
     0
176
     1
290
     0
176
     1
290
     0
176
     1
 90
       50
176
     0
 40
0.0
176
     0
 40
1.0
176
     0
 90
        0
176
     0
 62
    18
420
        0
176
     0
 90
       50
176
     0
 90
        3
176
     0
 62
     5
420
      255
176
     0
290
     0
176
     1
 90
       50
176
     0
 90
       50
176
     0
 90
       50
176
     0
290
     0
176
     1
 90
       50
176
     0
 62
   256
176
     0
 40
1.0
176
     0
 90
        2
176
     0
  1
strokes_ogs.tif
176
     0
290
     0
176
     1
 40
1.0
176
     0
 40
1.0
176
     0
  0
VISUALSTYLE
  5
10025
102
{ACAD_REACTORS
330
1001B
102
}
330
1001B
100
AcDbVisualStyle
  2

 70
     8
177
     3
291
     0
 70
    58
 90
        2
176
     1
 90
        2
176
     1
 90
        0
176
     1
 90
        2
176
     1
 40
0.6
176
     1
 40
30.0
176
     1
 62
     7
176
     1
 90
        0
176
     1
 90
        0
176
     1
 62
     7
176
     1
 62
   257
176
     1
 90
        1
176
     1
 90
        1
176
     1
 40
1.0
176
     1
 90
        8
176
     1
 62
   257
176
     1
 40
1.0
176
     1
 90
        1
176
     1
 90
        6
176
     1
 90
        2
176
     1
 62
     7
176
     1
 90
        3
176
     1
 90
        0
176
     1
 90
        0
176
     1
290
     0
176
     1
 90
       13
176
     1
 40
0.0
176
     1
 90
        0
176
     1
290
     0
176
     1
290
     1
176
     1
290
     1
176
     1
290
     0
176
     1
290
     0
176
     1
290
     0
176
     1
290
     0
176
     1
290
     0
176
     1
290
     0
176
     1
 90
       50
176
     1
 40
0.0
176
     1
 40
1.0
176
     1
 90
        0
176
     1
 62
    18
420
        0
176
     1
 90
       50
176
     1
 90
        3
176
     1
 62
     5
420
      255
176
     1
290
     0
176
     1
 90
       50
176
     1
 90
       50
176
     1
 90
       50
176
     1
290
     0
176
     1
 90
       50
176
     1
 62
   256
176
     0
 40
1.0
176
     0
 90
        2
176
     1
  1
strokes_ogs.tif
176
     1
290
     0
176
     1
 40
1.0
176
     1
 40
1.0
176
     1
  0
VISUALSTYLE
  5
10030
102
{ACAD_REACTORS
330
1001B
102
}
330
1001B
100
AcDbVisualStyle
  2

 70
    27
177
     3
291
     0
 70
    58
 90
        2
176
     1
 90
        2
176
     1
 90
        1
176
     1
 90
        2
176
     1
 40
0.6
176
     1
 40
30.0
176
     1
 62
     7
176
     1
 90
        0
176
     1
 90
        4
176
     1
 62
     7
176
     1
 62
   257
176
     1
 90
        1
176
     1
 90
        1
176
     1
 40
1.0
176
     1
 90
        8
176
     1
 62
   257
176
     1
 40
1.0
176
     1
 90
        1
176
     1
 90
        6
176
     1
 90
        2
176
     1
 62
     8
176
     1
 90
        3
176
     1
 90
        0
176
     1
 90
        0
176
     1
290
     0
176
     1
 90
        5
176
     1
 40
0.0
176
     1
 90
        0
176
     1
290
     0
176
     1
290
     1
176
     1
290
     1
176
     1
290
     0
176
     1
290
     0
176
     1
290
     0
176
     1
290
     0
176
     1
290
     0
176
     1
290
     0
176
     1
 90
       50
176
     1
 40
0.0
176
     1
 40
1.0
176
     1
 90
        0
176
     1
 62
    18
420
        0
176
     1
 90
       50
176
     1
 90
        3
176
     1
 62
     5
420
      255
176
     1
290
     0
176
     1
 90
       50
176
     1
 90
       50
176
     1
 90
       50
176
     1
290
     0
176
     1
 90
       50
176
     1
 62
   256
176
     0
 40
1.0
176
     0
 90
        2
176
     1
  1
strokes_ogs.tif
176
     1
290
     0
176
     1
 40
1.0
176
     1
 40
1.0
176
     1
  0
VISUALSTYLE
  5
1002F
102
{ACAD_REACTORS
330
1001B
102
}
330
1001B
100
AcDbVisualStyle
  2

 70
    26
177
     3
291
     0
 70
    58
 90
        2
176
     1
 90
        2
176
     1
 90
        1
176
     1
 90
        2
176
     1
 40
0.6
176
     1
 40
30.0
176
     1
 62
     7
176
     1
 90
        1
176
     1
 90
        2
176
     1
 62
     7
176
     1
 62
   257
176
     1
 90
        2
176
     1
 90
        1
176
     1
 40
1.0
176
     1
 90
        8
176
     1
 62
   257
176
     1
 40
1.0
176
     1
 90
        1
176
     1
 90
        6
176
     1
 90
        2
176
     1
 62
     7
176
     1
 90
        3
176
     1
 90
        0
176
     1
 90
        0
176
     1
290
     0
176
     1
 90
        5
176
     1
 40
0.0
176
     1
 90
        0
176
     1
290
     0
176
     1
290
     1
176
     1
290
     1
176
     1
290
     0
176
     1
290
     0
176
     1
290
     0
176
     1
290
     0
176
     1
290
     0
176
     1
290
     0
176
     1
 90
       50
176
     1
 40
0.0
176
     1
 40
1.0
176
     1
 90
        0
176
     1
 62
    18
420
        0
176
     1
 90
       50
176
     1
 90
        3
176
     1
 62
     5
420
      255
176
     1
290
     0
176
     1
 90
       50
176
     1
 90
       50
176
     1
 90
       50
176
     1
290
     0
176
     1
 90
       50
176
     1
 62
   256
176
     0
 40
1.0
176
     0
 90
        2
176
     1
  1
strokes_ogs.tif
176
     1
290
     0
176
     1
 40
1.0
176
     1
 40
1.0
176
     1
  0
VISUALSTYLE
  5
1002C
102
{ACAD_REACTORS
330
1001B
102
}
330
1001B
100
AcDbVisualStyle
  2

 70
    23
177
     3
291
     0
 70
    58
 90
        2
176
     1
 90
        2
176
     1
 90
        3
176
     1
 90
        0
176
     1
 40
0.6
176
     1
 40
30.0
176
     1
 62
     7
176
     1
 90
        2
176
     1
 90
        2
176
     1
 62
     7
176
     1
 62
     7
176
     1
 90
        1
176
     1
 90
        1
176
     1
 40
40.0
176
     1
 90
        8
176
     1
 62
     7
176
     1
 40
1.0
176
     1
 90
        1
176
     1
 90
        6
176
     1
 90
        2
176
     1
 62
     7
176
     1
 90
        3
176
     1
 90
        0
176
     1
 90
        0
176
     1
290
     0
176
     1
 90
        1
176
     1
 40
0.0
176
     1
 90
        0
176
     1
290
     0
176
     1
290
     1
176
     1
290
     1
176
     1
290
     0
176
     1
290
     0
176
     1
290
     0
176
     1
290
     0
176
     1
290
     0
176
     1
290
     0
176
     1
 90
       50
176
     1
 40
0.0
176
     1
 40
1.0
176
     1
 90
        0
176
     1
 62
    18
420
        0
176
     1
 90
       50
176
     1
 90
        3
176
     1
 62
     5
420
      255
176
     1
290
     0
176
     1
 90
       50
176
     1
 90
       50
176
     1
 90
       50
176
     1
290
     0
176
     1
 90
       50
176
     1
 62
   256
176
     0
 40
1.0
176
     0
 90
        2
176
     1
  1
strokes_ogs.tif
176
     1
290
     0
176
     1
 40
1.0
176
     1
 40
1.0
176
     1
  0
VISUALSTYLE
  5
1002D
102
{ACAD_REACTORS
330
1001B
102
}
330
1001B
100
AcDbVisualStyle
  2

 70
    24
177
     3
291
     0
 70
    58
 90
        1
176
     1
 90
        2
176
     1
 90
        2
176
     1
 90
        0
176
     1
 40
0.6
176
     1
 40
30.0
176
     1
 62
     7
176
     1
 90
        2
176
     1
 90
        2
176
     1
 62
     7
176
     1
 62
     7
176
     1
 90
        1
176
     1
 90
        1
176
     1
 40
40.0
176
     1
 90
       11
176
     1
 62
     7
176
     1
 40
1.0
176
     1
 90
        1
176
     1
 90
        6
176
     1
 90
        2
176
     1
 62
     7
176
     1
 90
        6
176
     1
 90
        0
176
     1
 90
        0
176
     1
290
     0
176
     1
 90
        1
176
     1
 40
0.0
176
     1
 90
        0
176
     1
290
     0
176
     1
290
     1
176
     1
290
     1
176
     1
290
     0
176
     1
290
     0
176
     1
290
     0
176
     1
290
     0
176
     1
290
     0
176
     1
290
     0
176
     1
 90
       50
176
     1
 40
0.0
176
     1
 40
1.0
176
     1
 90
        0
176
     1
 62
    18
420
        0
176
     1
 90
       50
176
     1
 90
        3
176
     1
 62
     5
420
      255
176
     1
290
     0
176
     1
 90
       50
176
     1
 90
       50
176
     1
 90
       50
176
     1
290
     0
176
     1
 90
       50
176
     1
 62
   256
176
     0
 40
1.0
176
     0
 90
        2
176
     1
  1
strokes_ogs.tif
176
     1
290
     0
176
     1
 40
1.0
176
     1
 40
1.0
176
     1
  0
VISUALSTYLE
  5
10028
102
{ACAD_REACTORS
330
1001B
102
}
330
1001B
100
AcDbVisualStyle
  2

 70
    13
177
     3
291
     1
 70
    58
 90
        2
176
     1
 90
        2
176
     1
 90
        0
176
     1
 90
        0
176
     1
 40
0.6
176
     1
 40
30.0
176
     1
 62
     7
176
     1
 90
        1
176
     1
 90
        4
176
     1
 62
     7
176
     1
 62
   257
176
     1
 90
        1
176
     1
 90
        1
176
     1
 40
1.0
176
     1
 90
       12
176
     1
 62
     7
176
     1
 40
1.0
176
     1
 90
        1
176
     1
 90
        6
176
     1
 90
        2
176
     1
 62
     7
176
     1
 90
        5
176
     1
 90
        0
176
     1
 90
        0
176
     1
290
     0
176
     1
 90
        1
176
     1
 40
0.0
176
     1
 90
        0
176
     1
290
     0
176
     1
290
     1
176
     1
290
     1
176
     1
290
     0
176
     1
290
     0
176
     1
290
     0
176
     1
290
     0
176
     1
290
     0
176
     1
290
     0
176
     1
 90
       50
176
     1
 40
0.0
176
     1
 40
1.0
176
     1
 90
        0
176
     1
 62
    18
420
        0
176
     1
 90
       50
176
     1
 90
        3
176
     1
 62
     5
420
      255
176
     1
290
     0
176
     1
 90
       50
176
     1
 90
       50
176
     1
 90
       50
176
     1
290
     0
176
     1
 90
       50
176
     1
 62
   256
176
     0
 40
1.0
176
     0
 90
        2
176
     1
  1
strokes_ogs.tif
176
     1
290
     0
176
     1
 40
1.0
176
     1
 40
1.0
176
     1
  0
VISUALSTYLE
  5
10022
102
{ACAD_REACTORS
330
1001B
102
}
330
1001B
100
AcDbVisualStyle
  2

 70
     5
177
     3
291
     0
 70
    58
 90
        0
176
     1
 90
        2
176
     1
 90
        0
176
     1
 90
        0
176
     1
 40
0.6
176
     1
 40
30.0
176
     1
 62
     7
176
     1
 90
        1
176
     1
 90
        4
176
     1
 62
     7
176
     1
 62
   257
176
     1
 90
        1
176
     1
 90
        1
176
     1
 40
1.0
176
     1
 90
        0
176
     1
 62
   257
176
     1
 40
1.0
176
     1
 90
        1
176
     1
 90
        6
176
     1
 90
        2
176
     1
 62
     7
176
     1
 90
        3
176
     1
 90
        0
176
     1
 90
        0
176
     1
290
     0
176
     1
 90
        1
176
     1
 40
0.0
176
     1
 90
        0
176
     1
290
     0
176
     1
290
     1
176
     1
290
     1
176
     1
290
     0
176
     1
290
     0
176
     1
290
     0
176
     1
290
     0
176
     1
290
     0
176
     1
290
     0
176
     1
 90
       50
176
     1
 40
0.0
176
     1
 40
1.0
176
     1
 90
        0
176
     1
 62
    18
420
        0
176
     1
 90
       50
176
     1
 90
        3
176
     1
 62
     5
420
      255
176
     1
290
     0
176
     1
 90
       50
176
     1
 90
       50
176
     1
 90
       50
176
     1
290
     0
176
     1
 90
       50
176
     1
 62
   256
176
     0
 40
1.0
176
     0
 90
        2
176
     1
  1
strokes_ogs.tif
176
     1
290
     0
176
     1
 40
1.0
176
     1
 40
1.0
176
     1
  0
VISUALSTYLE
  5
1002E
102
{ACAD_REACTORS
330
1001B
102
}
330
1001B
100
AcDbVisualStyle
  2

 70
    25
177
     3
291
     0
 70
    58
 90
        2
176
     1
 90
        2
176
     1
 90
        1
176
     1
 90
        1
176
     1
 40
0.5
176
     1
 40
30.0
176
     1
 62
     7
176
     1
 90
        1
176
     1
 90
        0
176
     1
 62
     7
176
     1
 62
   257
176
     1
 90
        1
176
     1
 90
        1
176
     1
 40
1.0
176
     1
 90
        8
176
     1
 62
     7
176
     1
 40
1.0
176
     1
 90
        1
176
     1
 90
        6
176
     1
 90
        2
176
     1
 62
     7
176
     1
 90
        3
176
     1
 90
        0
176
     1
 90
        0
176
     1
290
     0
176
     1
 90
       13
176
     1
 40
0.0
176
     1
 90
        0
176
     1
290
     0
176
     1
290
     1
176
     1
290
     1
176
     1
290
     0
176
     1
290
     0
176
     1
290
     0
176
     1
290
     0
176
     1
290
     0
176
     1
290
     0
176
     1
 90
       50
176
     1
 40
0.0
176
     1
 40
1.0
176
     1
 90
        0
176
     1
 62
    18
420
        0
176
     1
 90
       50
176
     1
 90
        3
176
     1
 62
     5
420
      255
176
     1
290
     0
176
     1
 90
       50
176
     1
 90
       50
176
     1
 90
       50
176
     1
290
     0
176
     1
 90
       50
176
     1
 62
   256
176
     0
 40
1.0
176
     0
 90
        2
176
     1
  1
strokes_ogs.tif
176
     1
290
     0
176
     1
 40
1.0
176
     1
 40
1.0
176
     1
  0
DICTIONARYVAR
  5
10067
102
{ACAD_REACTORS
330
2D6
102
}
330
2D6
100
DictionaryVariables
280
     0
  1
1:1
  0
DICTIONARYVAR
  5
10064
102
{ACAD_REACTORS
330
2D6
102
}
330
2D6
100
DictionaryVariables
280
     0
  1
STANDARD
  0
DICTIONARYVAR
  5
10063
102
{ACAD_REACTORS
330
2D6
102
}
330
2D6
100
DictionaryVariables
280
     0
  1
STANDARD
  0
DICTIONARYVAR
  5
10065
102
{ACAD_REACTORS
330
2D6
102
}
330
2D6
100
DictionaryVariables
280
     0
  1
Imperial24
  0
DICTIONARYVAR
  5
10066
102
{ACAD_REACTORS
330
2D6
102
}
330
2D6
100
DictionaryVariables
280
     0
  1
Imperial24
  0
DICTIONARYVAR
  5
2D8
330
2D6
100
DictionaryVariables
280
     0
  1
1
  0
DICTIONARYVAR
  5
2D7
330
2D6
100
DictionaryVariables
280
     0
  1
0
  0
DICTIONARYVAR
  5
10069
102
{ACAD_REACTORS
330
2D6
102
}
330
2D6
100
DictionaryVariables
280
     0
  1
0
  0
DICTIONARYVAR
  5
1011082
102
{ACAD_REACTORS
330
2D6
102
}
330
2D6
100
DictionaryVariables
280
     0
  1
1
  0
DICTIONARYVAR
  5
1011083
102
{ACAD_REACTORS
330
2D6
102
}
330
2D6
100
DictionaryVariables
280
     0
  1
15
  0
DICTIONARYVAR
  5
1011081
102
{ACAD_REACTORS
330
2D6
102
}
330
2D6
100
DictionaryVariables
280
     0
  1
0
  0
DICTIONARYVAR
  5
1011080
102
{ACAD_REACTORS
330
2D6
102
}
330
2D6
100
DictionaryVariables
280
     0
  1
0
  0
DICTIONARYVAR
  5
10068
102
{ACAD_REACTORS
330
2D6
102
}
330
2D6
100
DictionaryVariables
280
     0
  1
127
  0
DICTIONARY
  5
101107D
330
1004E
100
AcDbDictionary
280
     1
281
     1
  3
ACAD_XREC_ROUNDTRIP
360
1011608
  0
DICTIONARY
  5
1000C
330
1000B
100
AcDbDictionary
280
     1
281
     1
  3
BUMPTILE
360
1000E
  3
DIFFUSETILE
360
1000D
  3
OPACITYTILE
360
10011
  3
REFLECTIONTILE
360
10010
  3
REFRACTIONTILE
360
10012
  3
SPECULARTILE
360
1000F
  0
DICTIONARY
  5
10004
330
10003
100
AcDbDictionary
280
     1
281
     1
  3
BUMPTILE
360
10006
  3
DIFFUSETILE
360
10005
  3
OPACITYTILE
360
10009
  3
REFLECTIONTILE
360
10008
  3
REFRACTIONTILE
360
1000A
  3
SPECULARTILE
360
10007
  0
DICTIONARY
  5
10014
330
10013
100
AcDbDictionary
280
     1
281
     1
  3
BUMPTILE
360
10016
  3
DIFFUSETILE
360
10015
  3
OPACITYTILE
360
10019
  3
REFLECTIONTILE
360
10018
  3
REFRACTIONTILE
360
1001A
  3
SPECULARTILE
360
10017
  0
DICTIONARY
  5
101107B
330
1004C
100
AcDbDictionary
280
     1
281
     1
  3
ACAD_XREC_ROUNDTRIP
360
1011607
  0
DICTIONARY
  5
1006C
330
10036
100
AcDbDictionary
280
     1
281
     1
  3
ACAD_ROUNDTRIP_2008_TABLESTYLE_CELLSTYLEMAP
360
1011606
  0
XRECORD
  5
1011608
102
{ACAD_REACTORS
330
101107D
102
}
330
101107D
100
AcDbXrecord
280
     1
102
DISPLAYNAME
  1
Imperial24
102
FLAGS
 90
        0
  0
XRECORD
  5
1000E
102
{ACAD_REACTORS
330
1000C
102
}
330
1000C
100
AcDbXrecord
280
     1
270
     1
271
     1
  0
XRECORD
  5
1000D
102
{ACAD_REACTORS
330
1000C
102
}
330
1000C
100
AcDbXrecord
280
     1
270
     1
271
     1
  0
XRECORD
  5
10011
102
{ACAD_REACTORS
330
1000C
102
}
330
1000C
100
AcDbXrecord
280
     1
270
     1
271
     1
  0
XRECORD
  5
10010
102
{ACAD_REACTORS
330
1000C
102
}
330
1000C
100
AcDbXrecord
280
     1
270
     1
271
     1
  0
XRECORD
  5
10012
102
{ACAD_REACTORS
330
1000C
102
}
330
1000C
100
AcDbXrecord
280
     1
270
     1
271
     1
  0
XRECORD
  5
1000F
102
{ACAD_REACTORS
330
1000C
102
}
330
1000C
100
AcDbXrecord
280
     1
270
     1
271
     1
  0
XRECORD
  5
10006
102
{ACAD_REACTORS
330
10004
102
}
330
10004
100
AcDbXrecord
280
     1
270
     1
271
     1
  0
XRECORD
  5
10005
102
{ACAD_REACTORS
330
10004
102
}
330
10004
100
AcDbXrecord
280
     1
270
     1
271
     1
  0
XRECORD
  5
10009
102
{ACAD_REACTORS
330
10004
102
}
330
10004
100
AcDbXrecord
280
     1
270
     1
271
     1
  0
XRECORD
  5
10008
102
{ACAD_REACTORS
330
10004
102
}
330
10004
100
AcDbXrecord
280
     1
270
     1
271
     1
  0
XRECORD
  5
1000A
102
{ACAD_REACTORS
330
10004
102
}
330
10004
100
AcDbXrecord
280
     1
270
     1
271
     1
  0
XRECORD
  5
10007
102
{ACAD_REACTORS
330
10004
102
}
330
10004
100
AcDbXrecord
280
     1
270
     1
271
     1
  0
XRECORD
  5
10016
102
{ACAD_REACTORS
330
10014
102
}
330
10014
100
AcDbXrecord
280
     1
270
     1
271
     1
  0
XRECORD
  5
10015
102
{ACAD_REACTORS
330
10014
102
}
330
10014
100
AcDbXrecord
280
     1
270
     1
271
     1
  0
XRECORD
  5
10019
102
{ACAD_REACTORS
330
10014
102
}
330
10014
100
AcDbXrecord
280
     1
270
     1
271
     1
  0
XRECORD
  5
10018
102
{ACAD_REACTORS
330
10014
102
}
330
10014
100
AcDbXrecord
280
     1
270
     1
271
     1
  0
XRECORD
  5
1001A
102
{ACAD_REACTORS
330
10014
102
}
330
10014
100
AcDbXrecord
280
     1
270
     1
271
     1
  0
XRECORD
  5
10017
102
{ACAD_REACTORS
330
10014
102
}
330
10014
100
AcDbXrecord
280
     1
270
     1
271
     1
  0
XRECORD
  5
1011607
102
{ACAD_REACTORS
330
101107B
102
}
330
101107B
100
AcDbXrecord
280
     1
102
DISPLAYNAME
  1
Imperial24
102
FLAGS
 90
        0
  0
CELLSTYLEMAP
  5
1011606
102
{ACAD_REACTORS
330
1006C
102
}
330
1006C
100
AcDbCellStyleMap
 90
        3
300
CELLSTYLE
  1
TABLEFORMAT_BEGIN
 90
        5
170
     1
 91
        0
 92
    32768
 62
   257
 93
        1
300
CONTENTFORMAT
  1
CONTENTFORMAT_BEGIN
 90
        0
 91
        0
 92
      512
 93
        0
300

 40
0.0
140
1.0
 94
        5
 62
     0
340
11
144
0.25
309
CONTENTFORMAT_END
171
     1
301
MARGIN
  1
CELLMARGIN_BEGIN
 40
0.06
 40
0.06
 40
0.06
 40
0.06
 40
0.18
 40
0.18
309
CELLMARGIN_END
 94
        6
 95
        1
302
GRIDFORMAT
  1
GRIDFORMAT_BEGIN
 90
        0
 91
        1
 62
     0
 92
       -2
340
0
 93
        0
 40
0.045
309
GRIDFORMAT_END
 95
        2
302
GRIDFORMAT
  1
GRIDFORMAT_BEGIN
 90
        0
 91
        1
 62
     0
 92
       -2
340
0
 93
        0
 40
0.045
309
GRIDFORMAT_END
 95
        4
302
GRIDFORMAT
  1
GRIDFORMAT_BEGIN
 90
        0
 91
        1
 62
     0
 92
       -2
340
0
 93
        0
 40
0.045
309
GRIDFORMAT_END
 95
        8
302
GRIDFORMAT
  1
GRIDFORMAT_BEGIN
 90
        0
 91
        1
 62
     0
 92
       -2
340
0
 93
        0
 40
0.045
309
GRIDFORMAT_END
 95
       16
302
GRIDFORMAT
  1
GRIDFORMAT_BEGIN
 90
        0
 91
        1
 62
     0
 92
       -2
340
0
 93
        0
 40
0.045
309
GRIDFORMAT_END
 95
       32
302
GRIDFORMAT
  1
GRIDFORMAT_BEGIN
 90
        0
 91
        1
 62
     0
 92
       -2
340
0
 93
        0
 40
0.045
309
GRIDFORMAT_END
309
TABLEFORMAT_END
  1
CELLSTYLE_BEGIN
 90
        1
 91
        1
300
_TITLE
309
CELLSTYLE_END
300
CELLSTYLE
  1
TABLEFORMAT_BEGIN
 90
        5
170
     1
 91
        0
 92
        0
 62
   257
 93
        1
300
CONTENTFORMAT
  1
CONTENTFORMAT_BEGIN
 90
        0
 91
        0
 92
      512
 93
        0
300

 40
0.0
140
1.0
 94
        5
 62
     0
340
11
144
0.18
309
CONTENTFORMAT_END
171
     1
301
MARGIN
  1
CELLMARGIN_BEGIN
 40
0.06
 40
0.06
 40
0.06
 40
0.06
 40
0.18
 40
0.18
309
CELLMARGIN_END
 94
        6
 95
        1
302
GRIDFORMAT
  1
GRIDFORMAT_BEGIN
 90
        0
 91
        1
 62
     0
 92
       -2
340
0
 93
        0
 40
0.045
309
GRIDFORMAT_END
 95
        2
302
GRIDFORMAT
  1
GRIDFORMAT_BEGIN
 90
        0
 91
        1
 62
     0
 92
       -2
340
0
 93
        0
 40
0.045
309
GRIDFORMAT_END
 95
        4
302
GRIDFORMAT
  1
GRIDFORMAT_BEGIN
 90
        0
 91
        1
 62
     0
 92
       -2
340
0
 93
        0
 40
0.045
309
GRIDFORMAT_END
 95
        8
302
GRIDFORMAT
  1
GRIDFORMAT_BEGIN
 90
        0
 91
        1
 62
     0
 92
       -2
340
0
 93
        0
 40
0.045
309
GRIDFORMAT_END
 95
       16
302
GRIDFORMAT
  1
GRIDFORMAT_BEGIN
 90
        0
 91
        1
 62
     0
 92
       -2
340
0
 93
        0
 40
0.045
309
GRIDFORMAT_END
 95
       32
302
GRIDFORMAT
  1
GRIDFORMAT_BEGIN
 90
        0
 91
        1
 62
     0
 92
       -2
340
0
 93
        0
 40
0.045
309
GRIDFORMAT_END
309
TABLEFORMAT_END
  1
CELLSTYLE_BEGIN
 90
        2
 91
        1
300
_HEADER
309
CELLSTYLE_END
300
CELLSTYLE
  1
TABLEFORMAT_BEGIN
 90
        5
170
     1
 91
        0
 92
        0
 62
   257
 93
        1
300
CONTENTFORMAT
  1
CONTENTFORMAT_BEGIN
 90
        0
 91
        0
 92
      512
 93
        0
300

 40
0.0
140
1.0
 94
        2
 62
     0
340
11
144
0.18
309
CONTENTFORMAT_END
171
     1
301
MARGIN
  1
CELLMARGIN_BEGIN
 40
0.06
 40
0.06
 40
0.06
 40
0.06
 40
0.18
 40
0.18
309
CELLMARGIN_END
 94
        6
 95
        1
302
GRIDFORMAT
  1
GRIDFORMAT_BEGIN
 90
        0
 91
        1
 62
     0
 92
       -2
340
0
 93
        0
 40
0.045
309
GRIDFORMAT_END
 95
        2
302
GRIDFORMAT
  1
GRIDFORMAT_BEGIN
 90
        0
 91
        1
 62
     0
 92
       -2
340
0
 93
        0
 40
0.045
309
GRIDFORMAT_END
 95
        4
302
GRIDFORMAT
  1
GRIDFORMAT_BEGIN
 90
        0
 91
        1
 62
     0
 92
       -2
340
0
 93
        0
 40
0.045
309
GRIDFORMAT_END
 95
        8
302
GRIDFORMAT
  1
GRIDFORMAT_BEGIN
 90
        0
 91
        1
 62
     0
 92
       -2
340
0
 93
        0
 40
0.045
309
GRIDFORMAT_END
 95
       16
302
GRIDFORMAT
  1
GRIDFORMAT_BEGIN
 90
        0
 91
        1
 62
     0
 92
       -2
340
0
 93
        0
 40
0.045
309
GRIDFORMAT_END
 95
       32
302
GRIDFORMAT
  1
GRIDFORMAT_BEGIN
 90
        0
 91
        1
 62
     0
 92
       -2
340
0
 93
        0
 40
0.045
309
GRIDFORMAT_END
309
TABLEFORMAT_END
  1
CELLSTYLE_BEGIN
 90
        3
 91
        2
300
_DATA
309
CELLSTYLE_END
  0
ENDSEC
  0
EOF
