  0
SECTION
  2
HEADER
  9
$ACADVER
  1
AC1027
  9
$ACADMAINTVER
 70
   125
  9
$DWGCODEPAGE
  3
ANSI_1252
  9
$LASTSAVEDBY
  1
Peter
  9
$REQUIREDVERSIONS
160
                 0
  9
$INSBASE
 10
0.0
 20
0.0
 30
0.0
  9
$EXTMIN
 10
27.77577863718125
 20
23.41656199741027
 30
0.0
  9
$EXTMAX
 10
280.692445303848
 20
396.9165619974104
 30
0.0
  9
$LIMMIN
 10
0.0
 20
0.0
  9
$LIMMAX
 10
12.0
 20
9.0
  9
$ORTHOMODE
 70
     0
  9
$REGENMODE
 70
     1
  9
$FILLMODE
 70
     1
  9
$QTEXTMODE
 70
     0
  9
$MIRRTEXT
 70
     0
  9
$LTSCALE
 40
1.0
  9
$ATTMODE
 70
     1
  9
$TEXTSIZE
 40
0.2
  9
$TRACEWID
 40
0.05
  9
$TEXTSTYLE
  7
Roman
  9
$CLAYER
  8
0
  9
$CELTYPE
  6
CONTINUOUS
  9
$CECOLOR
 62
   256
  9
$CELTSCALE
 40
1.0
  9
$DISPSILH
 70
     0
  9
$DIMSCALE
 40
1.0
  9
$DIMASZ
 40
0.18
  9
$DIMEXO
 40
0.0625
  9
$DIMDLI
 40
0.38
  9
$DIMRND
 40
0.0
  9
$DIMDLE
 40
0.0
  9
$DIMEXE
 40
0.18
  9
$DIMTP
 40
0.0
  9
$DIMTM
 40
0.0
  9
$DIMTXT
 40
0.18
  9
$DIMCEN
 40
0.09
  9
$DIMTSZ
 40
0.0
  9
$DIMTOL
 70
     0
  9
$DIMLIM
 70
     0
  9
$DIMTIH
 70
     1
  9
$DIMTOH
 70
     1
  9
$DIMSE1
 70
     0
  9
$DIMSE2
 70
     0
  9
$DIMTAD
 70
     0
  9
$DIMZIN
 70
     0
  9
$DIMBLK
  1

  9
$DIMASO
 70
     1
  9
$DIMSHO
 70
     1
  9
$DIMPOST
  1

  9
$DIMAPOST
  1

  9
$DIMALT
 70
     0
  9
$DIMALTD
 70
     2
  9
$DIMALTF
 40
25.4
  9
$DIMLFAC
 40
1.0
  9
$DIMTOFL
 70
     0
  9
$DIMTVP
 40
0.0
  9
$DIMTIX
 70
     0
  9
$DIMSOXD
 70
     0
  9
$DIMSAH
 70
     0
  9
$DIMBLK1
  1

  9
$DIMBLK2
  1

  9
$DIMSTYLE
  2
Standard
  9
$DIMCLRD
 70
     0
  9
$DIMCLRE
 70
     0
  9
$DIMCLRT
 70
     0
  9
$DIMTFAC
 40
1.0
  9
$DIMGAP
 40
0.09
  9
$DIMJUST
 70
     0
  9
$DIMSD1
 70
     0
  9
$DIMSD2
 70
     0
  9
$DIMTOLJ
 70
     1
  9
$DIMTZIN
 70
     0
  9
$DIMALTZ
 70
     0
  9
$DIMALTTZ
 70
     0
  9
$DIMUPT
 70
     0
  9
$DIMDEC
 70
     4
  9
$DIMTDEC
 70
     4
  9
$DIMALTU
 70
     2
  9
$DIMALTTD
 70
     2
  9
$DIMTXSTY
  7
Standard
  9
$DIMAUNIT
 70
     0
  9
$DIMADEC
 70
     0
  9
$DIMALTRND
 40
0.0
  9
$DIMAZIN
 70
     0
  9
$DIMDSEP
 70
    46
  9
$DIMATFIT
 70
     3
  9
$DIMFRAC
 70
     0
  9
$DIMLDRBLK
  1

  9
$DIMLUNIT
 70
     2
  9
$DIMLWD
 70
    -2
  9
$DIMLWE
 70
    -2
  9
$DIMTMOVE
 70
     0
  9
$DIMFXL
 40
1.0
  9
$DIMFXLON
 70
     0
  9
$DIMJOGANG
 40
0.7853981633974483
  9
$DIMTFILL
 70
     0
  9
$DIMTFILLCLR
 70
     0
  9
$DIMARCSYM
 70
     0
  9
$DIMLTYPE
  6

  9
$DIMLTEX1
  6

  9
$DIMLTEX2
  6

  9
$DIMTXTDIRECTION
 70
     0
  9
$LUNITS
 70
     2
  9
$LUPREC
 70
     4
  9
$SKETCHINC
 40
0.1
  9
$FILLETRAD
 40
0.0
  9
$AUNITS
 70
     0
  9
$AUPREC
 70
     0
  9
$MENU
  1
.
  9
$ELEVATION
 40
0.0
  9
$PELEVATION
 40
0.0
  9
$THICKNESS
 40
0.0
  9
$LIMCHECK
 70
     0
  9
$CHAMFERA
 40
0.0
  9
$CHAMFERB
 40
0.0
  9
$CHAMFERC
 40
0.0
  9
$CHAMFERD
 40
0.0
  9
$SKPOLY
 70
     0
  9
$TDCREATE
 40
2458354.663275463
  9
$TDUCREATE
 40
2458354.579942130
  9
$TDUPDATE
 40
2458946.708761574
  9
$TDUUPDATE
 40
2458946.625428241
  9
$TDINDWG
 40
0.0082986111
  9
$TDUSRTIMER
 40
0.0082986111
  9
$USRTIMER
 70
     1
  9
$ANGBASE
 50
0.0
  9
$ANGDIR
 70
     0
  9
$PDMODE
 70
     0
  9
$PDSIZE
 40
0.0
  9
$PLINEWID
 40
0.0
  9
$SPLFRAME
 70
     0
  9
$SPLINETYPE
 70
     6
  9
$SPLINESEGS
 70
     8
  9
$HANDSEED
  5
1011486
  9
$SURFTAB1
 70
     6
  9
$SURFTAB2
 70
     6
  9
$SURFTYPE
 70
     6
  9
$SURFU
 70
     6
  9
$SURFV
 70
     6
  9
$UCSBASE
  2

  9
$UCSNAME
  2

  9
$UCSORG
 10
0.0
 20
0.0
 30
0.0
  9
$UCSXDIR
 10
1.0
 20
0.0
 30
0.0
  9
$UCSYDIR
 10
0.0
 20
1.0
 30
0.0
  9
$UCSORTHOREF
  2

  9
$UCSORTHOVIEW
 70
     0
  9
$UCSORGTOP
 10
0.0
 20
0.0
 30
0.0
  9
$UCSORGBOTTOM
 10
0.0
 20
0.0
 30
0.0
  9
$UCSORGLEFT
 10
0.0
 20
0.0
 30
0.0
  9
$UCSORGRIGHT
 10
0.0
 20
0.0
 30
0.0
  9
$UCSORGFRONT
 10
0.0
 20
0.0
 30
0.0
  9
$UCSORGBACK
 10
0.0
 20
0.0
 30
0.0
  9
$PUCSBASE
  2

  9
$PUCSNAME
  2

  9
$PUCSORG
 10
0.0
 20
0.0
 30
0.0
  9
$PUCSXDIR
 10
1.0
 20
0.0
 30
0.0
  9
$PUCSYDIR
 10
0.0
 20
1.0
 30
0.0
  9
$PUCSORTHOREF
  2

  9
$PUCSORTHOVIEW
 70
     0
  9
$PUCSORGTOP
 10
0.0
 20
0.0
 30
0.0
  9
$PUCSORGBOTTOM
 10
0.0
 20
0.0
 30
0.0
  9
$PUCSORGLEFT
 10
0.0
 20
0.0
 30
0.0
  9
$PUCSORGRIGHT
 10
0.0
 20
0.0
 30
0.0
  9
$PUCSORGFRONT
 10
0.0
 20
0.0
 30
0.0
  9
$PUCSORGBACK
 10
0.0
 20
0.0
 30
0.0
  9
$USERI1
 70
     0
  9
$USERI2
 70
     0
  9
$USERI3
 70
     0
  9
$USERI4
 70
     0
  9
$USERI5
 70
     0
  9
$USERR1
 40
0.0
  9
$USERR2
 40
0.0
  9
$USERR3
 40
0.0
  9
$USERR4
 40
0.0
  9
$USERR5
 40
0.0
  9
$WORLDVIEW
 70
     1
  9
$SHADEDGE
 70
     3
  9
$SHADEDIF
 70
    70
  9
$TILEMODE
 70
     1
  9
$MAXACTVP
 70
    64
  9
$PINSBASE
 10
0.0
 20
0.0
 30
0.0
  9
$PLIMCHECK
 70
     0
  9
$PEXTMIN
 10
1.000000000000000E+20
 20
1.000000000000000E+20
 30
1.000000000000000E+20
  9
$PEXTMAX
 10
-1.000000000000000E+20
 20
-1.000000000000000E+20
 30
-1.000000000000000E+20
  9
$PLIMMIN
 10
0.0
 20
0.0
  9
$PLIMMAX
 10
12.0
 20
9.0
  9
$UNITMODE
 70
     0
  9
$VISRETAIN
 70
     1
  9
$PLINEGEN
 70
     0
  9
$PSLTSCALE
 70
     1
  9
$TREEDEPTH
 70
  3020
  9
$CMLSTYLE
  2
Standard
  9
$CMLJUST
 70
     0
  9
$CMLSCALE
 40
1.0
  9
$PROXYGRAPHICS
 70
     1
  9
$MEASUREMENT
 70
     0
  9
$CELWEIGHT
370
    -1
  9
$ENDCAPS
280
     0
  9
$JOINSTYLE
280
     0
  9
$LWDISPLAY
290
     0
  9
$INSUNITS
 70
     1
  9
$HYPERLINKBASE
  1

  9
$STYLESHEET
  1

  9
$XEDIT
290
     1
  9
$CEPSNTYPE
380
     0
  9
$PSTYLEMODE
290
     1
  9
$FINGERPRINTGUID
  2
{1DB9D1DE-789F-E248-BE97-F7CD108A34F9}
  9
$VERSIONGUID
  2
{51655E2D-35AC-7D44-B4C7-5334DF2E69B1}
  9
$EXTNAMES
290
     1
  9
$PSVPSCALE
 40
0.0
  9
$OLESTARTUP
290
     0
  9
$SORTENTS
280
   127
  9
$INDEXCTL
280
     0
  9
$HIDETEXT
280
     0
  9
$XCLIPFRAME
280
     2
  9
$HALOGAP
280
     0
  9
$OBSCOLOR
 70
   257
  9
$OBSLTYPE
280
     0
  9
$INTERSECTIONDISPLAY
280
     0
  9
$INTERSECTIONCOLOR
 70
   257
  9
$DIMASSOC
280
     1
  9
$PROJECTNAME
  1

  9
$CAMERADISPLAY
290
     0
  9
$LENSLENGTH
 40
50.0
  9
$CAMERAHEIGHT
 40
0.0
  9
$STEPSPERSEC
 40
2.0
  9
$STEPSIZE
 40
6.0
  9
$3DDWFPREC
 40
2.0
  9
$PSOLWIDTH
 40
0.25
  9
$PSOLHEIGHT
 40
4.0
  9
$LOFTANG1
 40
1.570796326794896
  9
$LOFTANG2
 40
1.570796326794896
  9
$LOFTMAG1
 40
0.0
  9
$LOFTMAG2
 40
0.0
  9
$LOFTPARAM
 70
     7
  9
$LOFTNORMALS
280
     1
  9
$LATITUDE
 40
37.795
  9
$LONGITUDE
 40
-122.394
  9
$NORTHDIRECTION
 40
0.0
  9
$TIMEZONE
 70
 -8000
  9
$LIGHTGLYPHDISPLAY
280
     1
  9
$TILEMODELIGHTSYNCH
280
     1
  9
$CMATERIAL
347
10003
  9
$SOLIDHIST
280
     0
  9
$SHOWHIST
280
     1
  9
$DWFFRAME
280
     2
  9
$DGNFRAME
280
     0
  9
$REALWORLDSCALE
290
     1
  9
$INTERFERECOLOR
 62
     1
  9
$INTERFEREOBJVS
345
10025
  9
$INTERFEREVPVS
346
10022
  9
$CSHADOW
280
     0
  9
$SHADOWPLANELOCATION
 40
0.0
  0
ENDSEC
  0
SECTION
  2
CLASSES
  0
CLASS
  1
ACDBDICTIONARYWDFLT
  2
AcDbDictionaryWithDefault
  3
ObjectDBX Classes
 90
        0
 91
        1
280
     0
281
     0
  0
CLASS
  1
DICTIONARYVAR
  2
AcDbDictionaryVar
  3
ObjectDBX Classes
 90
        0
 91
       13
280
     0
281
     0
  0
CLASS
  1
MATERIAL
  2
AcDbMaterial
  3
ObjectDBX Classes
 90
     1153
 91
        3
280
     0
281
     0
  0
CLASS
  1
VISUALSTYLE
  2
AcDbVisualStyle
  3
ObjectDBX Classes
 90
     4095
 91
       24
280
     0
281
     0
  0
CLASS
  1
TABLESTYLE
  2
AcDbTableStyle
  3
ObjectDBX Classes
 90
     4095
 91
        1
280
     0
281
     0
  0
CLASS
  1
SCALE
  2
AcDbScale
  3
ObjectDBX Classes
 90
     1153
 91
       17
280
     0
281
     0
  0
CLASS
  1
MLEADERSTYLE
  2
AcDbMLeaderStyle
  3
ACDB_MLEADERSTYLE_CLASS
 90
     4095
 91
        1
280
     0
281
     0
  0
CLASS
  1
ACDBSECTIONVIEWSTYLE
  2
AcDbSectionViewStyle
  3
ObjectDBX Classes
 90
     1025
 91
        1
280
     0
281
     0
  0
CLASS
  1
ACDBDETAILVIEWSTYLE
  2
AcDbDetailViewStyle
  3
ObjectDBX Classes
 90
     1025
 91
        1
280
     0
281
     0
  0
CLASS
  1
CELLSTYLEMAP
  2
AcDbCellStyleMap
  3
ObjectDBX Classes
 90
     1152
 91
        1
280
     0
281
     0
  0
ENDSEC
  0
SECTION
  2
TABLES
  0
TABLE
  2
VPORT
  5
8
102
{ACAD_XDICTIONARY
360
100FC
102
}
330
0
100
AcDbSymbolTable
 70
     1
1001
ACAD
1000
DbSaveVer
1071
        5
  0
VPORT
  5
30
330
8
100
AcDbSymbolTableRecord
100
AcDbViewportTableRecord
  2
*Active
 70
     0
 10
0.0
 20
0.0
 11
1.0
 21
1.0
 12
154.23465360379
 22
216.6786908351264
 13
0.0
 23
0.0
 14
0.0
 24
0.0
 15
10.0
 25
10.0
 16
0.0
 26
0.0
 36
1.0
 17
0.0
 27
0.0
 37
0.0
 40
376.2301142982438
 41
2.283154121863799
 42
50.0
 43
0.0
 44
0.0
 50
0.0
 51
0.0
 71
     0
 72
   100
 73
     1
 74
     3
 75
     1
 76
     1
 77
     0
 78
     0
281
     0
 65
     1
110
0.0
120
0.0
130
0.0
111
1.0
121
0.0
131
0.0
112
0.0
122
1.0
132
0.0
 79
     0
146
0.0
348
10021
 60
     3
 61
     5
292
     1
282
     1
141
0.0
142
0.0
 63
   250
421
  3355443
1001
ACAD_NAV_VCDISPLAY
1070
     3
  0
ENDTAB
  0
TABLE
  2
LTYPE
  5
5
330
0
100
AcDbSymbolTable
 70
    23
  0
LTYPE
  5
14
330
5
100
AcDbSymbolTableRecord
100
AcDbLinetypeTableRecord
  2
BYBLOCK
 70
     0
  3

 72
    65
 73
     0
 40
0.0
  0
LTYPE
  5
15
330
5
100
AcDbSymbolTableRecord
100
AcDbLinetypeTableRecord
  2
BYLAYER
 70
     0
  3

 72
    65
 73
     0
 40
0.0
  0
LTYPE
  5
16
330
5
100
AcDbSymbolTableRecord
100
AcDbLinetypeTableRecord
  2
CONTINUOUS
 70
     0
  3
Solid line
 72
    65
 73
     0
 40
0.0
  0
LTYPE
  5
31
330
5
100
AcDbSymbolTableRecord
100
AcDbLinetypeTableRecord
  2
ACAD_ISO02W100
 70
     0
  3
ISO Dashed __ __ __ __ __ __ __ __ __ __ _
 72
    65
 73
     2
 40
15.0
 49
12.0
 74
     0
 49
-3.0
 74
     0
  0
LTYPE
  5
32
330
5
100
AcDbSymbolTableRecord
100
AcDbLinetypeTableRecord
  2
ACAD_ISO03W100
 70
     0
  3
ISO Dashed with Distance __    __    __    _
 72
    65
 73
     2
 40
30.0
 49
12.0
 74
     0
 49
-18.0
 74
     0
  0
LTYPE
  5
33
330
5
100
AcDbSymbolTableRecord
100
AcDbLinetypeTableRecord
  2
ACAD_ISO04W100
 70
     0
  3
ISO Long Dashed Dotted ____ . ____ . __
 72
    65
 73
     4
 40
30.0
 49
24.0
 74
     0
 49
-3.0
 74
     0
 49
0.0
 74
     0
 49
-3.0
 74
     0
  0
LTYPE
  5
34
330
5
100
AcDbSymbolTableRecord
100
AcDbLinetypeTableRecord
  2
ACAD_ISO05W100
 70
     0
  3
ISO Long Dashed Double Dotted ____ .. __
 72
    65
 73
     6
 40
33.0
 49
24.0
 74
     0
 49
-3.0
 74
     0
 49
0.0
 74
     0
 49
-3.0
 74
     0
 49
0.0
 74
     0
 49
-3.0
 74
     0
  0
LTYPE
  5
35
330
5
100
AcDbSymbolTableRecord
100
AcDbLinetypeTableRecord
  2
BORDER
 70
     0
  3
Border __ __ . __ __ . __ __ . __ __ . __ __ .
 72
    65
 73
     6
 40
44.45
 49
12.7
 74
     0
 49
-6.349999999999998
 74
     0
 49
12.7
 74
     0
 49
-6.349999999999998
 74
     0
 49
0.0
 74
     0
 49
-6.349999999999998
 74
     0
  0
LTYPE
  5
36
330
5
100
AcDbSymbolTableRecord
100
AcDbLinetypeTableRecord
  2
BORDER2
 70
     0
  3
Border (.5x) __.__.__.__.__.__.__.__.__.__.__.
 72
    65
 73
     6
 40
22.225
 49
6.349999999999998
 74
     0
 49
-3.174999999999998
 74
     0
 49
6.349999999999998
 74
     0
 49
-3.174999999999998
 74
     0
 49
0.0
 74
     0
 49
-3.174999999999998
 74
     0
  0
LTYPE
  5
37
330
5
100
AcDbSymbolTableRecord
100
AcDbLinetypeTableRecord
  2
BORDERX2
 70
     0
  3
Border (2x) ____  ____  .  ____  ____  .  ___
 72
    65
 73
     6
 40
88.9
 49
25.4
 74
     0
 49
-12.7
 74
     0
 49
25.4
 74
     0
 49
-12.7
 74
     0
 49
0.0
 74
     0
 49
-12.7
 74
     0
  0
LTYPE
  5
38
330
5
100
AcDbSymbolTableRecord
100
AcDbLinetypeTableRecord
  2
CENTER
 70
     0
  3
Center ____ _ ____ _ ____ _ ____ _ ____ _ ____
 72
    65
 73
     4
 40
50.8
 49
31.75
 74
     0
 49
-6.349999999999998
 74
     0
 49
6.349999999999998
 74
     0
 49
-6.349999999999998
 74
     0
  0
LTYPE
  5
39
330
5
100
AcDbSymbolTableRecord
100
AcDbLinetypeTableRecord
  2
CENTER2
 70
     0
  3
Center (.5x) ___ _ ___ _ ___ _ ___ _ ___ _ ___
 72
    65
 73
     4
 40
28.575
 49
19.05
 74
     0
 49
-3.174999999999998
 74
     0
 49
3.174999999999998
 74
     0
 49
-3.174999999999998
 74
     0
  0
LTYPE
  5
3A
330
5
100
AcDbSymbolTableRecord
100
AcDbLinetypeTableRecord
  2
CENTERX2
 70
     0
  3
Center (2x) ________  __  ________  __  _____
 72
    65
 73
     4
 40
101.6
 49
63.5
 74
     0
 49
-12.7
 74
     0
 49
12.7
 74
     0
 49
-12.7
 74
     0
  0
LTYPE
  5
3B
330
5
100
AcDbSymbolTableRecord
100
AcDbLinetypeTableRecord
  2
DASHDOT
 70
     0
  3
Dash dot __ . __ . __ . __ . __ . __ . __ . __
 72
    65
 73
     4
 40
25.4
 49
12.7
 74
     0
 49
-6.349999999999998
 74
     0
 49
0.0
 74
     0
 49
-6.349999999999998
 74
     0
  0
LTYPE
  5
3C
330
5
100
AcDbSymbolTableRecord
100
AcDbLinetypeTableRecord
  2
DASHDOT2
 70
     0
  3
Dash dot (.5x) _._._._._._._._._._._._._._._.
 72
    65
 73
     4
 40
12.7
 49
6.349999999999998
 74
     0
 49
-3.174999999999998
 74
     0
 49
0.0
 74
     0
 49
-3.174999999999998
 74
     0
  0
LTYPE
  5
3D
330
5
100
AcDbSymbolTableRecord
100
AcDbLinetypeTableRecord
  2
DASHDOTX2
 70
     0
  3
Dash dot (2x) ____  .  ____  .  ____  .  ___
 72
    65
 73
     4
 40
50.8
 49
25.4
 74
     0
 49
-12.7
 74
     0
 49
0.0
 74
     0
 49
-12.7
 74
     0
  0
LTYPE
  5
3E
330
5
100
AcDbSymbolTableRecord
100
AcDbLinetypeTableRecord
  2
DASHED
 70
     0
  3
Dashed __ __ __ __ __ __ __ __ __ __ __ __ __ _
 72
    65
 73
     2
 40
19.05
 49
12.7
 74
     0
 49
-6.349999999999998
 74
     0
  0
LTYPE
  5
3F
330
5
100
AcDbSymbolTableRecord
100
AcDbLinetypeTableRecord
  2
DASHED2
 70
     0
  3
Dashed (.5x) _ _ _ _ _ _ _ _ _ _ _ _ _ _ _ _ _
 72
    65
 73
     2
 40
9.525
 49
6.349999999999998
 74
     0
 49
-3.174999999999998
 74
     0
  0
LTYPE
  5
40
330
5
100
AcDbSymbolTableRecord
100
AcDbLinetypeTableRecord
  2
DASHEDX2
 70
     0
  3
Dashed (2x) ____  ____  ____  ____  ____  ___
 72
    65
 73
     2
 40
38.1
 49
25.4
 74
     0
 49
-12.7
 74
     0
  0
LTYPE
  5
41
330
5
100
AcDbSymbolTableRecord
100
AcDbLinetypeTableRecord
  2
DIVIDE
 70
     0
  3
Divide ____ . . ____ . . ____ . . ____ . . ____
 72
    65
 73
     6
 40
31.75
 49
12.7
 74
     0
 49
-6.349999999999998
 74
     0
 49
0.0
 74
     0
 49
-6.349999999999998
 74
     0
 49
0.0
 74
     0
 49
-6.349999999999998
 74
     0
  0
LTYPE
  5
42
330
5
100
AcDbSymbolTableRecord
100
AcDbLinetypeTableRecord
  2
DIVIDE2
 70
     0
  3
Divide (.5x) __..__..__..__..__..__..__..__.._
 72
    65
 73
     6
 40
15.875
 49
6.349999999999998
 74
     0
 49
-3.174999999999998
 74
     0
 49
0.0
 74
     0
 49
-3.174999999999998
 74
     0
 49
0.0
 74
     0
 49
-3.174999999999998
 74
     0
  0
LTYPE
  5
43
330
5
100
AcDbSymbolTableRecord
100
AcDbLinetypeTableRecord
  2
DIVIDEX2
 70
     0
  3
Divide (2x) ________  .  .  ________  .  .  _
 72
    65
 73
     6
 40
63.5
 49
25.4
 74
     0
 49
-12.7
 74
     0
 49
0.0
 74
     0
 49
-12.7
 74
     0
 49
0.0
 74
     0
 49
-12.7
 74
     0
  0
LTYPE
  5
44
330
5
100
AcDbSymbolTableRecord
100
AcDbLinetypeTableRecord
  2
DOT
 70
     0
  3
Dot . . . . . . . . . . . . . . . . . . . . . .
 72
    65
 73
     2
 40
6.349999999999998
 49
0.0
 74
     0
 49
-6.349999999999998
 74
     0
  0
LTYPE
  5
45
330
5
100
AcDbSymbolTableRecord
100
AcDbLinetypeTableRecord
  2
DOT2
 70
     0
  3
Dot (.5x) .....................................
 72
    65
 73
     2
 40
3.174999999999998
 49
0.0
 74
     0
 49
-3.174999999999998
 74
     0
  0
LTYPE
  5
46
330
5
100
AcDbSymbolTableRecord
100
AcDbLinetypeTableRecord
  2
DOTX2
 70
     0
  3
Dot (2x) .  .  .  .  .  .  .  .  .  .  .  .  .
 72
    65
 73
     2
 40
12.7
 49
0.0
 74
     0
 49
-12.7
 74
     0
  0
ENDTAB
  0
TABLE
  2
LAYER
  5
2
102
{ACAD_XDICTIONARY
360
101018B
102
}
330
0
100
AcDbSymbolTable
 70
     5
  0
LAYER
  5
10
102
{ACAD_XDICTIONARY
360
10059
102
}
330
2
100
AcDbSymbolTableRecord
100
AcDbLayerTableRecord
  2
0
 70
     0
 62
   250
  6
CONTINUOUS
370
   100
390
F
347
10013
348
0
  0
LAYER
  5
47
102
{ACAD_XDICTIONARY
360
1005B
102
}
330
2
100
AcDbSymbolTableRecord
100
AcDbLayerTableRecord
  2
H
 70
     0
 62
     7
  6
CONTINUOUS
370
   100
390
F
347
10013
348
0
  0
LAYER
  5
48
102
{ACAD_XDICTIONARY
360
1005D
102
}
330
2
100
AcDbSymbolTableRecord
100
AcDbLayerTableRecord
  2
P
 70
     0
 62
   250
  6
CONTINUOUS
370
   100
390
F
347
10013
348
0
  0
LAYER
  5
49
102
{ACAD_XDICTIONARY
360
1005F
102
}
330
2
100
AcDbSymbolTableRecord
100
AcDbLayerTableRecord
  2
Text
 70
     0
 62
   250
  6
CONTINUOUS
370
   100
390
F
347
10013
348
0
  0
LAYER
  5
4A
102
{ACAD_XDICTIONARY
360
10061
102
}
330
2
100
AcDbSymbolTableRecord
100
AcDbLayerTableRecord
  2
Images
 70
     0
 62
   250
  6
CONTINUOUS
370
   100
390
F
347
10013
348
0
  0
ENDTAB
  0
TABLE
  2
STYLE
  5
3
330
0
100
AcDbSymbolTable
 70
     2
  0
STYLE
  5
11
330
3
100
AcDbSymbolTableRecord
100
AcDbTextStyleTableRecord
  2
Standard
 70
     0
 40
0.0
 41
0.75
 50
0.0
 71
     0
 42
2.5
  3
txt
  4

  0
STYLE
  5
10001
330
3
100
AcDbSymbolTableRecord
100
AcDbTextStyleTableRecord
  2
Roman
 70
     0
 40
0.0
 41
1.0
 50
0.0
 71
     0
 42
0.2
  3

  4

  0
ENDTAB
  0
TABLE
  2
VIEW
  5
6
330
0
100
AcDbSymbolTable
 70
     0
  0
ENDTAB
  0
TABLE
  2
UCS
  5
7
330
0
100
AcDbSymbolTable
 70
     0
  0
ENDTAB
  0
TABLE
  2
APPID
  5
9
330
0
100
AcDbSymbolTable
 70
     4
  0
APPID
  5
12
330
9
100
AcDbSymbolTableRecord
100
AcDbRegAppTableRecord
  2
ACAD
 70
     0
  0
APPID
  5
10052
330
9
100
AcDbSymbolTableRecord
100
AcDbRegAppTableRecord
  2
ACAD_EXEMPT_FROM_CAD_STANDARDS
 70
     0
  0
APPID
  5
1006B
330
9
100
AcDbSymbolTableRecord
100
AcDbRegAppTableRecord
  2
ACAD_NAV_VCDISPLAY
 70
     0
  0
APPID
  5
100AA
330
9
100
AcDbSymbolTableRecord
100
AcDbRegAppTableRecord
  2
ACAD_MLEADERVER
 70
     0
  0
ENDTAB
  0
TABLE
  2
DIMSTYLE
  5
A
330
0
100
AcDbSymbolTable
 70
     1
100
AcDbDimStyleTable
 71
     1
340
27
  0
DIMSTYLE
105
27
330
A
100
AcDbSymbolTableRecord
100
AcDbDimStyleTableRecord
  2
Standard
 70
     0
 41
1.0
 42
1.0
 43
3.75
 44
1.0
 73
     0
 74
     0
 77
     1
 78
     8
140
1.0
141
2.5
143
0.03937007874016
147
1.0
171
     3
172
     1
271
     2
272
     2
274
     3
278
    44
283
     0
284
     8
340
11
  0
ENDTAB
  0
TABLE
  2
BLOCK_RECORD
  5
1
330
0
100
AcDbSymbolTable
 70
     1
  0
BLOCK_RECORD
  5
1F
330
1
100
AcDbSymbolTableRecord
100
AcDbBlockTableRecord
  2
*Model_Space
340
22
 70
     0
280
     1
281
     0
  0
BLOCK_RECORD
  5
1B
330
1
100
AcDbSymbolTableRecord
100
AcDbBlockTableRecord
  2
*Paper_Space
340
1E
 70
     0
280
     1
281
     0
  0
BLOCK_RECORD
  5
23
330
1
100
AcDbSymbolTableRecord
100
AcDbBlockTableRecord
  2
*Paper_Space0
340
26
 70
     0
280
     1
281
     0
  0
ENDTAB
  0
ENDSEC
  0
SECTION
  2
BLOCKS
  0
BLOCK
  5
20
330
1F
100
AcDbEntity
  8
0
100
AcDbBlockBegin
  2
*Model_Space
 70
     0
 10
0.0
 20
0.0
 30
0.0
  3
*Model_Space
  1

  0
ENDBLK
  5
21
330
1F
100
AcDbEntity
  8
0
100
AcDbBlockEnd
  0
BLOCK
  5
1C
330
1B
100
AcDbEntity
 67
     1
  8
0
100
AcDbBlockBegin
  2
*Paper_Space
 70
     0
 10
0.0
 20
0.0
 30
0.0
  3
*Paper_Space
  1

  0
ENDBLK
  5
1D
330
1B
100
AcDbEntity
 67
     1
  8
0
100
AcDbBlockEnd
  0
BLOCK
  5
24
330
23
100
AcDbEntity
 67
     1
  8
0
100
AcDbBlockBegin
  2
*Paper_Space0
 70
     0
 10
0.0
 20
0.0
 30
0.0
  3
*Paper_Space0
  1

  0
ENDBLK
  5
25
330
23
100
AcDbEntity
 67
     1
  8
0
100
AcDbBlockEnd
  0
ENDSEC
  0
SECTION
  2
ENTITIES
  0
MTEXT
  5
52
330
1F
100
AcDbEntity
  8
Text
  6
Continuous
 62
     0
100
AcDbMText
 10
170.5
 20
36.58333333333331
 30
0.0
 40
3.25
 41
3.5
 46
0.0
 71
     4
 72
     5
  1
{\fHelveticaNeueLTPro|b0|i0|c1|p15; }
 73
     2
 44
1.0
  0
MTEXT
  5
64
330
1F
100
AcDbEntity
  8
Text
  6
Continuous
 62
     0
100
AcDbMText
 10
55.16666666666665
 20
52.16666666666668
 30
0.0
 40
3.0
 41
3.25
 46
0.0
 71
     4
 72
     5
  1
{\fHelveticaNeueLTPro|b0|i0|c1|p15; }
 73
     2
 44
1.0
  0
MTEXT
  5
6A
330
1F
100
AcDbEntity
  8
Text
  6
Continuous
 62
     0
100
AcDbMText
 10
65.33333333333333
 20
52.16666666666668
 30
0.0
 40
3.0
 41
3.25
 46
0.0
 71
     4
 72
     5
  1
{\fHelveticaNeueLTPro|b0|i0|c1|p15; }
 73
     2
 44
1.0
  0
MTEXT
  5
6E
330
1F
100
AcDbEntity
  8
Text
  6
Continuous
 62
     0
100
AcDbMText
 10
71.08333333333333
 20
52.16666666666668
 30
0.0
 40
3.0
 41
3.25
 46
0.0
 71
     4
 72
     5
  1
{\fHelveticaNeueLTPro|b0|i0|c1|p15; }
 73
     2
 44
1.0
  0
MTEXT
  5
7B
330
1F
100
AcDbEntity
  8
Text
  6
Continuous
 62
     0
100
AcDbMText
 10
93.16666666666668
 20
52.16666666666668
 30
0.0
 40
3.0
 41
3.25
 46
0.0
 71
     4
 72
     5
  1
{\fHelveticaNeueLTPro|b0|i0|c1|p15; }
 73
     2
 44
1.0
  0
MTEXT
  5
85
330
1F
100
AcDbEntity
  8
Text
  6
Continuous
 62
     0
100
AcDbMText
 10
108.75
 20
52.16666666666668
 30
0.0
 40
3.0
 41
3.25
 46
0.0
 71
     4
 72
     5
  1
{\fHelveticaNeueLTPro|b0|i0|c1|p15; }
 73
     2
 44
1.0
  0
MTEXT
  5
89
330
1F
100
AcDbEntity
  8
Text
  6
Continuous
 62
     0
100
AcDbMText
 10
115.3333333333333
 20
52.16666666666668
 30
0.0
 40
3.0
 41
3.25
 46
0.0
 71
     4
 72
     5
  1
{\fHelveticaNeueLTPro|b0|i0|c1|p15; }
 73
     2
 44
1.0
  0
MTEXT
  5
92
330
1F
100
AcDbEntity
  8
Text
  6
Continuous
 62
     0
100
AcDbMText
 10
128.9166666666666
 20
52.16666666666668
 30
0.0
 40
3.0
 41
3.25
 46
0.0
 71
     4
 72
     5
  1
{\fHelveticaNeueLTPro|b0|i0|c1|p15; }
 73
     2
 44
1.0
  0
MTEXT
  5
98
330
1F
100
AcDbEntity
  8
Text
  6
Continuous
 62
     0
100
AcDbMText
 10
137.75
 20
52.16666666666668
 30
0.0
 40
3.0
 41
3.25
 46
0.0
 71
     4
 72
     5
  1
{\fHelveticaNeueLTPro|b0|i0|c1|p15; }
 73
     2
 44
1.0
  0
MTEXT
  5
E3
330
1F
100
AcDbEntity
  8
Text
  6
Continuous
 62
     7
100
AcDbMText
 10
66.16666666666667
 20
36.41666666666669
 30
0.0
 40
3.75
 41
4.0
 46
0.0
 71
     4
 72
     5
  1
{\fHelveticaNeueLTPro|b0|i0|c1|p15; }
 73
     2
 44
1.0
  0
MTEXT
  5
E7
330
1F
100
AcDbEntity
  8
Text
  6
Continuous
 62
     7
100
AcDbMText
 10
74.33333333333333
 20
36.41666666666669
 30
0.0
 40
3.75
 41
4.0
 46
0.0
 71
     4
 72
     5
  1
{\fHelveticaNeueLTPro|b0|i0|c1|p15; }
 73
     2
 44
1.0
  0
MTEXT
  5
EB
330
1F
100
AcDbEntity
  8
Text
  6
Continuous
 62
     7
100
AcDbMText
 10
82.33333333333332
 20
36.41666666666669
 30
0.0
 40
3.75
 41
4.0
 46
0.0
 71
     4
 72
     5
  1
{\fHelveticaNeueLTPro|b0|i0|c1|p15; }
 73
     2
 44
1.0
  0
MTEXT
  5
F9
330
1F
100
AcDbEntity
  8
Text
  6
Continuous
 62
     0
100
AcDbMText
 10
273.25
 20
389.1666666666666
 30
0.0
 40
3.75
 41
4.0
 46
0.0
 71
     4
 72
     5
  1
{\fHelveticaNeueLTPro|b0|i0|c1|p15; }
 73
     2
 44
1.0
  0
MTEXT
  5
FA
330
1F
100
AcDbEntity
  8
Text
  6
Continuous
 62
     0
100
AcDbMText
 10
177.1666666666666
 20
389.4166666666666
 30
0.0
 40
3.75
 41
4.0
 46
0.0
 71
     4
 72
     5
  1
{\fHelveticaNeueLTPro|b0|i0|c1|p15; }
 73
     2
 44
1.0
  0
LWPOLYLINE
  5
1011287
330
1F
100
AcDbEntity
  8
P
  6
DASHDOT
 62
     0
100
AcDbPolyline
 90
        2
 70
     0
 43
0.0
 10
29.10911197051458
 20
271.583228664077
 10
33.69244530384791
 20
276.1665619974102
  0
LWPOLYLINE
  5
1011288
330
1F
100
AcDbEntity
  8
P
  6
DASHDOT
 62
     0
100
AcDbPolyline
 90
        2
 70
     0
 43
0.0
 10
32.27577863718125
 20
271.4998953307436
 10
36.94244530384791
 20
276.1665619974102
  0
LWPOLYLINE
  5
1011289
330
1F
100
AcDbEntity
  8
P
  6
DASHDOT
 62
     0
100
AcDbPolyline
 90
        2
 70
     0
 43
0.0
 10
35.27577863718125
 20
271.333228664077
 10
40.02577863718125
 20
276.0832286640769
  0
LWPOLYLINE
  5
101128A
330
1F
100
AcDbEntity
  8
P
  6
DASHDOT
 62
     0
100
AcDbPolyline
 90
        2
 70
     0
 43
0.0
 10
38.52577863718125
 20
271.4165619974102
 10
43.10911197051458
 20
275.9998953307436
  0
LWPOLYLINE
  5
101128B
330
1F
100
AcDbEntity
  8
P
  6
DASHDOT
 62
     0
100
AcDbPolyline
 90
        2
 70
     0
 43
0.0
 10
41.69244530384791
 20
271.4165619974102
 10
46.27577863718125
 20
275.9998953307436
  0
LWPOLYLINE
  5
101128C
330
1F
100
AcDbEntity
  8
P
  6
DASHDOT
 62
     0
100
AcDbPolyline
 90
        2
 70
     0
 43
0.0
 10
45.02577863718125
 20
271.333228664077
 10
49.69244530384791
 20
275.9165619974102
  0
LWPOLYLINE
  5
101128D
330
1F
100
AcDbEntity
  8
P
  6
DASHDOT
 62
     0
100
AcDbPolyline
 90
        2
 70
     0
 43
0.0
 10
48.02577863718124
 20
271.2498953307436
 10
52.69244530384791
 20
275.9165619974102
  0
LWPOLYLINE
  5
101128E
330
1F
100
AcDbEntity
  8
P
  6
DASHDOT
 62
     0
100
AcDbPolyline
 90
        2
 70
     0
 43
0.0
 10
51.19244530384791
 20
271.2498953307436
 10
55.77577863718125
 20
275.833228664077
  0
LWPOLYLINE
  5
101128F
330
1F
100
AcDbEntity
  8
P
  6
DASHDOT
 62
     0
100
AcDbPolyline
 90
        2
 70
     0
 43
0.0
 10
54.35911197051458
 20
271.2498953307436
 10
58.94244530384791
 20
275.833228664077
  0
LWPOLYLINE
  5
1011290
330
1F
100
AcDbEntity
  8
P
  6
DASHDOT
 62
     0
100
AcDbPolyline
 90
        2
 70
     0
 43
0.0
 10
57.44244530384791
 20
271.1665619974102
 10
62.10911197051458
 20
275.833228664077
  0
LWPOLYLINE
  5
1011291
330
1F
100
AcDbEntity
  8
P
  6
DASHDOT
 62
     0
100
AcDbPolyline
 90
        2
 70
     0
 43
0.0
 10
60.60911197051458
 20
271.1665619974102
 10
65.19244530384792
 20
275.7498953307436
  0
LWPOLYLINE
  5
1011292
330
1F
100
AcDbEntity
  8
P
  6
DASHDOT
 62
     0
100
AcDbPolyline
 90
        2
 70
     0
 43
0.0
 10
64.10911197051458
 20
271.083228664077
 10
68.52577863718124
 20
275.583228664077
  0
LWPOLYLINE
  5
1011293
330
1F
100
AcDbEntity
  8
P
  6
DASHDOT
 62
     0
100
AcDbPolyline
 90
        2
 70
     0
 43
0.0
 10
67.02577863718125
 20
270.9998953307436
 10
71.60911197051458
 20
275.583228664077
  0
LWPOLYLINE
  5
1011294
330
1F
100
AcDbEntity
  8
P
  6
DASHDOT
 62
     0
100
AcDbPolyline
 90
        2
 70
     0
 43
0.0
 10
70.19244530384792
 20
270.9998953307436
 10
74.77577863718124
 20
275.583228664077
  0
LWPOLYLINE
  5
1011295
330
1F
100
AcDbEntity
  8
P
  6
DASHDOT
 62
     0
100
AcDbPolyline
 90
        2
 70
     0
 43
0.0
 10
73.27577863718125
 20
270.9165619974102
 10
77.94244530384792
 20
275.4998953307436
  0
LWPOLYLINE
  5
1011296
330
1F
100
AcDbEntity
  8
P
  6
DASHDOT
 62
     0
100
AcDbPolyline
 90
        2
 70
     0
 43
0.0
 10
76.44244530384792
 20
270.9165619974102
 10
81.02577863718124
 20
275.4998953307436
  0
LWPOLYLINE
  5
1011297
330
1F
100
AcDbEntity
  8
P
  6
DASHDOT
 62
     0
100
AcDbPolyline
 90
        2
 70
     0
 43
0.0
 10
79.60911197051458
 20
270.833228664077
 10
84.19244530384792
 20
275.4165619974102
  0
LWPOLYLINE
  5
1011298
330
1F
100
AcDbEntity
  8
P
  6
DASHDOT
 62
     0
100
AcDbPolyline
 90
        2
 70
     0
 43
0.0
 10
82.60911197051457
 20
270.7498953307436
 10
87.60911197051457
 20
275.4165619974102
  0
LWPOLYLINE
  5
1011299
330
1F
100
AcDbEntity
  8
P
  6
DASHDOT
 62
     0
100
AcDbPolyline
 90
        2
 70
     0
 43
0.0
 10
86.10911197051457
 20
270.7498953307436
 10
90.69244530384791
 20
275.333228664077
  0
LWPOLYLINE
  5
101129A
330
1F
100
AcDbEntity
  8
P
  6
DASHDOT
 62
     0
100
AcDbPolyline
 90
        2
 70
     0
 43
0.0
 10
89.10911197051458
 20
270.6665619974102
 10
93.69244530384792
 20
275.333228664077
  0
LWPOLYLINE
  5
101129B
330
1F
100
AcDbEntity
  8
P
  6
DASHDOT
 62
     0
100
AcDbPolyline
 90
        2
 70
     0
 43
0.0
 10
92.27577863718124
 20
270.6665619974102
 10
96.77577863718125
 20
275.2498953307436
  0
LWPOLYLINE
  5
101129C
330
1F
100
AcDbEntity
  8
P
  6
DASHDOT
 62
     0
100
AcDbPolyline
 90
        2
 70
     0
 43
0.0
 10
95.35911197051458
 20
270.583228664077
 10
99.94244530384792
 20
275.1665619974102
  0
LWPOLYLINE
  5
101129D
330
1F
100
AcDbEntity
  8
P
  6
DASHDOT
 62
     0
100
AcDbPolyline
 90
        2
 70
     0
 43
0.0
 10
98.52577863718124
 20
270.583228664077
 10
103.1091119705145
 20
275.1665619974102
  0
LWPOLYLINE
  5
101129E
330
1F
100
AcDbEntity
  8
P
  6
DASHDOT
 62
     0
100
AcDbPolyline
 90
        2
 70
     0
 43
0.0
 10
101.6924453038479
 20
270.4998953307436
 10
106.3591119705145
 20
275.2498953307436
  0
LWPOLYLINE
  5
101129F
330
1F
100
AcDbEntity
  8
P
  6
DASHDOT
 62
     0
100
AcDbPolyline
 90
        2
 70
     0
 43
0.0
 10
104.6091119705145
 20
270.4165619974102
 10
109.6091119705145
 20
274.9998953307436
  0
LWPOLYLINE
  5
10112A0
330
1F
100
AcDbEntity
  8
P
  6
DASHDOT
 62
     0
100
AcDbPolyline
 90
        2
 70
     0
 43
0.0
 10
108.0257786371812
 20
270.4165619974102
 10
112.6924453038479
 20
275.083228664077
  0
LWPOLYLINE
  5
10112A1
330
1F
100
AcDbEntity
  8
P
  6
DASHDOT
 62
     0
100
AcDbPolyline
 90
        2
 70
     0
 43
0.0
 10
111.1924453038479
 20
270.4165619974102
 10
115.7757786371812
 20
274.9998953307436
  0
LWPOLYLINE
  5
10112A2
330
1F
100
AcDbEntity
  8
P
  6
DASHDOT
 62
     0
100
AcDbPolyline
 90
        2
 70
     0
 43
0.0
 10
114.3591119705146
 20
270.4165619974102
 10
118.9424453038479
 20
274.9165619974102
  0
LWPOLYLINE
  5
10112A3
330
1F
100
AcDbEntity
  8
P
  6
DASHDOT
 62
     0
100
AcDbPolyline
 90
        2
 70
     0
 43
0.0
 10
117.9424453038479
 20
270.3332286640769
 10
122.0257786371812
 20
274.833228664077
  0
LWPOLYLINE
  5
10112A4
330
1F
100
AcDbEntity
  8
P
  6
DASHDOT
 62
     0
100
AcDbPolyline
 90
        2
 70
     0
 43
0.0
 10
120.8591119705145
 20
270.2498953307436
 10
125.2757786371812
 20
274.9165619974102
  0
LWPOLYLINE
  5
10112A5
330
1F
100
AcDbEntity
  8
P
  6
DASHDOT
 62
     0
100
AcDbPolyline
 90
        2
 70
     0
 43
0.0
 10
123.8591119705146
 20
270.2498953307436
 10
128.3591119705146
 20
274.7498953307436
  0
LWPOLYLINE
  5
10112A6
330
1F
100
AcDbEntity
  8
P
  6
DASHDOT
 62
     0
100
AcDbPolyline
 90
        2
 70
     0
 43
0.0
 10
127.0257786371812
 20
270.2498953307436
 10
131.6091119705146
 20
274.7498953307436
  0
LWPOLYLINE
  5
10112A7
330
1F
100
AcDbEntity
  8
P
  6
DASHDOT
 62
     0
100
AcDbPolyline
 90
        2
 70
     0
 43
0.0
 10
129.9424453038479
 20
270.0832286640769
 10
134.6924453038479
 20
274.6665619974102
  0
LWPOLYLINE
  5
10112A8
330
1F
100
AcDbEntity
  8
P
  6
DASHDOT
 62
     0
100
AcDbPolyline
 90
        2
 70
     0
 43
0.0
 10
133.1091119705146
 20
269.9998953307436
 10
137.7757786371812
 20
274.6665619974102
  0
LWPOLYLINE
  5
10112A9
330
1F
100
AcDbEntity
  8
P
  6
DASHDOT
 62
     0
100
AcDbPolyline
 90
        2
 70
     0
 43
0.0
 10
136.2757786371812
 20
269.9998953307436
 10
140.8591119705146
 20
274.5832286640769
  0
LWPOLYLINE
  5
10112AA
330
1F
100
AcDbEntity
  8
P
  6
DASHDOT
 62
     0
100
AcDbPolyline
 90
        2
 70
     0
 43
0.0
 10
139.6924453038479
 20
269.9165619974102
 10
144.2757786371812
 20
274.4998953307436
  0
LWPOLYLINE
  5
10112AB
330
1F
100
AcDbEntity
  8
P
  6
DASHDOT
 62
     0
100
AcDbPolyline
 90
        2
 70
     0
 43
0.0
 10
142.6924453038479
 20
269.8332286640769
 10
147.3591119705146
 20
274.4998953307436
  0
LWPOLYLINE
  5
10112AC
330
1F
100
AcDbEntity
  8
P
  6
DASHDOT
 62
     0
100
AcDbPolyline
 90
        2
 70
     0
 43
0.0
 10
145.7757786371812
 20
269.8332286640769
 10
150.4424453038479
 20
274.4165619974102
  0
LWPOLYLINE
  5
10112AD
330
1F
100
AcDbEntity
  8
P
  6
DASHDOT
 62
     0
100
AcDbPolyline
 90
        2
 70
     0
 43
0.0
 10
148.9424453038479
 20
269.8332286640769
 10
153.6091119705146
 20
274.4165619974102
  0
LWPOLYLINE
  5
10112AE
330
1F
100
AcDbEntity
  8
P
  6
DASHDOT
 62
     0
100
AcDbPolyline
 90
        2
 70
     0
 43
0.0
 10
152.1091119705146
 20
269.7498953307436
 10
156.7757786371812
 20
274.4165619974102
  0
LWPOLYLINE
  5
10112AF
330
1F
100
AcDbEntity
  8
P
  6
DASHDOT
 62
     0
100
AcDbPolyline
 90
        2
 70
     0
 43
0.0
 10
155.2757786371812
 20
269.7498953307436
 10
159.8591119705146
 20
274.3332286640769
  0
LWPOLYLINE
  5
10112B0
330
1F
100
AcDbEntity
  8
P
  6
DASHDOT
 62
     0
100
AcDbPolyline
 90
        2
 70
     0
 43
0.0
 10
158.6924453038479
 20
269.7498953307436
 10
163.1924453038479
 20
274.1665619974102
  0
LWPOLYLINE
  5
10112B1
330
1F
100
AcDbEntity
  8
P
  6
DASHDOT
 62
     0
100
AcDbPolyline
 90
        2
 70
     0
 43
0.0
 10
161.6091119705146
 20
269.583228664077
 10
166.2757786371812
 20
274.2498953307436
  0
LWPOLYLINE
  5
10112B2
330
1F
100
AcDbEntity
  8
P
  6
DASHDOT
 62
     0
100
AcDbPolyline
 90
        2
 70
     0
 43
0.0
 10
164.7757786371812
 20
269.583228664077
 10
169.3591119705146
 20
274.1665619974102
  0
LWPOLYLINE
  5
10112B3
330
1F
100
AcDbEntity
  8
P
  6
DASHDOT
 62
     0
100
AcDbPolyline
 90
        2
 70
     0
 43
0.0
 10
167.8591119705146
 20
269.4998953307436
 10
172.5257786371812
 20
274.1665619974102
  0
LWPOLYLINE
  5
10112B4
330
1F
100
AcDbEntity
  8
P
  6
DASHDOT
 62
     0
100
AcDbPolyline
 90
        2
 70
     0
 43
0.0
 10
28.60911197051458
 20
274.2498953307436
 10
30.60911197051458
 20
276.1665619974102
  0
LWPOLYLINE
  5
10112B5
330
1F
100
AcDbEntity
  8
P
  6
DASHED2
 62
     0
100
AcDbPolyline
 90
        2
 70
     0
 43
0.0
 10
30.19244530384792
 20
270.9165619974102
 10
216.3206078559259
 20
268.105208142781
  0
MTEXT
  5
10112B6
330
1F
100
AcDbEntity
  8
Text
  6
Continuous
 62
     0
100
AcDbMText
 10
27.77577863718125
 20
370.8332286640769
 30
0.0
 40
7.75
 41
144.0
 46
0.0
 71
     4
 72
     5
  1
{\fHelveticaNeueLTPro|b0|i0|c1|p15;Detailskizze 3.108}
 73
     2
 44
1.0
  0
MTEXT
  5
10112B7
330
1F
100
AcDbEntity
  8
Text
  6
Continuous
 62
     0
100
AcDbMText
 10
27.77577863718125
 20
361.8332286640769
 30
0.0
 40
7.75
 41
360.0
 46
0.0
 71
     4
 72
     5
  1
{\fStandardCTStencil|b1|i0|c1|p15;Fliese auf Fliese mit Balkon Randabschluss - }
 73
     2
 44
1.0
  0
MTEXT
  5
10112B8
330
1F
100
AcDbEntity
  8
Text
  6
Continuous
 62
     0
100
AcDbMText
 10
27.77577863718125
 20
352.2498953307436
 30
0.0
 40
7.75
 41
192.0
 46
0.0
 71
     4
 72
     5
  1
{\fStandardCTStencil|b1|i0|c1|p15;Abdichtung mit DICHT VAB}
 73
     2
 44
1.0
  0
MTEXT
  5
10112B9
330
1F
100
AcDbEntity
  8
Text
  6
Continuous
 62
     0
100
AcDbMText
 10
27.85911197051458
 20
52.16656199741027
 30
0.0
 40
3.0
 41
3.25
 46
0.0
 71
     4
 72
     5
  1
{\fHelveticaNeueLTPro|b0|i0|c1|p15;D}
 73
     2
 44
1.0
  0
MTEXT
  5
10112BA
330
1F
100
AcDbEntity
  8
Text
  6
Continuous
 62
     0
100
AcDbMText
 10
30.19244530384792
 20
52.16656199741027
 30
0.0
 40
3.0
 41
3.25
 46
0.0
 71
     4
 72
     5
  1
{\fHelveticaNeueLTPro|b0|i0|c1|p15;e}
 73
     2
 44
1.0
  0
MTEXT
  5
10112BB
330
1F
100
AcDbEntity
  8
Text
  6
Continuous
 62
     0
100
AcDbMText
 10
31.94244530384791
 20
52.16656199741027
 30
0.0
 40
3.0
 41
3.25
 46
0.0
 71
     4
 72
     5
  1
{\fHelveticaNeueLTPro|b0|i0|c1|p15;t}
 73
     2
 44
1.0
  0
MTEXT
  5
10112BC
330
1F
100
AcDbEntity
  8
Text
  6
Continuous
 62
     0
100
AcDbMText
 10
33.02577863718125
 20
52.16656199741027
 30
0.0
 40
3.0
 41
3.25
 46
0.0
 71
     4
 72
     5
  1
{\fHelveticaNeueLTPro|b0|i0|c1|p15;a}
 73
     2
 44
1.0
  0
MTEXT
  5
10112BD
330
1F
100
AcDbEntity
  8
Text
  6
Continuous
 62
     0
100
AcDbMText
 10
34.85911197051458
 20
52.16656199741027
 30
0.0
 40
3.0
 41
3.25
 46
0.0
 71
     4
 72
     5
  1
{\fHelveticaNeueLTPro|b0|i0|c1|p15;i}
 73
     2
 44
1.0
  0
MTEXT
  5
10112BE
330
1F
100
AcDbEntity
  8
Text
  6
Continuous
 62
     0
100
AcDbMText
 10
35.60911197051459
 20
52.16656199741027
 30
0.0
 40
3.0
 41
3.25
 46
0.0
 71
     4
 72
     5
  1
{\fHelveticaNeueLTPro|b0|i0|c1|p15;l}
 73
     2
 44
1.0
  0
MTEXT
  5
10112BF
330
1F
100
AcDbEntity
  8
Text
  6
Continuous
 62
     0
100
AcDbMText
 10
36.35911197051458
 20
52.16656199741027
 30
0.0
 40
3.0
 41
3.25
 46
0.0
 71
     4
 72
     5
  1
{\fHelveticaNeueLTPro|b0|i0|c1|p15;z}
 73
     2
 44
1.0
  0
MTEXT
  5
10112C0
330
1F
100
AcDbEntity
  8
Text
  6
Continuous
 62
     0
100
AcDbMText
 10
37.94244530384791
 20
52.16656199741027
 30
0.0
 40
3.0
 41
3.25
 46
0.0
 71
     4
 72
     5
  1
{\fHelveticaNeueLTPro|b0|i0|c1|p15;e}
 73
     2
 44
1.0
  0
MTEXT
  5
10112C1
330
1F
100
AcDbEntity
  8
Text
  6
Continuous
 62
     0
100
AcDbMText
 10
39.69244530384791
 20
52.16656199741027
 30
0.0
 40
3.0
 41
3.25
 46
0.0
 71
     4
 72
     5
  1
{\fHelveticaNeueLTPro|b0|i0|c1|p15;i}
 73
     2
 44
1.0
  0
MTEXT
  5
10112C2
330
1F
100
AcDbEntity
  8
Text
  6
Continuous
 62
     0
100
AcDbMText
 10
40.52577863718124
 20
52.16656199741027
 30
0.0
 40
3.0
 41
3.25
 46
0.0
 71
     4
 72
     5
  1
{\fHelveticaNeueLTPro|b0|i0|c1|p15;c}
 73
     2
 44
1.0
  0
MTEXT
  5
10112C3
330
1F
100
AcDbEntity
  8
Text
  6
Continuous
 62
     0
100
AcDbMText
 10
42.27577863718124
 20
52.16656199741027
 30
0.0
 40
3.0
 41
3.25
 46
0.0
 71
     4
 72
     5
  1
{\fHelveticaNeueLTPro|b0|i0|c1|p15;h}
 73
     2
 44
1.0
  0
MTEXT
  5
10112C4
330
1F
100
AcDbEntity
  8
Text
  6
Continuous
 62
     0
100
AcDbMText
 10
44.10911197051458
 20
52.16656199741027
 30
0.0
 40
3.0
 41
3.25
 46
0.0
 71
     4
 72
     5
  1
{\fHelveticaNeueLTPro|b0|i0|c1|p15;n}
 73
     2
 44
1.0
  0
MTEXT
  5
10112C5
330
1F
100
AcDbEntity
  8
Text
  6
Continuous
 62
     0
100
AcDbMText
 10
45.9424453038479
 20
52.16656199741027
 30
0.0
 40
3.0
 41
3.25
 46
0.0
 71
     4
 72
     5
  1
{\fHelveticaNeueLTPro|b0|i0|c1|p15;u}
 73
     2
 44
1.0
  0
MTEXT
  5
10112C6
330
1F
100
AcDbEntity
  8
Text
  6
Continuous
 62
     0
100
AcDbMText
 10
47.77577863718124
 20
52.16656199741027
 30
0.0
 40
3.0
 41
3.25
 46
0.0
 71
     4
 72
     5
  1
{\fHelveticaNeueLTPro|b0|i0|c1|p15;n}
 73
     2
 44
1.0
  0
MTEXT
  5
10112C7
330
1F
100
AcDbEntity
  8
Text
  6
Continuous
 62
     0
100
AcDbMText
 10
49.69244530384791
 20
52.16656199741027
 30
0.0
 40
3.0
 41
3.25
 46
0.0
 71
     4
 72
     5
  1
{\fHelveticaNeueLTPro|b0|i0|c1|p15;g}
 73
     2
 44
1.0
  0
MTEXT
  5
10112C8
330
1F
100
AcDbEntity
  8
Text
  6
Continuous
 62
     0
100
AcDbMText
 10
51.52577863718125
 20
52.16656199741027
 30
0.0
 40
3.0
 41
3.25
 46
0.0
 71
     4
 72
     5
  1
{\fHelveticaNeueLTPro|b0|i0|c1|p15;e}
 73
     2
 44
1.0
  0
MTEXT
  5
10112C9
330
1F
100
AcDbEntity
  8
Text
  6
Continuous
 62
     0
100
AcDbMText
 10
53.35911197051458
 20
52.16656199741027
 30
0.0
 40
3.0
 41
3.25
 46
0.0
 71
     4
 72
     5
  1
{\fHelveticaNeueLTPro|b0|i0|c1|p15;n}
 73
     2
 44
1.0
  0
MTEXT
  5
10112CA
330
1F
100
AcDbEntity
  8
Text
  6
Continuous
 62
     0
100
AcDbMText
 10
56.10911197051458
 20
52.16656199741027
 30
0.0
 40
3.0
 41
3.25
 46
0.0
 71
     4
 72
     5
  1
{\fHelveticaNeueLTPro|b0|i0|c1|p15;h}
 73
     2
 44
1.0
  0
MTEXT
  5
10112CB
330
1F
100
AcDbEntity
  8
Text
  6
Continuous
 62
     0
100
AcDbMText
 10
57.94244530384791
 20
52.16656199741027
 30
0.0
 40
3.0
 41
3.25
 46
0.0
 71
     4
 72
     5
  1
{\fHelveticaNeueLTPro|b0|i0|c1|p15;a}
 73
     2
 44
1.0
  0
MTEXT
  5
10112CC
330
1F
100
AcDbEntity
  8
Text
  6
Continuous
 62
     0
100
AcDbMText
 10
59.77577863718124
 20
52.16656199741027
 30
0.0
 40
3.0
 41
3.25
 46
0.0
 71
     4
 72
     5
  1
{\fHelveticaNeueLTPro|b0|i0|c1|p15;b}
 73
     2
 44
1.0
  0
MTEXT
  5
10112CD
330
1F
100
AcDbEntity
  8
Text
  6
Continuous
 62
     0
100
AcDbMText
 10
61.69244530384791
 20
52.16656199741027
 30
0.0
 40
3.0
 41
3.25
 46
0.0
 71
     4
 72
     5
  1
{\fHelveticaNeueLTPro|b0|i0|c1|p15;e}
 73
     2
 44
1.0
  0
MTEXT
  5
10112CE
330
1F
100
AcDbEntity
  8
Text
  6
Continuous
 62
     0
100
AcDbMText
 10
63.52577863718124
 20
52.16656199741027
 30
0.0
 40
3.0
 41
3.25
 46
0.0
 71
     4
 72
     5
  1
{\fHelveticaNeueLTPro|b0|i0|c1|p15;n}
 73
     2
 44
1.0
  0
MTEXT
  5
10112CF
330
1F
100
AcDbEntity
  8
Text
  6
Continuous
 62
     0
100
AcDbMText
 10
66.27577863718125
 20
52.16656199741027
 30
0.0
 40
3.0
 41
3.25
 46
0.0
 71
     4
 72
     5
  1
{\fHelveticaNeueLTPro|b0|i0|c1|p15;n}
 73
     2
 44
1.0
  0
MTEXT
  5
10112D0
330
1F
100
AcDbEntity
  8
Text
  6
Continuous
 62
     0
100
AcDbMText
 10
68.10911197051457
 20
52.16656199741027
 30
0.0
 40
3.0
 41
3.25
 46
0.0
 71
     4
 72
     5
  1
{\fHelveticaNeueLTPro|b0|i0|c1|p15;u}
 73
     2
 44
1.0
  0
MTEXT
  5
10112D1
330
1F
100
AcDbEntity
  8
Text
  6
Continuous
 62
     0
100
AcDbMText
 10
69.94244530384792
 20
52.16656199741027
 30
0.0
 40
3.0
 41
3.25
 46
0.0
 71
     4
 72
     5
  1
{\fHelveticaNeueLTPro|b0|i0|c1|p15;r}
 73
     2
 44
1.0
  0
MTEXT
  5
10112D2
330
1F
100
AcDbEntity
  8
Text
  6
Continuous
 62
     0
100
AcDbMText
 10
72.02577863718125
 20
52.16656199741027
 30
0.0
 40
3.0
 41
3.25
 46
0.0
 71
     4
 72
     5
  1
{\fHelveticaNeueLTPro|b0|i0|c1|p15;e}
 73
     2
 44
1.0
  0
MTEXT
  5
10112D3
330
1F
100
AcDbEntity
  8
Text
  6
Continuous
 62
     0
100
AcDbMText
 10
73.85911197051457
 20
52.16656199741027
 30
0.0
 40
3.0
 41
3.25
 46
0.0
 71
     4
 72
     5
  1
{\fHelveticaNeueLTPro|b0|i0|c1|p15;m}
 73
     2
 44
1.0
  0
MTEXT
  5
10112D4
330
1F
100
AcDbEntity
  8
Text
  6
Continuous
 62
     0
100
AcDbMText
 10
76.60911197051458
 20
52.16656199741027
 30
0.0
 40
3.0
 41
3.25
 46
0.0
 71
     4
 72
     5
  1
{\fHelveticaNeueLTPro|b0|i0|c1|p15;p}
 73
     2
 44
1.0
  0
MTEXT
  5
10112D5
330
1F
100
AcDbEntity
  8
Text
  6
Continuous
 62
     0
100
AcDbMText
 10
78.60911197051457
 20
52.16656199741027
 30
0.0
 40
3.0
 41
3.25
 46
0.0
 71
     4
 72
     5
  1
{\fHelveticaNeueLTPro|b0|i0|c1|p15;f}
 73
     2
 44
1.0
  0
MTEXT
  5
10112D6
330
1F
100
AcDbEntity
  8
Text
  6
Continuous
 62
     0
100
AcDbMText
 10
79.60911197051458
 20
52.16656199741027
 30
0.0
 40
3.0
 41
3.25
 46
0.0
 71
     4
 72
     5
  1
{\fHelveticaNeueLTPro|b0|i0|c1|p15;e}
 73
     2
 44
1.0
  0
MTEXT
  5
10112D7
330
1F
100
AcDbEntity
  8
Text
  6
Continuous
 62
     0
100
AcDbMText
 10
81.35911197051457
 20
52.16656199741027
 30
0.0
 40
3.0
 41
3.25
 46
0.0
 71
     4
 72
     5
  1
{\fHelveticaNeueLTPro|b0|i0|c1|p15;h}
 73
     2
 44
1.0
  0
MTEXT
  5
10112D8
330
1F
100
AcDbEntity
  8
Text
  6
Continuous
 62
     0
100
AcDbMText
 10
83.27577863718124
 20
52.16656199741027
 30
0.0
 40
3.0
 41
3.25
 46
0.0
 71
     4
 72
     5
  1
{\fHelveticaNeueLTPro|b0|i0|c1|p15;l}
 73
     2
 44
1.0
  0
MTEXT
  5
10112D9
330
1F
100
AcDbEntity
  8
Text
  6
Continuous
 62
     0
100
AcDbMText
 10
84.02577863718125
 20
52.16656199741027
 30
0.0
 40
3.0
 41
3.25
 46
0.0
 71
     4
 72
     5
  1
{\fHelveticaNeueLTPro|b0|i0|c1|p15;e}
 73
     2
 44
1.0
  0
MTEXT
  5
10112DA
330
1F
100
AcDbEntity
  8
Text
  6
Continuous
 62
     0
100
AcDbMText
 10
85.77577863718124
 20
52.16656199741027
 30
0.0
 40
3.0
 41
3.25
 46
0.0
 71
     4
 72
     5
  1
{\fHelveticaNeueLTPro|b0|i0|c1|p15;n}
 73
     2
 44
1.0
  0
MTEXT
  5
10112DB
330
1F
100
AcDbEntity
  8
Text
  6
Continuous
 62
     0
100
AcDbMText
 10
87.60911197051457
 20
52.16656199741027
 30
0.0
 40
3.0
 41
3.25
 46
0.0
 71
     4
 72
     5
  1
{\fHelveticaNeueLTPro|b0|i0|c1|p15;d}
 73
     2
 44
1.0
  0
MTEXT
  5
10112DC
330
1F
100
AcDbEntity
  8
Text
  6
Continuous
 62
     0
100
AcDbMText
 10
89.60911197051457
 20
52.16656199741027
 30
0.0
 40
3.0
 41
3.25
 46
0.0
 71
     4
 72
     5
  1
{\fHelveticaNeueLTPro|b0|i0|c1|p15;e}
 73
     2
 44
1.0
  0
MTEXT
  5
10112DD
330
1F
100
AcDbEntity
  8
Text
  6
Continuous
 62
     0
100
AcDbMText
 10
91.35911197051457
 20
52.16656199741027
 30
0.0
 40
3.0
 41
3.25
 46
0.0
 71
     4
 72
     5
  1
{\fHelveticaNeueLTPro|b0|i0|c1|p15;n}
 73
     2
 44
1.0
  0
MTEXT
  5
10112DE
330
1F
100
AcDbEntity
  8
Text
  6
Continuous
 62
     0
100
AcDbMText
 10
94.19244530384792
 20
52.16656199741027
 30
0.0
 40
3.0
 41
3.25
 46
0.0
 71
     4
 72
     5
  1
{\fHelveticaNeueLTPro|b0|i0|c1|p15;C}
 73
     2
 44
1.0
  0
MTEXT
  5
10112DF
330
1F
100
AcDbEntity
  8
Text
  6
Continuous
 62
     0
100
AcDbMText
 10
96.52577863718125
 20
52.16656199741027
 30
0.0
 40
3.0
 41
3.25
 46
0.0
 71
     4
 72
     5
  1
{\fHelveticaNeueLTPro|b0|i0|c1|p15;h}
 73
     2
 44
1.0
  0
MTEXT
  5
10112E0
330
1F
100
AcDbEntity
  8
Text
  6
Continuous
 62
     0
100
AcDbMText
 10
98.35911197051458
 20
52.16656199741027
 30
0.0
 40
3.0
 41
3.25
 46
0.0
 71
     4
 72
     5
  1
{\fHelveticaNeueLTPro|b0|i0|c1|p15;a}
 73
     2
 44
1.0
  0
MTEXT
  5
10112E1
330
1F
100
AcDbEntity
  8
Text
  6
Continuous
 62
     0
100
AcDbMText
 10
100.1924453038479
 20
52.16656199741027
 30
0.0
 40
3.0
 41
3.25
 46
0.0
 71
     4
 72
     5
  1
{\fHelveticaNeueLTPro|b0|i0|c1|p15;r}
 73
     2
 44
1.0
  0
MTEXT
  5
10112E2
330
1F
100
AcDbEntity
  8
Text
  6
Continuous
 62
     0
100
AcDbMText
 10
101.2757786371812
 20
52.16656199741027
 30
0.0
 40
3.0
 41
3.25
 46
0.0
 71
     4
 72
     5
  1
{\fHelveticaNeueLTPro|b0|i0|c1|p15;a}
 73
     2
 44
1.0
  0
MTEXT
  5
10112E3
330
1F
100
AcDbEntity
  8
Text
  6
Continuous
 62
     0
100
AcDbMText
 10
103.1091119705145
 20
52.16656199741027
 30
0.0
 40
3.0
 41
3.25
 46
0.0
 71
     4
 72
     5
  1
{\fHelveticaNeueLTPro|b0|i0|c1|p15;k}
 73
     2
 44
1.0
  0
MTEXT
  5
10112E4
330
1F
100
AcDbEntity
  8
Text
  6
Continuous
 62
     0
100
AcDbMText
 10
104.7757786371812
 20
52.16656199741027
 30
0.0
 40
3.0
 41
3.25
 46
0.0
 71
     4
 72
     5
  1
{\fHelveticaNeueLTPro|b0|i0|c1|p15;t}
 73
     2
 44
1.0
  0
MTEXT
  5
10112E5
330
1F
100
AcDbEntity
  8
Text
  6
Continuous
 62
     0
100
AcDbMText
 10
105.8591119705146
 20
52.16656199741027
 30
0.0
 40
3.0
 41
3.25
 46
0.0
 71
     4
 72
     5
  1
{\fHelveticaNeueLTPro|b0|i0|c1|p15;e}
 73
     2
 44
1.0
  0
MTEXT
  5
10112E6
330
1F
100
AcDbEntity
  8
Text
  6
Continuous
 62
     0
100
AcDbMText
 10
107.6091119705145
 20
52.16656199741027
 30
0.0
 40
3.0
 41
3.25
 46
0.0
 71
     4
 72
     5
  1
{\fHelveticaNeueLTPro|b0|i0|c1|p15;r}
 73
     2
 44
1.0
  0
MTEXT
  5
10112E7
330
1F
100
AcDbEntity
  8
Text
  6
Continuous
 62
     0
100
AcDbMText
 10
109.6924453038479
 20
52.16656199741027
 30
0.0
 40
3.0
 41
3.25
 46
0.0
 71
     4
 72
     5
  1
{\fHelveticaNeueLTPro|b0|i0|c1|p15;u}
 73
     2
 44
1.0
  0
MTEXT
  5
10112E8
330
1F
100
AcDbEntity
  8
Text
  6
Continuous
 62
     0
100
AcDbMText
 10
111.5257786371812
 20
52.16656199741027
 30
0.0
 40
3.0
 41
3.25
 46
0.0
 71
     4
 72
     5
  1
{\fHelveticaNeueLTPro|b0|i0|c1|p15;n}
 73
     2
 44
1.0
  0
MTEXT
  5
10112E9
330
1F
100
AcDbEntity
  8
Text
  6
Continuous
 62
     0
100
AcDbMText
 10
113.3591119705146
 20
52.16656199741027
 30
0.0
 40
3.0
 41
3.25
 46
0.0
 71
     4
 72
     5
  1
{\fHelveticaNeueLTPro|b0|i0|c1|p15;d}
 73
     2
 44
1.0
  0
MTEXT
  5
10112EA
330
1F
100
AcDbEntity
  8
Text
  6
Continuous
 62
     0
100
AcDbMText
 10
116.2757786371812
 20
52.16656199741027
 30
0.0
 40
3.0
 41
3.25
 46
0.0
 71
     4
 72
     5
  1
{\fHelveticaNeueLTPro|b0|i0|c1|p15;e}
 73
     2
 44
1.0
  0
MTEXT
  5
10112EB
330
1F
100
AcDbEntity
  8
Text
  6
Continuous
 62
     0
100
AcDbMText
 10
118.1091119705145
 20
52.16656199741027
 30
0.0
 40
3.0
 41
3.25
 46
0.0
 71
     4
 72
     5
  1
{\fHelveticaNeueLTPro|b0|i0|c1|p15;r}
 73
     2
 44
1.0
  0
MTEXT
  5
10112EC
330
1F
100
AcDbEntity
  8
Text
  6
Continuous
 62
     0
100
AcDbMText
 10
119.1924453038479
 20
52.16656199741027
 30
0.0
 40
3.0
 41
3.25
 46
0.0
 71
     4
 72
     5
  1
{\fHelveticaNeueLTPro|b0|i0|c1|p15;s}
 73
     2
 44
1.0
  0
MTEXT
  5
10112ED
330
1F
100
AcDbEntity
  8
Text
  6
Continuous
 62
     0
100
AcDbMText
 10
120.8591119705145
 20
52.16656199741027
 30
0.0
 40
3.0
 41
3.25
 46
0.0
 71
     4
 72
     5
  1
{\fHelveticaNeueLTPro|b0|i0|c1|p15;e}
 73
     2
 44
1.0
  0
MTEXT
  5
10112EE
330
1F
100
AcDbEntity
  8
Text
  6
Continuous
 62
     0
100
AcDbMText
 10
122.6924453038479
 20
52.16656199741027
 30
0.0
 40
3.0
 41
3.25
 46
0.0
 71
     4
 72
     5
  1
{\fHelveticaNeueLTPro|b0|i0|c1|p15;t}
 73
     2
 44
1.0
  0
MTEXT
  5
10112EF
330
1F
100
AcDbEntity
  8
Text
  6
Continuous
 62
     0
100
AcDbMText
 10
123.6924453038479
 20
52.16656199741027
 30
0.0
 40
3.0
 41
3.25
 46
0.0
 71
     4
 72
     5
  1
{\fHelveticaNeueLTPro|b0|i0|c1|p15;z}
 73
     2
 44
1.0
  0
MTEXT
  5
10112F0
330
1F
100
AcDbEntity
  8
Text
  6
Continuous
 62
     0
100
AcDbMText
 10
125.2757786371812
 20
52.16656199741027
 30
0.0
 40
3.0
 41
3.25
 46
0.0
 71
     4
 72
     5
  1
{\fHelveticaNeueLTPro|b0|i0|c1|p15;e}
 73
     2
 44
1.0
  0
MTEXT
  5
10112F1
330
1F
100
AcDbEntity
  8
Text
  6
Continuous
 62
     0
100
AcDbMText
 10
127.1091119705145
 20
52.16656199741027
 30
0.0
 40
3.0
 41
3.25
 46
0.0
 71
     4
 72
     5
  1
{\fHelveticaNeueLTPro|b0|i0|c1|p15;n}
 73
     2
 44
1.0
  0
MTEXT
  5
10112F2
330
1F
100
AcDbEntity
  8
Text
  6
Continuous
 62
     0
100
AcDbMText
 10
129.8591119705146
 20
52.16656199741027
 30
0.0
 40
3.0
 41
3.25
 46
0.0
 71
     4
 72
     5
  1
{\fHelveticaNeueLTPro|b0|i0|c1|p15;k}
 73
     2
 44
1.0
  0
MTEXT
  5
10112F3
330
1F
100
AcDbEntity
  8
Text
  6
Continuous
 62
     0
100
AcDbMText
 10
131.6091119705146
 20
52.16656199741027
 30
0.0
 40
3.0
 41
3.25
 46
0.0
 71
     4
 72
     5
  1
{\fHelveticaNeueLTPro|b0|i0|c1|p15;e}
 73
     2
 44
1.0
  0
MTEXT
  5
10112F4
330
1F
100
AcDbEntity
  8
Text
  6
Continuous
 62
     0
100
AcDbMText
 10
133.3591119705146
 20
52.16656199741027
 30
0.0
 40
3.0
 41
3.25
 46
0.0
 71
     4
 72
     5
  1
{\fHelveticaNeueLTPro|b0|i0|c1|p15;i}
 73
     2
 44
1.0
  0
MTEXT
  5
10112F5
330
1F
100
AcDbEntity
  8
Text
  6
Continuous
 62
     0
100
AcDbMText
 10
134.1924453038479
 20
52.16656199741027
 30
0.0
 40
3.0
 41
3.25
 46
0.0
 71
     4
 72
     5
  1
{\fHelveticaNeueLTPro|b0|i0|c1|p15;n}
 73
     2
 44
1.0
  0
MTEXT
  5
10112F6
330
1F
100
AcDbEntity
  8
Text
  6
Continuous
 62
     0
100
AcDbMText
 10
136.0257786371812
 20
52.16656199741027
 30
0.0
 40
3.0
 41
3.25
 46
0.0
 71
     4
 72
     5
  1
{\fHelveticaNeueLTPro|b0|i0|c1|p15;e}
 73
     2
 44
1.0
  0
MTEXT
  5
10112F7
330
1F
100
AcDbEntity
  8
Text
  6
Continuous
 62
     0
100
AcDbMText
 10
138.6924453038479
 20
52.16656199741027
 30
0.0
 40
3.0
 41
3.25
 46
0.0
 71
     4
 72
     5
  1
{\fHelveticaNeueLTPro|b0|i0|c1|p15;F}
 73
     2
 44
1.0
  0
MTEXT
  5
10112F8
330
1F
100
AcDbEntity
  8
Text
  6
Continuous
 62
     0
100
AcDbMText
 10
140.6091119705146
 20
52.16656199741027
 30
0.0
 40
3.0
 41
3.25
 46
0.0
 71
     4
 72
     5
  1
{\fHelveticaNeueLTPro|b0|i0|c1|p15;a}
 73
     2
 44
1.0
  0
MTEXT
  5
10112F9
330
1F
100
AcDbEntity
  8
Text
  6
Continuous
 62
     0
100
AcDbMText
 10
142.4424453038479
 20
52.16656199741027
 30
0.0
 40
3.0
 41
3.25
 46
0.0
 71
     4
 72
     5
  1
{\fHelveticaNeueLTPro|b0|i0|c1|p15;c}
 73
     2
 44
1.0
  0
MTEXT
  5
10112FA
330
1F
100
AcDbEntity
  8
Text
  6
Continuous
 62
     0
100
AcDbMText
 10
144.1924453038479
 20
52.16656199741027
 30
0.0
 40
3.0
 41
3.25
 46
0.0
 71
     4
 72
     5
  1
{\fHelveticaNeueLTPro|b0|i0|c1|p15;h}
 73
     2
 44
1.0
  0
MTEXT
  5
10112FB
330
1F
100
AcDbEntity
  8
Text
  6
Continuous
 62
     0
100
AcDbMText
 10
146.0257786371812
 20
52.16656199741027
 30
0.0
 40
3.0
 41
3.25
 46
0.0
 71
     4
 72
     5
  1
{\fHelveticaNeueLTPro|b0|i0|c1|p15;p}
 73
     2
 44
1.0
  0
MTEXT
  5
10112FC
330
1F
100
AcDbEntity
  8
Text
  6
Continuous
 62
     0
100
AcDbMText
 10
148.0257786371812
 20
52.16656199741027
 30
0.0
 40
3.0
 41
3.25
 46
0.0
 71
     4
 72
     5
  1
{\fHelveticaNeueLTPro|b0|i0|c1|p15;l}
 73
     2
 44
1.0
  0
MTEXT
  5
10112FD
330
1F
100
AcDbEntity
  8
Text
  6
Continuous
 62
     0
100
AcDbMText
 10
148.7757786371812
 20
52.16656199741027
 30
0.0
 40
3.0
 41
3.25
 46
0.0
 71
     4
 72
     5
  1
{\fHelveticaNeueLTPro|b0|i0|c1|p15;a}
 73
     2
 44
1.0
  0
MTEXT
  5
10112FE
330
1F
100
AcDbEntity
  8
Text
  6
Continuous
 62
     0
100
AcDbMText
 10
150.5257786371812
 20
52.16656199741027
 30
0.0
 40
3.0
 41
3.25
 46
0.0
 71
     4
 72
     5
  1
{\fHelveticaNeueLTPro|b0|i0|c1|p15;n}
 73
     2
 44
1.0
  0
MTEXT
  5
10112FF
330
1F
100
AcDbEntity
  8
Text
  6
Continuous
 62
     0
100
AcDbMText
 10
152.3591119705146
 20
52.16656199741027
 30
0.0
 40
3.0
 41
3.25
 46
0.0
 71
     4
 72
     5
  1
{\fHelveticaNeueLTPro|b0|i0|c1|p15;u}
 73
     2
 44
1.0
  0
MTEXT
  5
1011300
330
1F
100
AcDbEntity
  8
Text
  6
Continuous
 62
     0
100
AcDbMText
 10
154.2757786371812
 20
52.16656199741027
 30
0.0
 40
3.0
 41
3.25
 46
0.0
 71
     4
 72
     5
  1
{\fHelveticaNeueLTPro|b0|i0|c1|p15;n}
 73
     2
 44
1.0
  0
MTEXT
  5
1011301
330
1F
100
AcDbEntity
  8
Text
  6
Continuous
 62
     0
100
AcDbMText
 10
156.1091119705146
 20
52.16656199741027
 30
0.0
 40
3.0
 41
3.25
 46
0.0
 71
     4
 72
     5
  1
{\fHelveticaNeueLTPro|b0|i0|c1|p15;g}
 73
     2
 44
1.0
  0
MTEXT
  5
1011302
330
1F
100
AcDbEntity
  8
Text
  6
Continuous
 62
     0
100
AcDbMText
 10
158.0257786371812
 20
52.16656199741027
 30
0.0
 40
3.0
 41
3.25
 46
0.0
 71
     4
 72
     5
  1
{\fHelveticaNeueLTPro|b0|i0|c1|p15;!}
 73
     2
 44
1.0
  0
MTEXT
  5
1011303
330
1F
100
AcDbEntity
  8
Text
  6
Continuous
 62
     7
100
AcDbMText
 10
36.52577863718125
 20
29.41656199741027
 30
0.0
 40
3.0
 41
3.25
 46
0.0
 71
     4
 72
     5
  1
{\fHelveticaNeueLTPro|b0|i0|c1|p15;w}
 73
     2
 44
1.0
  0
MTEXT
  5
1011304
330
1F
100
AcDbEntity
  8
Text
  6
Continuous
 62
     7
100
AcDbMText
 10
39.02577863718125
 20
29.41656199741027
 30
0.0
 40
3.0
 41
3.25
 46
0.0
 71
     4
 72
     5
  1
{\fHelveticaNeueLTPro|b0|i0|c1|p15;w}
 73
     2
 44
1.0
  0
MTEXT
  5
1011305
330
1F
100
AcDbEntity
  8
Text
  6
Continuous
 62
     7
100
AcDbMText
 10
41.52577863718124
 20
29.41656199741027
 30
0.0
 40
3.0
 41
3.25
 46
0.0
 71
     4
 72
     5
  1
{\fHelveticaNeueLTPro|b0|i0|c1|p15;w}
 73
     2
 44
1.0
  0
MTEXT
  5
1011306
330
1F
100
AcDbEntity
  8
Text
  6
Continuous
 62
     7
100
AcDbMText
 10
44.02577863718124
 20
29.41656199741027
 30
0.0
 40
3.0
 41
3.25
 46
0.0
 71
     4
 72
     5
  1
{\fHelveticaNeueLTPro|b0|i0|c1|p15;.}
 73
     2
 44
1.0
  0
MTEXT
  5
1011307
330
1F
100
AcDbEntity
  8
Text
  6
Continuous
 62
     7
100
AcDbMText
 10
44.94244530384791
 20
29.41656199741027
 30
0.0
 40
3.0
 41
3.25
 46
0.0
 71
     4
 72
     5
  1
{\fHelveticaNeueLTPro|b0|i0|c1|p15;s}
 73
     2
 44
1.0
  0
MTEXT
  5
1011308
330
1F
100
AcDbEntity
  8
Text
  6
Continuous
 62
     7
100
AcDbMText
 10
46.60911197051458
 20
29.41656199741027
 30
0.0
 40
3.0
 41
3.25
 46
0.0
 71
     4
 72
     5
  1
{\fHelveticaNeueLTPro|b0|i0|c1|p15;t}
 73
     2
 44
1.0
  0
MTEXT
  5
1011309
330
1F
100
AcDbEntity
  8
Text
  6
Continuous
 62
     7
100
AcDbMText
 10
47.69244530384791
 20
29.41656199741027
 30
0.0
 40
3.0
 41
3.25
 46
0.0
 71
     4
 72
     5
  1
{\fHelveticaNeueLTPro|b0|i0|c1|p15;r}
 73
     2
 44
1.0
  0
MTEXT
  5
101130A
330
1F
100
AcDbEntity
  8
Text
  6
Continuous
 62
     7
100
AcDbMText
 10
48.77577863718125
 20
29.41656199741027
 30
0.0
 40
3.0
 41
3.25
 46
0.0
 71
     4
 72
     5
  1
{\fHelveticaNeueLTPro|b0|i0|c1|p15;a}
 73
     2
 44
1.0
  0
MTEXT
  5
101130B
330
1F
100
AcDbEntity
  8
Text
  6
Continuous
 62
     7
100
AcDbMText
 10
50.60911197051458
 20
29.41656199741027
 30
0.0
 40
3.0
 41
3.25
 46
0.0
 71
     4
 72
     5
  1
{\fHelveticaNeueLTPro|b0|i0|c1|p15;s}
 73
     2
 44
1.0
  0
MTEXT
  5
101130C
330
1F
100
AcDbEntity
  8
Text
  6
Continuous
 62
     7
100
AcDbMText
 10
52.27577863718124
 20
29.41656199741027
 30
0.0
 40
3.0
 41
3.25
 46
0.0
 71
     4
 72
     5
  1
{\fHelveticaNeueLTPro|b0|i0|c1|p15;s}
 73
     2
 44
1.0
  0
MTEXT
  5
101130D
330
1F
100
AcDbEntity
  8
Text
  6
Continuous
 62
     7
100
AcDbMText
 10
53.94244530384791
 20
29.41656199741027
 30
0.0
 40
3.0
 41
3.25
 46
0.0
 71
     4
 72
     5
  1
{\fHelveticaNeueLTPro|b0|i0|c1|p15;e}
 73
     2
 44
1.0
  0
MTEXT
  5
101130E
330
1F
100
AcDbEntity
  8
Text
  6
Continuous
 62
     7
100
AcDbMText
 10
55.69244530384791
 20
29.41656199741027
 30
0.0
 40
3.0
 41
3.25
 46
0.0
 71
     4
 72
     5
  1
{\fHelveticaNeueLTPro|b0|i0|c1|p15;r}
 73
     2
 44
1.0
  0
MTEXT
  5
101130F
330
1F
100
AcDbEntity
  8
Text
  6
Continuous
 62
     7
100
AcDbMText
 10
56.77577863718124
 20
29.41656199741027
 30
0.0
 40
3.0
 41
3.25
 46
0.0
 71
     4
 72
     5
  1
{\fHelveticaNeueLTPro|b0|i0|c1|p15;-}
 73
     2
 44
1.0
  0
MTEXT
  5
1011310
330
1F
100
AcDbEntity
  8
Text
  6
Continuous
 62
     7
100
AcDbMText
 10
58.10911197051458
 20
29.41656199741027
 30
0.0
 40
3.0
 41
3.25
 46
0.0
 71
     4
 72
     5
  1
{\fHelveticaNeueLTPro|b0|i0|c1|p15;s}
 73
     2
 44
1.0
  0
MTEXT
  5
1011311
330
1F
100
AcDbEntity
  8
Text
  6
Continuous
 62
     7
100
AcDbMText
 10
59.77577863718124
 20
29.41656199741027
 30
0.0
 40
3.0
 41
3.25
 46
0.0
 71
     4
 72
     5
  1
{\fHelveticaNeueLTPro|b0|i0|c1|p15;y}
 73
     2
 44
1.0
  0
MTEXT
  5
1011312
330
1F
100
AcDbEntity
  8
Text
  6
Continuous
 62
     7
100
AcDbMText
 10
61.44244530384791
 20
29.41656199741027
 30
0.0
 40
3.0
 41
3.25
 46
0.0
 71
     4
 72
     5
  1
{\fHelveticaNeueLTPro|b0|i0|c1|p15;s}
 73
     2
 44
1.0
  0
MTEXT
  5
1011313
330
1F
100
AcDbEntity
  8
Text
  6
Continuous
 62
     7
100
AcDbMText
 10
63.10911197051458
 20
29.41656199741027
 30
0.0
 40
3.0
 41
3.25
 46
0.0
 71
     4
 72
     5
  1
{\fHelveticaNeueLTPro|b0|i0|c1|p15;t}
 73
     2
 44
1.0
  0
MTEXT
  5
1011314
330
1F
100
AcDbEntity
  8
Text
  6
Continuous
 62
     7
100
AcDbMText
 10
64.19244530384792
 20
29.41656199741027
 30
0.0
 40
3.0
 41
3.25
 46
0.0
 71
     4
 72
     5
  1
{\fHelveticaNeueLTPro|b0|i0|c1|p15;e}
 73
     2
 44
1.0
  0
MTEXT
  5
1011315
330
1F
100
AcDbEntity
  8
Text
  6
Continuous
 62
     7
100
AcDbMText
 10
65.94244530384791
 20
29.41656199741027
 30
0.0
 40
3.0
 41
3.25
 46
0.0
 71
     4
 72
     5
  1
{\fHelveticaNeueLTPro|b0|i0|c1|p15;m}
 73
     2
 44
1.0
  0
MTEXT
  5
1011316
330
1F
100
AcDbEntity
  8
Text
  6
Continuous
 62
     7
100
AcDbMText
 10
68.77577863718125
 20
29.41656199741027
 30
0.0
 40
3.0
 41
3.25
 46
0.0
 71
     4
 72
     5
  1
{\fHelveticaNeueLTPro|b0|i0|c1|p15;e}
 73
     2
 44
1.0
  0
MTEXT
  5
1011317
330
1F
100
AcDbEntity
  8
Text
  6
Continuous
 62
     7
100
AcDbMText
 10
70.52577863718124
 20
29.41656199741027
 30
0.0
 40
3.0
 41
3.25
 46
0.0
 71
     4
 72
     5
  1
{\fHelveticaNeueLTPro|b0|i0|c1|p15;.}
 73
     2
 44
1.0
  0
MTEXT
  5
1011318
330
1F
100
AcDbEntity
  8
Text
  6
Continuous
 62
     7
100
AcDbMText
 10
71.52577863718125
 20
29.41656199741027
 30
0.0
 40
3.0
 41
3.25
 46
0.0
 71
     4
 72
     5
  1
{\fHelveticaNeueLTPro|b0|i0|c1|p15;d}
 73
     2
 44
1.0
  0
MTEXT
  5
1011319
330
1F
100
AcDbEntity
  8
Text
  6
Continuous
 62
     7
100
AcDbMText
 10
73.44244530384791
 20
29.41656199741027
 30
0.0
 40
3.0
 41
3.25
 46
0.0
 71
     4
 72
     5
  1
{\fHelveticaNeueLTPro|b0|i0|c1|p15;e}
 73
     2
 44
1.0
  0
MTEXT
  5
101131A
330
1F
100
AcDbEntity
  8
Text
  6
Continuous
 62
     7
100
AcDbMText
 10
36.52577863718125
 20
25.41656199741027
 30
0.0
 40
3.0
 41
3.25
 46
0.0
 71
     4
 72
     5
  1
{\fHelveticaNeueLTPro|b0|i0|c1|p15;i}
 73
     2
 44
1.0
  0
MTEXT
  5
101131B
330
1F
100
AcDbEntity
  8
Text
  6
Continuous
 62
     7
100
AcDbMText
 10
37.27577863718125
 20
25.41656199741027
 30
0.0
 40
3.0
 41
3.25
 46
0.0
 71
     4
 72
     5
  1
{\fHelveticaNeueLTPro|b0|i0|c1|p15;n}
 73
     2
 44
1.0
  0
MTEXT
  5
101131C
330
1F
100
AcDbEntity
  8
Text
  6
Continuous
 62
     7
100
AcDbMText
 10
39.10911197051458
 20
25.41656199741027
 30
0.0
 40
3.0
 41
3.25
 46
0.0
 71
     4
 72
     5
  1
{\fHelveticaNeueLTPro|b0|i0|c1|p15;f}
 73
     2
 44
1.0
  0
MTEXT
  5
101131D
330
1F
100
AcDbEntity
  8
Text
  6
Continuous
 62
     7
100
AcDbMText
 10
40.10911197051458
 20
25.41656199741027
 30
0.0
 40
3.0
 41
3.25
 46
0.0
 71
     4
 72
     5
  1
{\fHelveticaNeueLTPro|b0|i0|c1|p15;o}
 73
     2
 44
1.0
  0
MTEXT
  5
101131E
330
1F
100
AcDbEntity
  8
Text
  6
Continuous
 62
     7
100
AcDbMText
 10
42.02577863718125
 20
25.41656199741027
 30
0.0
 40
3.0
 41
3.25
 46
0.0
 71
     4
 72
     5
  1
{\fHelveticaNeueLTPro|b0|i0|c1|p15;@}
 73
     2
 44
1.0
  0
MTEXT
  5
101131F
330
1F
100
AcDbEntity
  8
Text
  6
Continuous
 62
     7
100
AcDbMText
 10
44.6924453038479
 20
25.41656199741027
 30
0.0
 40
3.0
 41
3.25
 46
0.0
 71
     4
 72
     5
  1
{\fHelveticaNeueLTPro|b0|i0|c1|p15;s}
 73
     2
 44
1.0
  0
MTEXT
  5
1011320
330
1F
100
AcDbEntity
  8
Text
  6
Continuous
 62
     7
100
AcDbMText
 10
46.35911197051458
 20
25.41656199741027
 30
0.0
 40
3.0
 41
3.25
 46
0.0
 71
     4
 72
     5
  1
{\fHelveticaNeueLTPro|b0|i0|c1|p15;t}
 73
     2
 44
1.0
  0
MTEXT
  5
1011321
330
1F
100
AcDbEntity
  8
Text
  6
Continuous
 62
     7
100
AcDbMText
 10
47.35911197051458
 20
25.41656199741027
 30
0.0
 40
3.0
 41
3.25
 46
0.0
 71
     4
 72
     5
  1
{\fHelveticaNeueLTPro|b0|i0|c1|p15;r}
 73
     2
 44
1.0
  0
MTEXT
  5
1011322
330
1F
100
AcDbEntity
  8
Text
  6
Continuous
 62
     7
100
AcDbMText
 10
48.52577863718124
 20
25.41656199741027
 30
0.0
 40
3.0
 41
3.25
 46
0.0
 71
     4
 72
     5
  1
{\fHelveticaNeueLTPro|b0|i0|c1|p15;a}
 73
     2
 44
1.0
  0
MTEXT
  5
1011323
330
1F
100
AcDbEntity
  8
Text
  6
Continuous
 62
     7
100
AcDbMText
 10
50.27577863718125
 20
25.41656199741027
 30
0.0
 40
3.0
 41
3.25
 46
0.0
 71
     4
 72
     5
  1
{\fHelveticaNeueLTPro|b0|i0|c1|p15;s}
 73
     2
 44
1.0
  0
MTEXT
  5
1011324
330
1F
100
AcDbEntity
  8
Text
  6
Continuous
 62
     7
100
AcDbMText
 10
51.94244530384791
 20
25.41656199741027
 30
0.0
 40
3.0
 41
3.25
 46
0.0
 71
     4
 72
     5
  1
{\fHelveticaNeueLTPro|b0|i0|c1|p15;s}
 73
     2
 44
1.0
  0
MTEXT
  5
1011325
330
1F
100
AcDbEntity
  8
Text
  6
Continuous
 62
     7
100
AcDbMText
 10
53.60911197051458
 20
25.41656199741027
 30
0.0
 40
3.0
 41
3.25
 46
0.0
 71
     4
 72
     5
  1
{\fHelveticaNeueLTPro|b0|i0|c1|p15;e}
 73
     2
 44
1.0
  0
MTEXT
  5
1011326
330
1F
100
AcDbEntity
  8
Text
  6
Continuous
 62
     7
100
AcDbMText
 10
55.35911197051458
 20
25.41656199741027
 30
0.0
 40
3.0
 41
3.25
 46
0.0
 71
     4
 72
     5
  1
{\fHelveticaNeueLTPro|b0|i0|c1|p15;r}
 73
     2
 44
1.0
  0
MTEXT
  5
1011327
330
1F
100
AcDbEntity
  8
Text
  6
Continuous
 62
     7
100
AcDbMText
 10
56.52577863718125
 20
25.41656199741027
 30
0.0
 40
3.0
 41
3.25
 46
0.0
 71
     4
 72
     5
  1
{\fHelveticaNeueLTPro|b0|i0|c1|p15;-}
 73
     2
 44
1.0
  0
MTEXT
  5
1011328
330
1F
100
AcDbEntity
  8
Text
  6
Continuous
 62
     7
100
AcDbMText
 10
57.85911197051458
 20
25.41656199741027
 30
0.0
 40
3.0
 41
3.25
 46
0.0
 71
     4
 72
     5
  1
{\fHelveticaNeueLTPro|b0|i0|c1|p15;s}
 73
     2
 44
1.0
  0
MTEXT
  5
1011329
330
1F
100
AcDbEntity
  8
Text
  6
Continuous
 62
     7
100
AcDbMText
 10
59.44244530384791
 20
25.41656199741027
 30
0.0
 40
3.0
 41
3.25
 46
0.0
 71
     4
 72
     5
  1
{\fHelveticaNeueLTPro|b0|i0|c1|p15;y}
 73
     2
 44
1.0
  0
MTEXT
  5
101132A
330
1F
100
AcDbEntity
  8
Text
  6
Continuous
 62
     7
100
AcDbMText
 10
61.10911197051458
 20
25.41656199741027
 30
0.0
 40
3.0
 41
3.25
 46
0.0
 71
     4
 72
     5
  1
{\fHelveticaNeueLTPro|b0|i0|c1|p15;s}
 73
     2
 44
1.0
  0
MTEXT
  5
101132B
330
1F
100
AcDbEntity
  8
Text
  6
Continuous
 62
     7
100
AcDbMText
 10
62.77577863718125
 20
25.41656199741027
 30
0.0
 40
3.0
 41
3.25
 46
0.0
 71
     4
 72
     5
  1
{\fHelveticaNeueLTPro|b0|i0|c1|p15;t}
 73
     2
 44
1.0
  0
MTEXT
  5
101132C
330
1F
100
AcDbEntity
  8
Text
  6
Continuous
 62
     7
100
AcDbMText
 10
63.85911197051458
 20
25.41656199741027
 30
0.0
 40
3.0
 41
3.25
 46
0.0
 71
     4
 72
     5
  1
{\fHelveticaNeueLTPro|b0|i0|c1|p15;e}
 73
     2
 44
1.0
  0
MTEXT
  5
101132D
330
1F
100
AcDbEntity
  8
Text
  6
Continuous
 62
     7
100
AcDbMText
 10
65.69244530384792
 20
25.41656199741027
 30
0.0
 40
3.0
 41
3.25
 46
0.0
 71
     4
 72
     5
  1
{\fHelveticaNeueLTPro|b0|i0|c1|p15;m}
 73
     2
 44
1.0
  0
MTEXT
  5
101132E
330
1F
100
AcDbEntity
  8
Text
  6
Continuous
 62
     7
100
AcDbMText
 10
68.44244530384791
 20
25.41656199741027
 30
0.0
 40
3.0
 41
3.25
 46
0.0
 71
     4
 72
     5
  1
{\fHelveticaNeueLTPro|b0|i0|c1|p15;e}
 73
     2
 44
1.0
  0
MTEXT
  5
101132F
330
1F
100
AcDbEntity
  8
Text
  6
Continuous
 62
     7
100
AcDbMText
 10
70.27577863718125
 20
25.41656199741027
 30
0.0
 40
3.0
 41
3.25
 46
0.0
 71
     4
 72
     5
  1
{\fHelveticaNeueLTPro|b0|i0|c1|p15;.}
 73
     2
 44
1.0
  0
MTEXT
  5
1011330
330
1F
100
AcDbEntity
  8
Text
  6
Continuous
 62
     7
100
AcDbMText
 10
71.19244530384792
 20
25.41656199741027
 30
0.0
 40
3.0
 41
3.25
 46
0.0
 71
     4
 72
     5
  1
{\fHelveticaNeueLTPro|b0|i0|c1|p15;d}
 73
     2
 44
1.0
  0
MTEXT
  5
1011331
330
1F
100
AcDbEntity
  8
Text
  6
Continuous
 62
     7
100
AcDbMText
 10
73.19244530384792
 20
25.41656199741027
 30
0.0
 40
3.0
 41
3.25
 46
0.0
 71
     4
 72
     5
  1
{\fHelveticaNeueLTPro|b0|i0|c1|p15;e}
 73
     2
 44
1.0
  0
MTEXT
  5
1011332
330
1F
100
AcDbEntity
  8
Text
  6
Continuous
 62
     7
100
AcDbMText
 10
36.19244530384791
 20
36.41656199741027
 30
0.0
 40
3.75
 41
4.0
 46
0.0
 71
     4
 72
     5
  1
{\fHelveticaNeueLTPro|b0|i0|c1|p15;S}
 73
     2
 44
1.0
  0
MTEXT
  5
1011333
330
1F
100
AcDbEntity
  8
Text
  6
Continuous
 62
     7
100
AcDbMText
 10
38.85911197051458
 20
36.41656199741027
 30
0.0
 40
3.75
 41
4.0
 46
0.0
 71
     4
 72
     5
  1
{\fHelveticaNeueLTPro|b0|i0|c1|p15;e}
 73
     2
 44
1.0
  0
MTEXT
  5
1011334
330
1F
100
AcDbEntity
  8
Text
  6
Continuous
 62
     7
100
AcDbMText
 10
41.19244530384791
 20
36.41656199741027
 30
0.0
 40
3.75
 41
4.0
 46
0.0
 71
     4
 72
     5
  1
{\fHelveticaNeueLTPro|b0|i0|c1|p15;r}
 73
     2
 44
1.0
  0
MTEXT
  5
1011335
330
1F
100
AcDbEntity
  8
Text
  6
Continuous
 62
     7
100
AcDbMText
 10
42.77577863718124
 20
36.41656199741027
 30
0.0
 40
3.75
 41
4.0
 46
0.0
 71
     4
 72
     5
  1
{\fHelveticaNeueLTPro|b0|i0|c1|p15;v}
 73
     2
 44
1.0
  0
MTEXT
  5
1011336
330
1F
100
AcDbEntity
  8
Text
  6
Continuous
 62
     7
100
AcDbMText
 10
44.94244530384791
 20
36.41656199741027
 30
0.0
 40
3.75
 41
4.0
 46
0.0
 71
     4
 72
     5
  1
{\fHelveticaNeueLTPro|b0|i0|c1|p15;i}
 73
     2
 44
1.0
  0
MTEXT
  5
1011337
330
1F
100
AcDbEntity
  8
Text
  6
Continuous
 62
     7
100
AcDbMText
 10
46.02577863718124
 20
36.41656199741027
 30
0.0
 40
3.75
 41
4.0
 46
0.0
 71
     4
 72
     5
  1
{\fHelveticaNeueLTPro|b0|i0|c1|p15;c}
 73
     2
 44
1.0
  0
MTEXT
  5
1011338
330
1F
100
AcDbEntity
  8
Text
  6
Continuous
 62
     7
100
AcDbMText
 10
48.35911197051458
 20
36.41656199741027
 30
0.0
 40
3.75
 41
4.0
 46
0.0
 71
     4
 72
     5
  1
{\fHelveticaNeueLTPro|b0|i0|c1|p15;e}
 73
     2
 44
1.0
  0
MTEXT
  5
1011339
330
1F
100
AcDbEntity
  8
Text
  6
Continuous
 62
     7
100
AcDbMText
 10
50.69244530384791
 20
36.41656199741027
 30
0.0
 40
3.75
 41
4.0
 46
0.0
 71
     4
 72
     5
  1
{\fHelveticaNeueLTPro|b0|i0|c1|p15;-}
 73
     2
 44
1.0
  0
MTEXT
  5
101133A
330
1F
100
AcDbEntity
  8
Text
  6
Continuous
 62
     7
100
AcDbMText
 10
52.35911197051458
 20
36.41656199741027
 30
0.0
 40
3.75
 41
4.0
 46
0.0
 71
     4
 72
     5
  1
{\fHelveticaNeueLTPro|b0|i0|c1|p15;H}
 73
     2
 44
1.0
  0
MTEXT
  5
101133B
330
1F
100
AcDbEntity
  8
Text
  6
Continuous
 62
     7
100
AcDbMText
 10
55.35911197051458
 20
36.41656199741027
 30
0.0
 40
3.75
 41
4.0
 46
0.0
 71
     4
 72
     5
  1
{\fHelveticaNeueLTPro|b0|i0|c1|p15;o}
 73
     2
 44
1.0
  0
MTEXT
  5
101133C
330
1F
100
AcDbEntity
  8
Text
  6
Continuous
 62
     7
100
AcDbMText
 10
57.85911197051458
 20
36.41656199741027
 30
0.0
 40
3.75
 41
4.0
 46
0.0
 71
     4
 72
     5
  1
{\fHelveticaNeueLTPro|b0|i0|c1|p15;t}
 73
     2
 44
1.0
  0
MTEXT
  5
101133D
330
1F
100
AcDbEntity
  8
Text
  6
Continuous
 62
     7
100
AcDbMText
 10
59.27577863718124
 20
36.41656199741027
 30
0.0
 40
3.75
 41
4.0
 46
0.0
 71
     4
 72
     5
  1
{\fHelveticaNeueLTPro|b0|i0|c1|p15;l}
 73
     2
 44
1.0
  0
MTEXT
  5
101133E
330
1F
100
AcDbEntity
  8
Text
  6
Continuous
 62
     7
100
AcDbMText
 10
60.35911197051458
 20
36.41656199741027
 30
0.0
 40
3.75
 41
4.0
 46
0.0
 71
     4
 72
     5
  1
{\fHelveticaNeueLTPro|b0|i0|c1|p15;i}
 73
     2
 44
1.0
  0
MTEXT
  5
101133F
330
1F
100
AcDbEntity
  8
Text
  6
Continuous
 62
     7
100
AcDbMText
 10
61.44244530384791
 20
36.41656199741027
 30
0.0
 40
3.75
 41
4.0
 46
0.0
 71
     4
 72
     5
  1
{\fHelveticaNeueLTPro|b0|i0|c1|p15;n}
 73
     2
 44
1.0
  0
MTEXT
  5
1011340
330
1F
100
AcDbEntity
  8
Text
  6
Continuous
 62
     7
100
AcDbMText
 10
63.85911197051458
 20
36.41656199741027
 30
0.0
 40
3.75
 41
4.0
 46
0.0
 71
     4
 72
     5
  1
{\fHelveticaNeueLTPro|b0|i0|c1|p15;e}
 73
     2
 44
1.0
  0
MTEXT
  5
1011341
330
1F
100
AcDbEntity
  8
Text
  6
Continuous
 62
     7
100
AcDbMText
 10
67.35911197051457
 20
36.41656199741027
 30
0.0
 40
3.75
 41
4.0
 46
0.0
 71
     4
 72
     5
  1
{\fHelveticaNeueLTPro|b0|i0|c1|p15;+}
 73
     2
 44
1.0
  0
MTEXT
  5
1011342
330
1F
100
AcDbEntity
  8
Text
  6
Continuous
 62
     7
100
AcDbMText
 10
69.85911197051457
 20
36.41656199741027
 30
0.0
 40
3.75
 41
4.0
 46
0.0
 71
     4
 72
     5
  1
{\fHelveticaNeueLTPro|b0|i0|c1|p15;4}
 73
     2
 44
1.0
  0
MTEXT
  5
1011343
330
1F
100
AcDbEntity
  8
Text
  6
Continuous
 62
     7
100
AcDbMText
 10
72.10911197051458
 20
36.41656199741027
 30
0.0
 40
3.75
 41
4.0
 46
0.0
 71
     4
 72
     5
  1
{\fHelveticaNeueLTPro|b0|i0|c1|p15;9}
 73
     2
 44
1.0
  0
MTEXT
  5
1011344
330
1F
100
AcDbEntity
  8
Text
  6
Continuous
 62
     7
100
AcDbMText
 10
75.52577863718124
 20
36.41656199741027
 30
0.0
 40
3.75
 41
4.0
 46
0.0
 71
     4
 72
     5
  1
{\fHelveticaNeueLTPro|b0|i0|c1|p15;5}
 73
     2
 44
1.0
  0
MTEXT
  5
1011345
330
1F
100
AcDbEntity
  8
Text
  6
Continuous
 62
     7
100
AcDbMText
 10
77.77577863718125
 20
36.41656199741027
 30
0.0
 40
3.75
 41
4.0
 46
0.0
 71
     4
 72
     5
  1
{\fHelveticaNeueLTPro|b0|i0|c1|p15;4}
 73
     2
 44
1.0
  0
MTEXT
  5
1011346
330
1F
100
AcDbEntity
  8
Text
  6
Continuous
 62
     7
100
AcDbMText
 10
80.10911197051457
 20
36.41656199741027
 30
0.0
 40
3.75
 41
4.0
 46
0.0
 71
     4
 72
     5
  1
{\fHelveticaNeueLTPro|b0|i0|c1|p15;1}
 73
     2
 44
1.0
  0
MTEXT
  5
1011347
330
1F
100
AcDbEntity
  8
Text
  6
Continuous
 62
     7
100
AcDbMText
 10
83.52577863718124
 20
36.41656199741027
 30
0.0
 40
3.75
 41
4.0
 46
0.0
 71
     4
 72
     5
  1
{\fHelveticaNeueLTPro|b0|i0|c1|p15;6}
 73
     2
 44
1.0
  0
MTEXT
  5
1011348
330
1F
100
AcDbEntity
  8
Text
  6
Continuous
 62
     7
100
AcDbMText
 10
85.77577863718124
 20
36.41656199741027
 30
0.0
 40
3.75
 41
4.0
 46
0.0
 71
     4
 72
     5
  1
{\fHelveticaNeueLTPro|b0|i0|c1|p15;0}
 73
     2
 44
1.0
  0
MTEXT
  5
1011349
330
1F
100
AcDbEntity
  8
Text
  6
Continuous
 62
     7
100
AcDbMText
 10
88.02577863718125
 20
36.41656199741027
 30
0.0
 40
3.75
 41
4.0
 46
0.0
 71
     4
 72
     5
  1
{\fHelveticaNeueLTPro|b0|i0|c1|p15;1}
 73
     2
 44
1.0
  0
MTEXT
  5
101134A
330
1F
100
AcDbEntity
  8
Text
  6
Continuous
 62
     7
100
AcDbMText
 10
90.27577863718125
 20
36.41656199741027
 30
0.0
 40
3.75
 41
4.0
 46
0.0
 71
     4
 72
     5
  1
{\fHelveticaNeueLTPro|b0|i0|c1|p15;-}
 73
     2
 44
1.0
  0
MTEXT
  5
101134B
330
1F
100
AcDbEntity
  8
Text
  6
Continuous
 62
     7
100
AcDbMText
 10
91.94244530384791
 20
36.41656199741027
 30
0.0
 40
3.75
 41
4.0
 46
0.0
 71
     4
 72
     5
  1
{\fHelveticaNeueLTPro|b0|i0|c1|p15;2}
 73
     2
 44
1.0
  0
MTEXT
  5
101134C
330
1F
100
AcDbEntity
  8
Text
  6
Continuous
 62
     7
100
AcDbMText
 10
94.27577863718125
 20
36.41656199741027
 30
0.0
 40
3.75
 41
4.0
 46
0.0
 71
     4
 72
     5
  1
{\fHelveticaNeueLTPro|b0|i0|c1|p15;3}
 73
     2
 44
1.0
  0
MTEXT
  5
101134D
330
1F
100
AcDbEntity
  8
Text
  6
Continuous
 62
     7
100
AcDbMText
 10
96.52577863718125
 20
36.41656199741027
 30
0.0
 40
3.75
 41
4.0
 46
0.0
 71
     4
 72
     5
  1
{\fHelveticaNeueLTPro|b0|i0|c1|p15;5}
 73
     2
 44
1.0
  0
LWPOLYLINE
  5
101134E
330
1F
100
AcDbEntity
  8
P
  6
Continuous
 62
     0
100
AcDbPolyline
 90
        2
 70
     0
 43
0.0
 10
28.35911197051458
 20
43.41656199741026
 10
280.6091119705146
 20
43.41656199741026
  0
LWPOLYLINE
  5
101134F
330
1F
100
AcDbEntity
  8
P
  6
Continuous
 62
     0
100
AcDbPolyline
 90
        2
 70
     0
 43
0.0
 10
102.5257786371812
 20
380.3332286640769
 10
243.7757786371812
 20
380.3332286640769
  0
MTEXT
  5
1011350
330
1F
100
AcDbEntity
  8
Text
  6
Continuous
 62
     0
100
AcDbMText
 10
102.3591119705145
 20
394.4165619974103
 30
0.0
 40
3.75
 41
32.0
 46
0.0
 71
     4
 72
     5
  1
{\fHelveticaNeueLTPro|b0|i0|c1|p15;Variante}
 73
     2
 44
1.0
  0
MTEXT
  5
1011351
330
1F
100
AcDbEntity
  8
Text
  6
Continuous
 62
     0
100
AcDbMText
 10
102.3591119705145
 20
389.1665619974103
 30
0.0
 40
3.75
 41
24.0
 46
0.0
 71
     4
 72
     5
  1
{\fHelveticaNeueLTPro|b0|i0|c1|p15;Fliese}
 73
     2
 44
1.0
  0
LWPOLYLINE
  5
1011352
330
1F
100
AcDbEntity
  8
P
  6
Continuous
 62
     0
100
AcDbPolyline
 90
        2
 70
     0
 43
0.0
 10
245.5257786371813
 20
380.3332286640769
 10
280.692445303848
 20
380.3332286640769
  0
MTEXT
  5
1011353
330
1F
100
AcDbEntity
  8
Text
  6
Continuous
 62
     0
100
AcDbMText
 10
245.5257786371813
 20
389.1665619974103
 30
0.0
 40
3.75
 41
56.0
 46
0.0
 71
     4
 72
     5
  1
{\fHelveticaNeueLTPro|b0|i0|c1|p15;Stand 12.2018 }
 73
     2
 44
1.0
  0
LWPOLYLINE
  5
1011354
330
1F
100
AcDbEntity
  8
P
  6
Continuous
 62
     0
100
AcDbPolyline
 90
        2
 70
     0
 43
0.0
 10
28.35911197051458
 20
380.3332286640769
 10
100.4424453038479
 20
380.3332286640769
  0
MTEXT
  5
1011355
330
1F
100
AcDbEntity
  8
Text
  6
Continuous
 62
     0
100
AcDbMText
 10
28.19244530384791
 20
394.4165619974103
 30
0.0
 40
3.75
 41
40.0
 46
0.0
 71
     4
 72
     5
  1
{\fHelveticaNeueLTPro|b0|i0|c1|p15;System 3  }
 73
     2
 44
1.0
  0
MTEXT
  5
1011356
330
1F
100
AcDbEntity
  8
Text
  6
Continuous
 62
     0
100
AcDbMText
 10
28.19244530384791
 20
389.1665619974103
 30
0.0
 40
3.75
 41
76.0
 46
0.0
 71
     4
 72
     5
  1
{\fHelveticaNeueLTPro|b0|i0|c1|p15;Balkon und Terrasse}
 73
     2
 44
1.0
  0
MTEXT
  5
1011357
330
1F
100
AcDbEntity
  8
Text
  6
Continuous
 62
     0
100
AcDbMText
 10
37.10911197051458
 20
157.5832286640769
 30
0.0
 40
3.75
 41
156.0
 46
0.0
 71
     4
 72
     5
  1
{\fHelveticaNeueLTPro|b0|i0|c0|p15;Alter Fliesenbelag (fest und tragfähig)}
 73
     2
 44
1.0
  0
MTEXT
  5
1011358
330
1F
100
AcDbEntity
  8
Text
  6
Continuous
 62
     0
100
AcDbMText
 10
37.10911197051458
 20
147.0832286640769
 30
0.0
 40
3.75
 41
72.0
 46
0.0
 71
     4
 72
     5
  1
{\fHelveticaNeueLTPro|b0|i0|c1|p15;Grundierung Kleber}
 73
     2
 44
1.0
  0
MTEXT
  5
1011359
330
1F
100
AcDbEntity
  8
Text
  6
Continuous
 62
     0
100
AcDbMText
 10
37.10911197051458
 20
141.8332286640769
 30
0.0
 40
3.0
 41
87.75
 46
0.0
 71
     4
 72
     5
  1
{\fHelveticaNeueLTPro|b0|i0|c1|p15;nach technischem Datenblatt}
 73
     2
 44
1.0
  0
MTEXT
  5
101135A
330
1F
100
AcDbEntity
  8
Text
  6
Continuous
 62
     0
100
AcDbMText
 10
37.10911197051458
 20
107.7498953307436
 30
0.0
 40
3.75
 41
56.0
 46
0.0
 71
     4
 72
     5
  1
{\fHelveticaNeueLTPro|b0|i0|c1|p15;Fliesenkleber }
 73
     2
 44
1.0
  0
MTEXT
  5
101135B
330
1F
100
AcDbEntity
  8
Text
  6
Continuous
 62
     0
100
AcDbMText
 10
37.10911197051458
 20
102.4998953307436
 30
0.0
 40
3.0
 41
162.5
 46
0.0
 71
     4
 72
     5
  1
{\fHelveticaNeueLTPro|b0|i0|c0|p15;z.B. FLEX FK-W Flexkleber wasserundurchlässig oder}
 73
     2
 44
1.0
  0
MTEXT
  5
101135C
330
1F
100
AcDbEntity
  8
Text
  6
Continuous
 62
     0
100
AcDbMText
 10
37.10911197051458
 20
98.58322866407689
 30
0.0
 40
3.0
 41
133.25
 46
0.0
 71
     4
 72
     5
  1
{\fHelveticaNeueLTPro|b0|i0|c1|p15;FLEX FKU Flexkleber Kleber Universal oder}
 73
     2
 44
1.0
  0
MTEXT
  5
101135D
330
1F
100
AcDbEntity
  8
Text
  6
Continuous
 62
     0
100
AcDbMText
 10
37.10911197051458
 20
94.66656199741027
 30
0.0
 40
3.0
 41
87.75
 46
0.0
 71
     4
 72
     5
  1
{\fHelveticaNeueLTPro|b0|i0|c1|p15;FLEX FKC Flexkleber Classic}
 73
     2
 44
1.0
  0
MTEXT
  5
101135E
330
1F
100
AcDbEntity
  8
Text
  6
Continuous
 62
     0
100
AcDbMText
 10
37.10911197051458
 20
85.49989533074358
 30
0.0
 40
3.75
 41
44.0
 46
0.0
 71
     4
 72
     5
  1
{\fHelveticaNeueLTPro|b0|i0|c1|p15;Abdichtung }
 73
     2
 44
1.0
  0
MTEXT
  5
101135F
330
1F
100
AcDbEntity
  8
Text
  6
Continuous
 62
     0
100
AcDbMText
 10
37.10911197051458
 20
80.24989533074359
 30
0.0
 40
3.0
 41
113.75
 46
0.0
 71
     4
 72
     5
  1
{\fHelveticaNeueLTPro|b0|i0|c1|p15;DICHT VAB Verbundabdichtungsbahn - }
 73
     2
 44
1.0
  0
MTEXT
  5
1011360
330
1F
100
AcDbEntity
  8
Text
  6
Continuous
 62
     0
100
AcDbMText
 10
37.10911197051458
 20
75.74989533074358
 30
0.0
 40
3.0
 41
149.5
 46
0.0
 71
     4
 72
     5
  1
{\fHelveticaNeueLTPro|b0|i0|c0|p15;Stöße verklebt z.B. mit DICHT FDS 1K Flexible}
 73
     2
 44
1.0
  0
MTEXT
  5
1011361
330
1F
100
AcDbEntity
  8
Text
  6
Continuous
 62
     0
100
AcDbMText
 10
37.10911197051458
 20
71.24989533074359
 30
0.0
 40
3.0
 41
45.49999999999999
 46
0.0
 71
     4
 72
     5
  1
{\fHelveticaNeueLTPro|b0|i0|c0|p15;Dichtschlämme }
 73
     2
 44
1.0
  0
MTEXT
  5
1011362
330
1F
100
AcDbEntity
  8
Text
  6
Continuous
 62
     0
100
AcDbMText
 10
131.6091119705146
 20
157.2498953307436
 30
0.0
 40
3.75
 41
28.0
 46
0.0
 71
     4
 72
     5
  1
{\fHelveticaNeueLTPro|b0|i0|c1|p15;Kleber }
 73
     2
 44
1.0
  0
MTEXT
  5
1011363
330
1F
100
AcDbEntity
  8
Text
  6
Continuous
 62
     0
100
AcDbMText
 10
131.6091119705146
 20
151.9998953307436
 30
0.0
 40
3.0
 41
162.5
 46
0.0
 71
     4
 72
     5
  1
{\fHelveticaNeueLTPro|b0|i0|c0|p15;z.B. FLEX FK-W Flexkleber wasserundurchlässig oder}
 73
     2
 44
1.0
  0
MTEXT
  5
1011364
330
1F
100
AcDbEntity
  8
Text
  6
Continuous
 62
     0
100
AcDbMText
 10
131.6091119705146
 20
148.0832286640769
 30
0.0
 40
3.0
 41
133.25
 46
0.0
 71
     4
 72
     5
  1
{\fHelveticaNeueLTPro|b0|i0|c1|p15;FLEX FKU Flexkleber Kleber Universal oder}
 73
     2
 44
1.0
  0
MTEXT
  5
1011365
330
1F
100
AcDbEntity
  8
Text
  6
Continuous
 62
     0
100
AcDbMText
 10
131.6091119705146
 20
144.2498953307436
 30
0.0
 40
3.0
 41
87.75
 46
0.0
 71
     4
 72
     5
  1
{\fHelveticaNeueLTPro|b0|i0|c1|p15;FLEX FKC Flexkleber Classic}
 73
     2
 44
1.0
  0
MTEXT
  5
1011366
330
1F
100
AcDbEntity
  8
Text
  6
Continuous
 62
     0
100
AcDbMText
 10
131.6091119705146
 20
133.4165619974102
 30
0.0
 40
3.75
 41
64.0
 46
0.0
 71
     4
 72
     5
  1
{\fHelveticaNeueLTPro|b0|i0|c1|p15;Fliesenbelag neu}
 73
     2
 44
1.0
  0
MTEXT
  5
1011367
330
1F
100
AcDbEntity
  8
Text
  6
Continuous
 62
     7
100
AcDbMText
 10
30.10911197051458
 20
146.4165619974102
 30
0.0
 40
3.25
 41
3.5
 46
0.0
 71
     4
 72
     5
  1
{\fHelveticaNeueLTPro|b0|i0|c1|p15;2}
 73
     2
 44
1.0
  0
MTEXT
  5
1011368
330
1F
100
AcDbEntity
  8
Text
  6
Continuous
 62
     7
100
AcDbMText
 10
30.10911197051458
 20
157.6665619974102
 30
0.0
 40
3.25
 41
3.5
 46
0.0
 71
     4
 72
     5
  1
{\fHelveticaNeueLTPro|b0|i0|c1|p15;1}
 73
     2
 44
1.0
  0
MTEXT
  5
1011369
330
1F
100
AcDbEntity
  8
Text
  6
Continuous
 62
     7
100
AcDbMText
 10
30.10911197051458
 20
107.8332286640769
 30
0.0
 40
3.25
 41
3.5
 46
0.0
 71
     4
 72
     5
  1
{\fHelveticaNeueLTPro|b0|i0|c1|p15;4}
 73
     2
 44
1.0
  0
MTEXT
  5
101136A
330
1F
100
AcDbEntity
  8
Text
  6
Continuous
 62
     7
100
AcDbMText
 10
30.10911197051458
 20
85.41656199741026
 30
0.0
 40
3.25
 41
3.5
 46
0.0
 71
     4
 72
     5
  1
{\fHelveticaNeueLTPro|b0|i0|c1|p15;5}
 73
     2
 44
1.0
  0
MTEXT
  5
101136B
330
1F
100
AcDbEntity
  8
Text
  6
Continuous
 62
     7
100
AcDbMText
 10
124.6091119705146
 20
157.2498953307436
 30
0.0
 40
3.25
 41
3.5
 46
0.0
 71
     4
 72
     5
  1
{\fHelveticaNeueLTPro|b0|i0|c1|p15;6}
 73
     2
 44
1.0
  0
MTEXT
  5
101136C
330
1F
100
AcDbEntity
  8
Text
  6
Continuous
 62
     7
100
AcDbMText
 10
124.6091119705146
 20
133.4165619974102
 30
0.0
 40
3.25
 41
3.5
 46
0.0
 71
     4
 72
     5
  1
{\fHelveticaNeueLTPro|b0|i0|c1|p15;7}
 73
     2
 44
1.0
  0
MTEXT
  5
101136D
330
1F
100
AcDbEntity
  8
Text
  6
Continuous
 62
     0
100
AcDbMText
 10
131.6091119705146
 20
121.4998953307436
 30
0.0
 40
3.75
 41
48.0
 46
0.0
 71
     4
 72
     5
  1
{\fHelveticaNeueLTPro|b0|i0|c0|p15;Fugenmörtel}
 73
     2
 44
1.0
  0
MTEXT
  5
101136E
330
1F
100
AcDbEntity
  8
Text
  6
Continuous
 62
     0
100
AcDbMText
 10
131.6091119705146
 20
116.2498953307436
 30
0.0
 40
3.0
 41
97.5
 46
0.0
 71
     4
 72
     5
  1
{\fHelveticaNeueLTPro|b0|i0|c1|p15;z.B. FUG FF-S Flexfuge schnell}
 73
     2
 44
1.0
  0
MTEXT
  5
101136F
330
1F
100
AcDbEntity
  8
Text
  6
Continuous
 62
     0
100
AcDbMText
 10
131.6091119705146
 20
112.3332286640769
 30
0.0
 40
3.0
 41
139.75
 46
0.0
 71
     4
 72
     5
  1
{\fHelveticaNeueLTPro|b0|i0|c1|p15;(speziell bei Feinsteinzeug verwenden) oder}
 73
     2
 44
1.0
  0
MTEXT
  5
1011370
330
1F
100
AcDbEntity
  8
Text
  6
Continuous
 62
     0
100
AcDbMText
 10
131.6091119705146
 20
108.4165619974102
 30
0.0
 40
3.0
 41
78.0
 46
0.0
 71
     4
 72
     5
  1
{\fHelveticaNeueLTPro|b0|i0|c1|p15;FUG FFC Flexfuge Classic}
 73
     2
 44
1.0
  0
MTEXT
  5
1011371
330
1F
100
AcDbEntity
  8
Text
  6
Continuous
 62
     0
100
AcDbMText
 10
131.6091119705146
 20
98.58322866407689
 30
0.0
 40
3.75
 41
60.0
 46
0.0
 71
     4
 72
     5
  1
{\fHelveticaNeueLTPro|b0|i0|c1|p15;Elastische Fuge}
 73
     2
 44
1.0
  0
MTEXT
  5
1011372
330
1F
100
AcDbEntity
  8
Text
  6
Continuous
 62
     0
100
AcDbMText
 10
131.6091119705146
 20
93.33322866407689
 30
0.0
 40
3.0
 41
58.5
 46
0.0
 71
     4
 72
     5
  1
{\fHelveticaNeueLTPro|b0|i0|c1|p15;z.B. Ottoseal S100}
 73
     2
 44
1.0
  0
MTEXT
  5
1011373
330
1F
100
AcDbEntity
  8
Text
  6
Continuous
 62
     7
100
AcDbMText
 10
124.6091119705146
 20
121.3332286640769
 30
0.0
 40
3.25
 41
3.5
 46
0.0
 71
     4
 72
     5
  1
{\fHelveticaNeueLTPro|b0|i0|c1|p15;8}
 73
     2
 44
1.0
  0
MTEXT
  5
1011374
330
1F
100
AcDbEntity
  8
Text
  6
Continuous
 62
     7
100
AcDbMText
 10
124.6091119705146
 20
98.49989533074358
 30
0.0
 40
3.25
 41
3.5
 46
0.0
 71
     4
 72
     5
  1
{\fHelveticaNeueLTPro|b0|i0|c1|p15;9}
 73
     2
 44
1.0
  0
MTEXT
  5
1011375
330
1F
100
AcDbEntity
  8
Text
  6
Continuous
 62
     0
100
AcDbMText
 10
37.10911197051458
 20
131.8332286640769
 30
0.0
 40
3.75
 41
88.0
 46
0.0
 71
     4
 72
     5
  1
{\fHelveticaNeueLTPro|b0|i0|c1|p15;Grundierung auf einem }
 73
     2
 44
1.0
  0
MTEXT
  5
1011376
330
1F
100
AcDbEntity
  8
Text
  6
Continuous
 62
     0
100
AcDbMText
 10
37.10911197051458
 20
126.9998953307436
 30
0.0
 40
3.75
 41
104.0
 46
0.0
 71
     4
 72
     5
  1
{\fHelveticaNeueLTPro|b0|i0|c0|p15;Metall- und Abschlussprofil}
 73
     2
 44
1.0
  0
MTEXT
  5
1011377
330
1F
100
AcDbEntity
  8
Text
  6
Continuous
 62
     0
100
AcDbMText
 10
37.10911197051458
 20
121.0832286640769
 30
0.0
 40
3.0
 41
94.25
 46
0.0
 71
     4
 72
     5
  1
{\fHelveticaNeueLTPro|b0|i0|c1|p15;PRIM EG Epoxidgrundierung mit}
 73
     2
 44
1.0
  0
MTEXT
  5
1011378
330
1F
100
AcDbEntity
  8
Text
  6
Continuous
 62
     0
100
AcDbMText
 10
37.10911197051458
 20
117.1665619974102
 30
0.0
 40
3.0
 41
110.5
 46
0.0
 71
     4
 72
     5
  1
{\fHelveticaNeueLTPro|b0|i0|c1|p15;PLUS GQS Grober Quarzsand absanden}
 73
     2
 44
1.0
  0
MTEXT
  5
1011379
330
1F
100
AcDbEntity
  8
Text
  6
Continuous
 62
     7
100
AcDbMText
 10
30.10911197051458
 20
131.6665619974102
 30
0.0
 40
3.25
 41
3.5
 46
0.0
 71
     4
 72
     5
  1
{\fHelveticaNeueLTPro|b0|i0|c1|p15;3}
 73
     2
 44
1.0
  0
LWPOLYLINE
  5
101137A
330
1F
100
AcDbEntity
  8
P
  6
Continuous
 62
     0
100
AcDbPolyline
 90
        2
 70
     0
 43
0.0
 10
205.3591119705146
 20
235.6665619974102
 10
28.60911197051458
 20
235.6665619974102
  0
LWPOLYLINE
  5
101137B
330
1F
100
AcDbEntity
  8
P
  6
DASHED2
 62
     0
100
AcDbPolyline
 90
        2
 70
     0
 43
0.0
 10
205.5257786371813
 20
236.1665619974103
 10
28.60911197051458
 20
236.1665619974103
  0
LWPOLYLINE
  5
101137C
330
1F
100
AcDbEntity
  8
P
  6
Continuous
 62
     0
100
AcDbPolyline
 90
        2
 70
     0
 43
0.0
 10
28.60911197051458
 20
236.6665619974102
 10
206.3591119705146
 20
236.6665619974102
  0
LWPOLYLINE
  5
101137D
330
1F
100
AcDbEntity
  8
P
  6
Continuous
 62
     0
100
AcDbPolyline
 90
        2
 70
     0
 43
0.0
 10
28.60911197051458
 20
276.2498953307436
 10
216.3842878402264
 20
273.5816867926305
  0
LWPOLYLINE
  5
101137E
330
1F
100
AcDbEntity
  8
P
  6
Continuous
 62
     0
100
AcDbPolyline
 90
        2
 70
     0
 43
0.0
 10
28.60911197051458
 20
281.333228664077
 10
135.4424453038479
 20
279.7498953307436
  0
LWPOLYLINE
  5
101137F
330
1F
100
AcDbEntity
  8
P
  6
Continuous
 62
     0
100
AcDbPolyline
 90
        2
 70
     0
 43
0.0
 10
141.1091119705146
 20
279.6665619974102
 10
216.3591119705146
 20
278.5832286640769
  0
LWPOLYLINE
  5
1011380
330
1F
100
AcDbEntity
  8
P
  6
Continuous
 62
     0
100
AcDbPolyline
 90
        2
 70
     0
 43
0.0
 10
141.1091119705146
 20
279.6665619974102
 10
141.0257786371812
 20
274.5832286640769
  0
LWPOLYLINE
  5
1011381
330
1F
100
AcDbEntity
  8
P
  6
Continuous
 62
     0
100
AcDbPolyline
 90
        2
 70
     0
 43
0.0
 10
135.4424453038479
 20
279.7498953307436
 10
135.3591119705146
 20
274.6665619974102
  0
LWPOLYLINE
  5
1011382
330
1F
100
AcDbEntity
  8
P
  6
DASHDOT
 62
     0
100
AcDbPolyline
 90
        2
 70
     0
 43
0.0
 10
225.3591119705146
 20
175.9165619974102
 10
28.69244530384792
 20
175.9998953307436
  0
LWPOLYLINE
  5
1011383
330
1F
100
AcDbEntity
  8
P
  6
DASHDOT
 62
     0
100
AcDbPolyline
 90
        2
 70
     0
 43
0.0
 10
28.69244530384792
 20
175.9998953307436
 10
28.60911197051458
 20
304.6665619974103
  0
LWPOLYLINE
  5
1011384
330
1F
100
AcDbEntity
  8
P
  6
Continuous
 62
     0
100
AcDbPolyline
 90
        2
 70
     0
 43
0.0
 10
135.4424453038479
 20
279.7498953307436
 10
141.1091119705146
 20
279.6665619974102
  0
LWPOLYLINE
  5
1011385
330
1F
100
AcDbEntity
  8
P
  6
Continuous
 62
     0
100
AcDbPolyline
 90
        2
 70
     0
 43
0.0
 10
206.8591119705146
 20
233.4998953307436
 10
206.8591119705146
 20
175.9165619974102
  0
LWPOLYLINE
  5
1011386
330
1F
100
AcDbEntity
  8
P
  6
Continuous
 62
     0
100
AcDbPolyline
 90
        2
 70
     0
 43
0.0
 10
206.1091119705146
 20
234.3332286640769
 10
206.8591119705146
 20
233.4998953307436
  0
LWPOLYLINE
  5
1011387
330
1F
100
AcDbEntity
  8
P
  6
Continuous
 62
     0
100
AcDbPolyline
 90
        2
 70
     0
 43
0.0
 10
206.8591119705146
 20
237.1665619974102
 10
206.8591119705146
 20
258.9165619974102
  0
LWPOLYLINE
  5
1011388
330
1F
100
AcDbEntity
  8
P
  6
Continuous
 62
     0
100
AcDbPolyline
 90
        2
 70
     0
 43
0.0
 10
206.8591119705146
 20
258.9165619974102
 10
206.8591119705146
 20
263.8332286640769
  0
LWPOLYLINE
  5
1011389
330
1F
100
AcDbEntity
  8
P
  6
Continuous
 62
     0
100
AcDbPolyline
 90
        2
 70
     0
 43
0.0
 10
205.3591119705146
 20
235.6665619974102
 10
206.8591119705146
 20
237.1665619974102
  0
LWPOLYLINE
  5
101138A
330
1F
100
AcDbEntity
  8
P
  6
Continuous
 62
     0
100
AcDbPolyline
 90
        2
 70
     0
 43
0.0
 10
28.60911197051458
 20
271.4998953307436
 10
216.2757786371813
 20
268.833228664077
  0
LWPOLYLINE
  5
101138B
330
1F
100
AcDbEntity
  8
P
  6
Continuous
 62
     0
100
AcDbPolyline
 90
        2
 70
     0
 43
0.0
 10
28.60911197051458
 20
261.4165619974102
 10
206.8591119705146
 20
258.9165619974102
  0
LWPOLYLINE
  5
101138C
330
1F
100
AcDbEntity
  8
P
  6
Continuous
 62
     0
100
AcDbPolyline
 90
        2
 70
     0
 43
0.0
 10
28.60911197051458
 20
266.4998953307436
 10
116.7757786371812
 20
265.2498953307436
  0
LWPOLYLINE
  5
101138D
330
1F
100
AcDbEntity
  8
P
  6
Continuous
 62
     0
100
AcDbPolyline
 90
        2
 70
     0
 43
0.0
 10
122.3591119705146
 20
265.1665619974102
 10
206.8591119705146
 20
263.9165619974102
  0
LWPOLYLINE
  5
101138E
330
1F
100
AcDbEntity
  8
P
  6
Continuous
 62
     0
100
AcDbPolyline
 90
        2
 70
     0
 43
0.0
 10
122.3591119705146
 20
265.1665619974102
 10
122.2757786371812
 20
260.083228664077
  0
LWPOLYLINE
  5
101138F
330
1F
100
AcDbEntity
  8
P
  6
Continuous
 62
     0
100
AcDbPolyline
 90
        2
 70
     0
 43
0.0
 10
116.7757786371812
 20
265.2498953307436
 10
116.6924453038479
 20
260.1665619974102
  0
LWPOLYLINE
  5
1011390
330
1F
100
AcDbEntity
  8
P
  6
Continuous
 62
     0
100
AcDbPolyline
 90
        2
 70
     0
 43
0.0
 10
116.7757786371812
 20
265.2498953307436
 10
122.3591119705146
 20
265.1665619974102
  0
LWPOLYLINE
  5
1011391
330
1F
100
AcDbEntity
  8
P
  6
Continuous
 62
     0
100
AcDbPolyline
 90
        2
 70
     0
 43
0.0
 10
216.4424453038479
 20
278.5832286640769
 10
216.2757786371813
 20
264.2498953307436
  0
LWPOLYLINE
  5
1011392
330
1F
100
AcDbEntity
  8
P
  6
Continuous
 62
     0
100
AcDbPolyline
 90
        2
 70
     0
 43
0.0
 10
219.1924453038479
 20
263.4998953307436
 10
219.1924453038479
 20
278.0832286640769
  0
LWPOLYLINE
  5
1011393
330
1F
100
AcDbEntity
  8
P
  6
Continuous
 62
     0
100
AcDbPolyline
 90
        2
 70
     0
 43
0.0
 10
216.2757786371813
 20
264.1665619974102
 10
219.1924453038479
 20
263.4998953307436
  0
LWPOLYLINE
  5
1011394
330
1F
100
AcDbEntity
  8
P
  6
Continuous
 62
     0
100
AcDbPolyline
 90
        2
 70
     0
 43
0.0
 10
171.0257786371812
 20
265.0521567162785
 10
216.2757786371813
 20
264.2498953307436
  0
LWPOLYLINE
  5
1011395
330
1F
100
AcDbEntity
  8
P
  6
Continuous
 62
     0
100
AcDbPolyline
 90
        2
 70
     0
 43
0.0
 10
216.3591119705146
 20
278.5832286640769
 10
219.1924453038479
 20
278.1665619974102
  0
LWPOLYLINE
  5
1011396
330
1F
100
AcDbEntity
  8
P
  6
Continuous
 62
     0
100
AcDbPolyline
 90
        2
 70
     0
 43
0.0
 10
191.5257786371812
 20
267.4998953307436
 10
191.5257786371812
 20
251.0832286640769
  0
LWPOLYLINE
  5
1011397
330
1F
100
AcDbEntity
  8
P
  6
Continuous
 62
     0
100
AcDbPolyline
 90
        2
 70
     0
 43
0.0
 10
191.5257786371812
 20
266.0832286640769
 10
193.0257786371812
 20
267.2498953307436
  0
LWPOLYLINE
  5
1011398
330
1F
100
AcDbEntity
  8
P
  6
Continuous
 62
     0
100
AcDbPolyline
 90
        2
 70
     0
 43
0.0
 10
191.5257786371812
 20
266.0832286640769
 10
190.0257786371812
 20
267.2498953307436
  0
LWPOLYLINE
  5
1011399
330
1F
100
AcDbEntity
  8
P
  6
Continuous
 62
     0
100
AcDbPolyline
 90
        2
 70
     0
 43
0.0
 10
185.6091119705146
 20
282.1665619974102
 10
181.1924453038479
 20
283.083228664077
  0
LWPOLYLINE
  5
101139A
330
1F
100
AcDbEntity
  8
P
  6
Continuous
 62
     0
100
AcDbPolyline
 90
        2
 70
     0
 43
0.0
 10
181.1924453038479
 20
283.083228664077
 10
181.1924453038479
 20
281.4165619974102
  0
LWPOLYLINE
  5
101139B
330
1F
100
AcDbEntity
  8
P
  6
Continuous
 62
     0
100
AcDbPolyline
 90
        2
 70
     0
 43
0.0
 10
181.1924453038479
 20
281.4165619974102
 10
185.6091119705146
 20
282.1665619974102
  0
LWPOLYLINE
  5
101139C
330
1F
100
AcDbEntity
  8
P
  6
Continuous
 62
     0
100
AcDbPolyline
 90
        2
 70
     0
 43
0.0
 10
181.1924453038479
 20
282.2498953307436
 10
169.2757786371812
 20
282.5832286640769
  0
LWPOLYLINE
  5
101139D
330
1F
100
AcDbEntity
  8
P
  6
Continuous
 62
     0
100
AcDbPolyline
 90
        2
 70
     0
 43
0.0
 10
198.1091119705146
 20
236.7498953307436
 10
206.8591119705146
 20
245.6665619974102
  0
LWPOLYLINE
  5
101139E
330
1F
100
AcDbEntity
  8
P
  6
Continuous
 62
     0
100
AcDbPolyline
 90
        2
 70
     0
 43
0.0
 10
189.4424453038479
 20
236.7498953307436
 10
206.8591119705146
 20
254.2498953307436
  0
LWPOLYLINE
  5
101139F
330
1F
100
AcDbEntity
  8
P
  6
Continuous
 62
     0
100
AcDbPolyline
 90
        2
 70
     0
 43
0.0
 10
180.8591119705146
 20
236.7498953307436
 10
203.1091119705146
 20
258.9998953307436
  0
LWPOLYLINE
  5
10113A0
330
1F
100
AcDbEntity
  8
P
  6
Continuous
 62
     0
100
AcDbPolyline
 90
        2
 70
     0
 43
0.0
 10
172.1924453038479
 20
236.7498953307436
 10
194.6924453038479
 20
258.9998953307436
  0
LWPOLYLINE
  5
10113A1
330
1F
100
AcDbEntity
  8
P
  6
Continuous
 62
     0
100
AcDbPolyline
 90
        2
 70
     0
 43
0.0
 10
163.6091119705146
 20
236.7498953307436
 10
186.0257786371812
 20
259.3332286640769
  0
LWPOLYLINE
  5
10113A2
330
1F
100
AcDbEntity
  8
P
  6
Continuous
 62
     0
100
AcDbPolyline
 90
        2
 70
     0
 43
0.0
 10
154.9424453038479
 20
236.7498953307436
 10
177.5257786371812
 20
259.3332286640769
  0
LWPOLYLINE
  5
10113A3
330
1F
100
AcDbEntity
  8
P
  6
Continuous
 62
     0
100
AcDbPolyline
 90
        2
 70
     0
 43
0.0
 10
146.2757786371812
 20
236.7498953307436
 10
169.1091119705146
 20
259.3332286640769
  0
LWPOLYLINE
  5
10113A4
330
1F
100
AcDbEntity
  8
P
  6
Continuous
 62
     0
100
AcDbPolyline
 90
        2
 70
     0
 43
0.0
 10
137.6924453038479
 20
236.7498953307436
 10
160.6091119705146
 20
259.6665619974102
  0
LWPOLYLINE
  5
10113A5
330
1F
100
AcDbEntity
  8
P
  6
Continuous
 62
     0
100
AcDbPolyline
 90
        2
 70
     0
 43
0.0
 10
129.0257786371812
 20
236.7498953307436
 10
152.1091119705146
 20
259.6665619974102
  0
LWPOLYLINE
  5
10113A6
330
1F
100
AcDbEntity
  8
P
  6
Continuous
 62
     0
100
AcDbPolyline
 90
        2
 70
     0
 43
0.0
 10
120.4424453038479
 20
236.7498953307436
 10
143.6091119705146
 20
259.9165619974102
  0
LWPOLYLINE
  5
10113A7
330
1F
100
AcDbEntity
  8
P
  6
Continuous
 62
     0
100
AcDbPolyline
 90
        2
 70
     0
 43
0.0
 10
111.7757786371812
 20
236.7498953307436
 10
135.1924453038479
 20
259.9165619974102
  0
LWPOLYLINE
  5
10113A8
330
1F
100
AcDbEntity
  8
P
  6
Continuous
 62
     0
100
AcDbPolyline
 90
        2
 70
     0
 43
0.0
 10
103.3591119705145
 20
236.7498953307436
 10
126.6924453038479
 20
259.9165619974102
  0
LWPOLYLINE
  5
10113A9
330
1F
100
AcDbEntity
  8
P
  6
Continuous
 62
     0
100
AcDbPolyline
 90
        2
 70
     0
 43
0.0
 10
94.69244530384791
 20
236.7498953307436
 10
118.0257786371812
 20
260.2498953307436
  0
LWPOLYLINE
  5
10113AA
330
1F
100
AcDbEntity
  8
P
  6
Continuous
 62
     0
100
AcDbPolyline
 90
        2
 70
     0
 43
0.0
 10
86.10911197051457
 20
236.7498953307436
 10
109.6091119705145
 20
260.2498953307436
  0
LWPOLYLINE
  5
10113AB
330
1F
100
AcDbEntity
  8
P
  6
Continuous
 62
     0
100
AcDbPolyline
 90
        2
 70
     0
 43
0.0
 10
77.44244530384792
 20
236.7498953307436
 10
101.1091119705145
 20
260.4998953307436
  0
LWPOLYLINE
  5
10113AC
330
1F
100
AcDbEntity
  8
P
  6
Continuous
 62
     0
100
AcDbPolyline
 90
        2
 70
     0
 43
0.0
 10
68.77577863718125
 20
236.7498953307436
 10
92.60911197051457
 20
260.4998953307436
  0
LWPOLYLINE
  5
10113AD
330
1F
100
AcDbEntity
  8
P
  6
Continuous
 62
     0
100
AcDbPolyline
 90
        2
 70
     0
 43
0.0
 10
60.19244530384791
 20
236.7498953307436
 10
84.10911197051458
 20
260.4998953307436
  0
LWPOLYLINE
  5
10113AE
330
1F
100
AcDbEntity
  8
P
  6
Continuous
 62
     0
100
AcDbPolyline
 90
        2
 70
     0
 43
0.0
 10
51.52577863718125
 20
236.7498953307436
 10
75.69244530384792
 20
260.833228664077
  0
LWPOLYLINE
  5
10113AF
330
1F
100
AcDbEntity
  8
P
  6
Continuous
 62
     0
100
AcDbPolyline
 90
        2
 70
     0
 43
0.0
 10
42.94244530384791
 20
236.7498953307436
 10
67.19244530384791
 20
260.833228664077
  0
LWPOLYLINE
  5
10113B0
330
1F
100
AcDbEntity
  8
P
  6
Continuous
 62
     0
100
AcDbPolyline
 90
        2
 70
     0
 43
0.0
 10
34.27577863718125
 20
236.7498953307436
 10
58.69244530384791
 20
261.083228664077
  0
LWPOLYLINE
  5
10113B1
330
1F
100
AcDbEntity
  8
P
  6
Continuous
 62
     0
100
AcDbPolyline
 90
        2
 70
     0
 43
0.0
 10
28.69244530384792
 20
239.6665619974102
 10
50.19244530384791
 20
261.083228664077
  0
LWPOLYLINE
  5
10113B2
330
1F
100
AcDbEntity
  8
P
  6
Continuous
 62
     0
100
AcDbPolyline
 90
        2
 70
     0
 43
0.0
 10
28.69244530384792
 20
248.3332286640769
 10
41.60911197051458
 20
261.083228664077
  0
LWPOLYLINE
  5
10113B3
330
1F
100
AcDbEntity
  8
P
  6
Continuous
 62
     0
100
AcDbPolyline
 90
        2
 70
     0
 43
0.0
 10
28.69244530384792
 20
256.9165619974102
 10
33.10911197051459
 20
261.4165619974102
  0
LWPOLYLINE
  5
10113B4
330
1F
100
AcDbEntity
  8
P
  6
Continuous
 62
     0
100
AcDbPolyline
 90
        2
 70
     0
 43
0.0
 10
206.1091119705146
 20
234.3332286640769
 10
178.1924453038479
 20
234.3332286640769
  0
LWPOLYLINE
  5
10113B5
330
1F
100
AcDbEntity
  8
P
  6
Continuous
 62
     0
100
AcDbPolyline
 90
        2
 70
     0
 43
0.0
 10
195.8591119705146
 20
186.1665619974102
 10
204.9424453038479
 20
195.3332286640769
  0
LWPOLYLINE
  5
10113B6
330
1F
100
AcDbEntity
  8
P
  6
Continuous
 62
     0
100
AcDbPolyline
 90
        2
 70
     0
 43
0.0
 10
185.6091119705146
 20
175.9998953307436
 10
192.8591119705146
 20
183.1665619974102
  0
LWPOLYLINE
  5
10113B7
330
1F
100
AcDbEntity
  8
P
  6
Continuous
 62
     0
100
AcDbPolyline
 90
        2
 70
     0
 43
0.0
 10
195.8591119705146
 20
210.5832286640769
 10
204.9424453038479
 20
219.4998953307436
  0
LWPOLYLINE
  5
10113B8
330
1F
100
AcDbEntity
  8
P
  6
Continuous
 62
     0
100
AcDbPolyline
 90
        2
 70
     0
 43
0.0
 10
183.7757786371812
 20
198.3332286640769
 10
192.8591119705146
 20
207.2498953307436
  0
LWPOLYLINE
  5
10113B9
330
1F
100
AcDbEntity
  8
P
  6
Continuous
 62
     0
100
AcDbPolyline
 90
        2
 70
     0
 43
0.0
 10
171.7757786371812
 20
186.1665619974102
 10
180.8591119705146
 20
195.3332286640769
  0
LWPOLYLINE
  5
10113BA
330
1F
100
AcDbEntity
  8
P
  6
Continuous
 62
     0
100
AcDbPolyline
 90
        2
 70
     0
 43
0.0
 10
161.5257786371812
 20
175.9998953307436
 10
168.7757786371812
 20
183.1665619974102
  0
LWPOLYLINE
  5
10113BB
330
1F
100
AcDbEntity
  8
P
  6
Continuous
 62
     0
100
AcDbPolyline
 90
        2
 70
     0
 43
0.0
 10
183.7757786371812
 20
222.4165619974102
 10
192.8591119705146
 20
231.6665619974102
  0
LWPOLYLINE
  5
10113BC
330
1F
100
AcDbEntity
  8
P
  6
Continuous
 62
     0
100
AcDbPolyline
 90
        2
 70
     0
 43
0.0
 10
171.7757786371812
 20
210.5832286640769
 10
180.8591119705146
 20
219.4998953307436
  0
LWPOLYLINE
  5
10113BD
330
1F
100
AcDbEntity
  8
P
  6
Continuous
 62
     0
100
AcDbPolyline
 90
        2
 70
     0
 43
0.0
 10
159.6924453038479
 20
198.3332286640769
 10
168.7757786371812
 20
207.2498953307436
  0
LWPOLYLINE
  5
10113BE
330
1F
100
AcDbEntity
  8
P
  6
Continuous
 62
     0
100
AcDbPolyline
 90
        2
 70
     0
 43
0.0
 10
147.6924453038479
 20
186.1665619974102
 10
156.6924453038479
 20
195.3332286640769
  0
LWPOLYLINE
  5
10113BF
330
1F
100
AcDbEntity
  8
P
  6
Continuous
 62
     0
100
AcDbPolyline
 90
        2
 70
     0
 43
0.0
 10
137.2757786371812
 20
175.9998953307436
 10
144.6924453038479
 20
183.1665619974102
  0
LWPOLYLINE
  5
10113C0
330
1F
100
AcDbEntity
  8
P
  6
Continuous
 62
     0
100
AcDbPolyline
 90
        2
 70
     0
 43
0.0
 10
171.7757786371812
 20
234.6665619974102
 10
172.9424453038479
 20
235.4998953307436
  0
LWPOLYLINE
  5
10113C1
330
1F
100
AcDbEntity
  8
P
  6
Continuous
 62
     0
100
AcDbPolyline
 90
        2
 70
     0
 43
0.0
 10
159.6924453038479
 20
222.4165619974102
 10
168.7757786371812
 20
231.6665619974102
  0
LWPOLYLINE
  5
10113C2
330
1F
100
AcDbEntity
  8
P
  6
Continuous
 62
     0
100
AcDbPolyline
 90
        2
 70
     0
 43
0.0
 10
147.6924453038479
 20
210.5832286640769
 10
156.6924453038479
 20
219.4998953307436
  0
LWPOLYLINE
  5
10113C3
330
1F
100
AcDbEntity
  8
P
  6
Continuous
 62
     0
100
AcDbPolyline
 90
        2
 70
     0
 43
0.0
 10
135.6091119705146
 20
198.3332286640769
 10
144.6924453038479
 20
207.2498953307436
  0
LWPOLYLINE
  5
10113C4
330
1F
100
AcDbEntity
  8
P
  6
Continuous
 62
     0
100
AcDbPolyline
 90
        2
 70
     0
 43
0.0
 10
123.5257786371812
 20
186.1665619974102
 10
132.6091119705146
 20
195.3332286640769
  0
LWPOLYLINE
  5
10113C5
330
1F
100
AcDbEntity
  8
P
  6
Continuous
 62
     0
100
AcDbPolyline
 90
        2
 70
     0
 43
0.0
 10
113.1091119705146
 20
175.9998953307436
 10
120.6091119705146
 20
183.1665619974102
  0
LWPOLYLINE
  5
10113C6
330
1F
100
AcDbEntity
  8
P
  6
Continuous
 62
     0
100
AcDbPolyline
 90
        2
 70
     0
 43
0.0
 10
147.6924453038479
 20
234.6665619974102
 10
148.8591119705146
 20
235.4998953307436
  0
LWPOLYLINE
  5
10113C7
330
1F
100
AcDbEntity
  8
P
  6
Continuous
 62
     0
100
AcDbPolyline
 90
        2
 70
     0
 43
0.0
 10
135.6091119705146
 20
222.4165619974102
 10
144.6924453038479
 20
231.6665619974102
  0
LWPOLYLINE
  5
10113C8
330
1F
100
AcDbEntity
  8
P
  6
Continuous
 62
     0
100
AcDbPolyline
 90
        2
 70
     0
 43
0.0
 10
123.5257786371812
 20
210.5832286640769
 10
132.6091119705146
 20
219.4998953307436
  0
LWPOLYLINE
  5
10113C9
330
1F
100
AcDbEntity
  8
P
  6
Continuous
 62
     0
100
AcDbPolyline
 90
        2
 70
     0
 43
0.0
 10
111.5257786371812
 20
198.3332286640769
 10
120.6091119705146
 20
207.2498953307436
  0
LWPOLYLINE
  5
10113CA
330
1F
100
AcDbEntity
  8
P
  6
Continuous
 62
     0
100
AcDbPolyline
 90
        2
 70
     0
 43
0.0
 10
99.44244530384793
 20
186.1665619974102
 10
108.3591119705145
 20
195.3332286640769
  0
LWPOLYLINE
  5
10113CB
330
1F
100
AcDbEntity
  8
P
  6
Continuous
 62
     0
100
AcDbPolyline
 90
        2
 70
     0
 43
0.0
 10
89.02577863718125
 20
175.9998953307436
 10
96.35911197051457
 20
183.1665619974102
  0
LWPOLYLINE
  5
10113CC
330
1F
100
AcDbEntity
  8
P
  6
Continuous
 62
     0
100
AcDbPolyline
 90
        2
 70
     0
 43
0.0
 10
123.5257786371812
 20
234.6665619974102
 10
124.6091119705146
 20
235.4998953307436
  0
LWPOLYLINE
  5
10113CD
330
1F
100
AcDbEntity
  8
P
  6
Continuous
 62
     0
100
AcDbPolyline
 90
        2
 70
     0
 43
0.0
 10
111.5257786371812
 20
222.4165619974102
 10
120.6091119705146
 20
231.6665619974102
  0
LWPOLYLINE
  5
10113CE
330
1F
100
AcDbEntity
  8
P
  6
Continuous
 62
     0
100
AcDbPolyline
 90
        2
 70
     0
 43
0.0
 10
99.44244530384793
 20
210.5832286640769
 10
108.3591119705145
 20
219.4998953307436
  0
LWPOLYLINE
  5
10113CF
330
1F
100
AcDbEntity
  8
P
  6
Continuous
 62
     0
100
AcDbPolyline
 90
        2
 70
     0
 43
0.0
 10
87.44244530384792
 20
198.3332286640769
 10
96.35911197051457
 20
207.2498953307436
  0
LWPOLYLINE
  5
10113D0
330
1F
100
AcDbEntity
  8
P
  6
Continuous
 62
     0
100
AcDbPolyline
 90
        2
 70
     0
 43
0.0
 10
75.19244530384792
 20
186.1665619974102
 10
84.27577863718125
 20
195.3332286640769
  0
LWPOLYLINE
  5
10113D1
330
1F
100
AcDbEntity
  8
P
  6
Continuous
 62
     0
100
AcDbPolyline
 90
        2
 70
     0
 43
0.0
 10
64.94244530384792
 20
175.9998953307436
 10
72.27577863718124
 20
183.1665619974102
  0
LWPOLYLINE
  5
10113D2
330
1F
100
AcDbEntity
  8
P
  6
Continuous
 62
     0
100
AcDbPolyline
 90
        2
 70
     0
 43
0.0
 10
99.44244530384793
 20
234.6665619974102
 10
100.5257786371812
 20
235.4998953307436
  0
LWPOLYLINE
  5
10113D3
330
1F
100
AcDbEntity
  8
P
  6
Continuous
 62
     0
100
AcDbPolyline
 90
        2
 70
     0
 43
0.0
 10
87.44244530384792
 20
222.4165619974102
 10
96.35911197051457
 20
231.6665619974102
  0
LWPOLYLINE
  5
10113D4
330
1F
100
AcDbEntity
  8
P
  6
Continuous
 62
     0
100
AcDbPolyline
 90
        2
 70
     0
 43
0.0
 10
75.19244530384792
 20
210.5832286640769
 10
84.27577863718125
 20
219.4998953307436
  0
LWPOLYLINE
  5
10113D5
330
1F
100
AcDbEntity
  8
P
  6
Continuous
 62
     0
100
AcDbPolyline
 90
        2
 70
     0
 43
0.0
 10
63.19244530384791
 20
198.3332286640769
 10
72.27577863718124
 20
207.2498953307436
  0
LWPOLYLINE
  5
10113D6
330
1F
100
AcDbEntity
  8
P
  6
Continuous
 62
     0
100
AcDbPolyline
 90
        2
 70
     0
 43
0.0
 10
51.10911197051458
 20
186.1665619974102
 10
60.19244530384791
 20
195.3332286640769
  0
LWPOLYLINE
  5
10113D7
330
1F
100
AcDbEntity
  8
P
  6
Continuous
 62
     0
100
AcDbPolyline
 90
        2
 70
     0
 43
0.0
 10
40.85911197051458
 20
175.9998953307436
 10
48.10911197051458
 20
183.1665619974102
  0
LWPOLYLINE
  5
10113D8
330
1F
100
AcDbEntity
  8
P
  6
Continuous
 62
     0
100
AcDbPolyline
 90
        2
 70
     0
 43
0.0
 10
75.19244530384792
 20
234.6665619974102
 10
76.44244530384792
 20
235.4998953307436
  0
LWPOLYLINE
  5
10113D9
330
1F
100
AcDbEntity
  8
P
  6
Continuous
 62
     0
100
AcDbPolyline
 90
        2
 70
     0
 43
0.0
 10
63.19244530384791
 20
222.4165619974102
 10
72.27577863718124
 20
231.6665619974102
  0
LWPOLYLINE
  5
10113DA
330
1F
100
AcDbEntity
  8
P
  6
Continuous
 62
     0
100
AcDbPolyline
 90
        2
 70
     0
 43
0.0
 10
51.10911197051458
 20
210.5832286640769
 10
60.19244530384791
 20
219.4998953307436
  0
LWPOLYLINE
  5
10113DB
330
1F
100
AcDbEntity
  8
P
  6
Continuous
 62
     0
100
AcDbPolyline
 90
        2
 70
     0
 43
0.0
 10
39.02577863718125
 20
198.3332286640769
 10
48.10911197051458
 20
207.2498953307436
  0
LWPOLYLINE
  5
10113DC
330
1F
100
AcDbEntity
  8
P
  6
Continuous
 62
     0
100
AcDbPolyline
 90
        2
 70
     0
 43
0.0
 10
28.69244530384792
 20
187.9165619974102
 10
36.10911197051458
 20
195.3332286640769
  0
LWPOLYLINE
  5
10113DD
330
1F
100
AcDbEntity
  8
P
  6
Continuous
 62
     0
100
AcDbPolyline
 90
        2
 70
     0
 43
0.0
 10
51.10911197051458
 20
234.6665619974102
 10
52.27577863718124
 20
235.4998953307436
  0
LWPOLYLINE
  5
10113DE
330
1F
100
AcDbEntity
  8
P
  6
Continuous
 62
     0
100
AcDbPolyline
 90
        2
 70
     0
 43
0.0
 10
39.02577863718125
 20
222.4165619974102
 10
48.10911197051458
 20
231.6665619974102
  0
LWPOLYLINE
  5
10113DF
330
1F
100
AcDbEntity
  8
P
  6
Continuous
 62
     0
100
AcDbPolyline
 90
        2
 70
     0
 43
0.0
 10
28.69244530384792
 20
211.9998953307436
 10
36.10911197051458
 20
219.4998953307436
  0
LWPOLYLINE
  5
10113E0
330
1F
100
AcDbEntity
  8
P
  6
Continuous
 62
     0
100
AcDbPolyline
 90
        2
 70
     0
 43
0.0
 10
197.6091119705145
 20
175.9998953307436
 10
206.8591119705146
 20
185.2498953307436
  0
LWPOLYLINE
  5
10113E1
330
1F
100
AcDbEntity
  8
P
  6
Continuous
 62
     0
100
AcDbPolyline
 90
        2
 70
     0
 43
0.0
 10
173.5257786371812
 20
175.9998953307436
 10
206.8591119705146
 20
209.3332286640769
  0
LWPOLYLINE
  5
10113E2
330
1F
100
AcDbEntity
  8
P
  6
Continuous
 62
     0
100
AcDbPolyline
 90
        2
 70
     0
 43
0.0
 10
149.4424453038479
 20
175.9998953307436
 10
206.8591119705146
 20
233.4165619974102
  0
LWPOLYLINE
  5
10113E3
330
1F
100
AcDbEntity
  8
P
  6
Continuous
 62
     0
100
AcDbPolyline
 90
        2
 70
     0
 43
0.0
 10
125.1924453038479
 20
175.9998953307436
 10
180.4424453038479
 20
230.9998953307436
  0
LWPOLYLINE
  5
10113E4
330
1F
100
AcDbEntity
  8
P
  6
Continuous
 62
     0
100
AcDbPolyline
 90
        2
 70
     0
 43
0.0
 10
101.1091119705145
 20
175.9998953307436
 10
160.8591119705146
 20
235.4998953307436
  0
LWPOLYLINE
  5
10113E5
330
1F
100
AcDbEntity
  8
P
  6
Continuous
 62
     0
100
AcDbPolyline
 90
        2
 70
     0
 43
0.0
 10
77.02577863718125
 20
175.9998953307436
 10
136.6091119705146
 20
235.4998953307436
  0
LWPOLYLINE
  5
10113E6
330
1F
100
AcDbEntity
  8
P
  6
Continuous
 62
     0
100
AcDbPolyline
 90
        2
 70
     0
 43
0.0
 10
52.85911197051458
 20
175.9998953307436
 10
112.5257786371812
 20
235.4998953307436
  0
LWPOLYLINE
  5
10113E7
330
1F
100
AcDbEntity
  8
P
  6
Continuous
 62
     0
100
AcDbPolyline
 90
        2
 70
     0
 43
0.0
 10
28.77577863718125
 20
175.9998953307436
 10
88.44244530384791
 20
235.4998953307436
  0
LWPOLYLINE
  5
10113E8
330
1F
100
AcDbEntity
  8
P
  6
Continuous
 62
     0
100
AcDbPolyline
 90
        2
 70
     0
 43
0.0
 10
28.69244530384792
 20
199.8332286640769
 10
64.35911197051457
 20
235.4998953307436
  0
LWPOLYLINE
  5
10113E9
330
1F
100
AcDbEntity
  8
P
  6
Continuous
 62
     0
100
AcDbPolyline
 90
        2
 70
     0
 43
0.0
 10
28.69244530384792
 20
224.2498953307436
 10
40.27577863718124
 20
235.4998953307436
  0
LWPOLYLINE
  5
10113EA
330
1F
100
AcDbEntity
  8
P
  6
Continuous
 62
     0
100
AcDbPolyline
 90
        2
 70
     0
 43
0.0
 10
255.7757786371813
 20
239.7498953307436
 10
255.7757786371813
 20
235.5832286640769
  0
LWPOLYLINE
  5
10113EB
330
1F
100
AcDbEntity
  8
P
  6
Continuous
 62
     0
100
AcDbPolyline
 90
        2
 70
     0
 43
0.0
 10
207.5257786371813
 20
264.2498953307436
 10
207.5257786371813
 20
236.3332286640769
  0
LWPOLYLINE
  5
10113EC
330
1F
100
AcDbEntity
  8
P
  6
Continuous
 62
     0
100
AcDbPolyline
 90
        2
 70
     0
 43
0.0
 10
207.5257786371813
 20
236.3332286640769
 10
206.2757786371812
 20
234.9998953307436
  0
LWPOLYLINE
  5
10113ED
330
1F
100
AcDbEntity
  8
P
  6
Continuous
 62
     0
100
AcDbPolyline
 90
        2
 70
     0
 43
0.0
 10
206.2757786371812
 20
234.9998953307436
 10
179.1091119705146
 20
234.9998953307436
  0
LWPOLYLINE
  5
10113EE
330
1F
100
AcDbEntity
  8
P
  6
Continuous
 62
     0
100
AcDbPolyline
 90
        2
 70
     0
 43
0.0
 10
214.9424453038479
 20
246.9998953307436
 10
214.9424453038479
 20
204.9998953307436
  0
LWPOLYLINE
  5
10113EF
330
1F
100
AcDbEntity
  8
P
  6
Continuous
 62
     0
100
AcDbPolyline
 90
        2
 70
     0
 43
0.0
 10
245.7757786371812
 20
204.9998953307436
 10
255.1091119705146
 20
239.7498953307436
  0
LWPOLYLINE
  5
10113F0
330
1F
100
AcDbEntity
  8
P
  6
Continuous
 62
     0
100
AcDbPolyline
 90
        2
 70
     0
 43
0.0
 10
255.1091119705146
 20
239.7498953307436
 10
255.7757786371813
 20
239.7498953307436
  0
LWPOLYLINE
  5
10113F1
330
1F
100
AcDbEntity
  8
P
  6
Continuous
 62
     0
100
AcDbPolyline
 90
        2
 70
     0
 43
0.0
 10
255.7757786371813
 20
235.5832286640769
 10
255.0257786371812
 20
236.8332286640769
  0
LWPOLYLINE
  5
10113F2
330
1F
100
AcDbEntity
  8
P
  6
Continuous
 62
     0
100
AcDbPolyline
 90
        2
 70
     0
 43
0.0
 10
214.9424453038479
 20
204.9998953307436
 10
245.7757786371812
 20
204.9998953307436
  0
LWPOLYLINE
  5
10113F3
330
1F
100
AcDbEntity
  8
P
  6
Continuous
 62
     0
100
AcDbPolyline
 90
        2
 70
     0
 43
0.0
 10
213.6924453038479
 20
263.8332286640769
 10
213.6924453038479
 20
257.1665619974102
  0
LWPOLYLINE
  5
10113F4
330
1F
100
AcDbEntity
  8
P
  6
Continuous
 62
     0
100
AcDbPolyline
 90
        2
 70
     0
 43
0.0
 10
213.6924453038479
 20
257.1665619974102
 10
217.1091119705146
 20
246.7498953307436
  0
LWPOLYLINE
  5
10113F5
330
1F
100
AcDbEntity
  8
P
  6
Continuous
 62
     0
100
AcDbPolyline
 90
        2
 70
     0
 43
0.0
 10
217.1091119705146
 20
246.7498953307436
 10
217.1091119705146
 20
240.1665619974103
  0
LWPOLYLINE
  5
10113F6
330
1F
100
AcDbEntity
  8
P
  6
Continuous
 62
     0
100
AcDbPolyline
 90
        2
 70
     0
 43
0.0
 10
217.1091119705146
 20
240.1665619974103
 10
215.5257786371812
 20
241.1665619974102
  0
LWPOLYLINE
  5
10113F7
330
1F
100
AcDbEntity
  8
P
  6
Continuous
 62
     0
100
AcDbPolyline
 90
        2
 70
     0
 43
0.0
 10
215.5257786371812
 20
241.1665619974102
 10
215.5257786371812
 20
245.5832286640769
  0
LWPOLYLINE
  5
10113F8
330
1F
100
AcDbEntity
  8
P
  6
Continuous
 62
     0
100
AcDbPolyline
 90
        2
 70
     0
 43
0.0
 10
214.9424453038479
 20
246.9998953307436
 10
216.3591119705146
 20
246.1665619974102
  0
LWPOLYLINE
  5
10113F9
330
1F
100
AcDbEntity
  8
P
  6
Continuous
 62
     0
100
AcDbPolyline
 90
        2
 70
     0
 43
0.0
 10
216.3591119705146
 20
246.1665619974102
 10
216.3591119705146
 20
241.8332286640769
  0
LWPOLYLINE
  5
10113FA
330
1F
100
AcDbEntity
  8
P
  6
Continuous
 62
     0
100
AcDbPolyline
 90
        2
 70
     0
 43
0.0
 10
214.9424453038479
 20
239.3332286640769
 10
216.6924453038479
 20
237.5832286640769
  0
HATCH
  5
10113FB
330
1F
100
AcDbEntity
  8
H
  6
Continuous
 62
     0
100
AcDbHatch
 10
0.0
 20
0.0
 30
0.0
210
0.0
220
0.0
230
1.0
  2
SOLID
 70
     1
 71
     0
 91
        1
 92
        1
 93
        4
 72
     1
 10
59.85911197051458
 20
262.7498953307436
 11
60.77577863718125
 21
262.7498953307436
 72
     1
 10
60.77577863718125
 20
262.7498953307436
 11
60.77577863718125
 21
263.7498953307436
 72
     1
 10
60.77577863718125
 20
263.7498953307436
 11
59.85911197051458
 21
263.7498953307436
 72
     1
 10
59.85911197051458
 20
263.7498953307436
 11
59.85911197051458
 21
262.7498953307436
 97
        0
 75
     0
 76
     1
 98
        0
450
        0
451
        0
460
0.0
461
0.0
452
        1
462
0.0
453
        0
470

  0
LWPOLYLINE
  5
10113FC
330
1F
100
AcDbEntity
  8
P
  6
Continuous
 62
     0
100
AcDbPolyline
 90
        2
 70
     0
 43
0.0
 10
28.60911197051458
 20
270.2498953307436
 10
216.1924453038479
 20
267.4165619974102
  0
HATCH
  5
10113FD
330
1F
100
AcDbEntity
  8
H
  6
Continuous
 62
     0
100
AcDbHatch
 10
0.0
 20
0.0
 30
0.0
210
0.0
220
0.0
230
1.0
  2
SOLID
 70
     1
 71
     0
 91
        1
 92
        1
 93
        4
 72
     1
 10
71.19244530384792
 20
266.1665619974102
 11
72.19244530384791
 21
266.1665619974102
 72
     1
 10
72.19244530384791
 20
266.1665619974102
 11
72.19244530384791
 21
267.1665619974102
 72
     1
 10
72.19244530384791
 20
267.1665619974102
 11
71.19244530384792
 21
267.1665619974102
 72
     1
 10
71.19244530384792
 20
267.1665619974102
 11
71.19244530384792
 21
266.1665619974102
 97
        0
 75
     0
 76
     1
 98
        0
450
        0
451
        0
460
0.0
461
0.0
452
        1
462
0.0
453
        0
470

  0
HATCH
  5
10113FE
330
1F
100
AcDbEntity
  8
H
  6
Continuous
 62
     0
100
AcDbHatch
 10
0.0
 20
0.0
 30
0.0
210
0.0
220
0.0
230
1.0
  2
SOLID
 70
     1
 71
     0
 91
        1
 92
        1
 93
        4
 72
     1
 10
83.10911197051458
 20
267.8332286640769
 11
84.10911197051458
 21
267.8332286640769
 72
     1
 10
84.10911197051458
 20
267.8332286640769
 11
84.10911197051458
 21
268.7498953307436
 72
     1
 10
84.10911197051458
 20
268.7498953307436
 11
83.10911197051458
 21
268.7498953307436
 72
     1
 10
83.10911197051458
 20
268.7498953307436
 11
83.10911197051458
 21
267.8332286640769
 97
        0
 75
     0
 76
     1
 98
        0
450
        0
451
        0
460
0.0
461
0.0
452
        1
462
0.0
453
        0
470

  0
HATCH
  5
10113FF
330
1F
100
AcDbEntity
  8
H
  6
Continuous
 62
     0
100
AcDbHatch
 10
0.0
 20
0.0
 30
0.0
210
0.0
220
0.0
230
1.0
  2
SOLID
 70
     1
 71
     0
 91
        1
 92
        1
 93
        4
 72
     1
 10
107.3591119705145
 20
272.4165619974102
 11
108.3591119705145
 21
272.4165619974102
 72
     1
 10
108.3591119705145
 20
272.4165619974102
 11
108.3591119705145
 21
273.4165619974102
 72
     1
 10
108.3591119705145
 20
273.4165619974102
 11
107.3591119705145
 21
273.4165619974102
 72
     1
 10
107.3591119705145
 20
273.4165619974102
 11
107.3591119705145
 21
272.4165619974102
 97
        0
 75
     0
 76
     1
 98
        0
450
        0
451
        0
460
0.0
461
0.0
452
        1
462
0.0
453
        0
470

  0
HATCH
  5
1011400
330
1F
100
AcDbEntity
  8
H
  6
Continuous
 62
     0
100
AcDbHatch
 10
0.0
 20
0.0
 30
0.0
210
0.0
220
0.0
230
1.0
  2
SOLID
 70
     1
 71
     0
 91
        1
 92
        1
 93
        4
 72
     1
 10
122.6091119705146
 20
276.7498953307436
 11
123.6091119705146
 21
276.7498953307436
 72
     1
 10
123.6091119705146
 20
276.7498953307436
 11
123.6091119705146
 21
277.7498953307436
 72
     1
 10
123.6091119705146
 20
277.7498953307436
 11
122.6091119705146
 21
277.7498953307436
 72
     1
 10
122.6091119705146
 20
277.7498953307436
 11
122.6091119705146
 21
276.7498953307436
 97
        0
 75
     0
 76
     1
 98
        0
450
        0
451
        0
460
0.0
461
0.0
452
        1
462
0.0
453
        0
470

  0
HATCH
  5
1011401
330
1F
100
AcDbEntity
  8
H
  6
Continuous
 62
     0
100
AcDbHatch
 10
0.0
 20
0.0
 30
0.0
210
0.0
220
0.0
230
1.0
  2
SOLID
 70
     1
 71
     0
 91
        1
 92
        1
 93
        4
 72
     1
 10
137.7757786371812
 20
276.833228664077
 11
138.7757786371812
 21
276.833228664077
 72
     1
 10
138.7757786371812
 20
276.833228664077
 11
138.7757786371812
 21
277.833228664077
 72
     1
 10
138.7757786371812
 20
277.833228664077
 11
137.7757786371812
 21
277.833228664077
 72
     1
 10
137.7757786371812
 20
277.833228664077
 11
137.7757786371812
 21
276.833228664077
 97
        0
 75
     0
 76
     1
 98
        0
450
        0
451
        0
460
0.0
461
0.0
452
        1
462
0.0
453
        0
470

  0
HATCH
  5
1011402
330
1F
100
AcDbEntity
  8
H
  6
Continuous
 62
     0
100
AcDbHatch
 10
0.0
 20
0.0
 30
0.0
210
0.0
220
0.0
230
1.0
  2
SOLID
 70
     1
 71
     0
 91
        1
 92
        1
 93
        4
 72
     1
 10
216.7757786371812
 20
276.3332286640769
 11
217.7757786371813
 21
276.3332286640769
 72
     1
 10
217.7757786371813
 20
276.3332286640769
 11
217.7757786371813
 21
277.333228664077
 72
     1
 10
217.7757786371813
 20
277.333228664077
 11
216.7757786371812
 21
277.333228664077
 72
     1
 10
216.7757786371812
 20
277.333228664077
 11
216.7757786371812
 21
276.3332286640769
 97
        0
 75
     0
 76
     1
 98
        0
450
        0
451
        0
460
0.0
461
0.0
452
        1
462
0.0
453
        0
470

  0
HATCH
  5
1011403
330
1F
100
AcDbEntity
  8
H
  6
Continuous
 62
     0
100
AcDbHatch
 10
0.0
 20
0.0
 30
0.0
210
0.0
220
0.0
230
1.0
  2
SOLID
 70
     1
 71
     0
 91
        1
 92
        1
 93
        3
 72
     1
 10
181.1924453038479
 20
281.4165619974102
 11
181.1924453038479
 21
283.083228664077
 72
     1
 10
181.1924453038479
 20
283.083228664077
 11
185.6091119705146
 21
282.1665619974102
 72
     1
 10
185.6091119705146
 20
282.1665619974102
 11
181.1924453038479
 21
281.4165619974102
 97
        0
 75
     0
 76
     1
 98
        0
450
        0
451
        0
460
0.0
461
0.0
452
        1
462
0.0
453
        0
470

  0
MTEXT
  5
1011404
330
1F
100
AcDbEntity
  8
Text
  6
Continuous
 62
     0
100
AcDbMText
 10
167.2757786371812
 20
288.7498953307436
 30
0.0
 40
3.0
 41
45.49999999999999
 46
0.0
 71
     4
 72
     5
  1
{\fHelveticaNeueLTPro|b0|i0|c0|p15;Gefälle \fArial|b0|i0|c0|p34;≥ \fHelveticaNeueLTPro|b0|i0|c0|p15;1,5%}
 73
     2
 44
1.0
  0
LWPOLYLINE
  5
1011405
330
1F
100
AcDbEntity
  8
P
  6
Continuous
 62
     0
100
AcDbPolyline
 90
        2
 70
     0
 43
0.0
 10
171.0257786371812
 20
265.9998953307436
 10
171.0257786371812
 20
264.4466408928737
  0
LWPOLYLINE
  5
1011406
330
1F
100
AcDbEntity
  8
P
  6
Continuous
 62
     0
100
AcDbPolyline
 90
        2
 70
     0
 43
0.0
 10
178.1924453038479
 20
234.4165619974102
 10
178.1924453038479
 20
235.6665619974102
  0
LWPOLYLINE
  5
1011407
330
1F
100
AcDbEntity
  8
P
  6
DOT
 62
     0
100
AcDbPolyline
 90
        2
 70
     0
 43
0.0
 10
171.3591119705146
 20
265.4998953307436
 10
216.1091119705146
 20
264.7498953307436
  0
LWPOLYLINE
  5
1011408
330
1F
100
AcDbEntity
  8
P
  6
DASHDOT
 62
     0
100
AcDbPolyline
 90
        2
 70
     0
 43
0.0
 10
171.0257786371812
 20
269.4998953307436
 10
175.6924453038479
 20
274.0832286640769
  0
LWPOLYLINE
  5
1011409
330
1F
100
AcDbEntity
  8
P
  6
DASHDOT
 62
     0
100
AcDbPolyline
 90
        2
 70
     0
 43
0.0
 10
174.1924453038479
 20
269.4165619974102
 10
178.7757786371812
 20
274.0832286640769
  0
LWPOLYLINE
  5
101140A
330
1F
100
AcDbEntity
  8
P
  6
DASHDOT
 62
     0
100
AcDbPolyline
 90
        2
 70
     0
 43
0.0
 10
177.2757786371812
 20
269.333228664077
 10
182.1924453038479
 20
273.9998953307436
  0
LWPOLYLINE
  5
101140B
330
1F
100
AcDbEntity
  8
P
  6
DASHDOT
 62
     0
100
AcDbPolyline
 90
        2
 70
     0
 43
0.0
 10
180.7757786371812
 20
269.333228664077
 10
185.3591119705146
 20
273.9998953307436
  0
LWPOLYLINE
  5
101140C
330
1F
100
AcDbEntity
  8
P
  6
DASHDOT
 62
     0
100
AcDbPolyline
 90
        2
 70
     0
 43
0.0
 10
183.6924453038479
 20
269.2498953307436
 10
188.3591119705146
 20
273.9165619974102
  0
LWPOLYLINE
  5
101140D
330
1F
100
AcDbEntity
  8
P
  6
DASHDOT
 62
     0
100
AcDbPolyline
 90
        2
 70
     0
 43
0.0
 10
186.8591119705146
 20
269.333228664077
 10
191.4424453038479
 20
273.8332286640769
  0
LWPOLYLINE
  5
101140E
330
1F
100
AcDbEntity
  8
P
  6
DASHDOT
 62
     0
100
AcDbPolyline
 90
        2
 70
     0
 43
0.0
 10
189.9424453038479
 20
269.1665619974102
 10
194.5257786371812
 20
273.7498953307436
  0
LWPOLYLINE
  5
101140F
330
1F
100
AcDbEntity
  8
P
  6
DASHDOT
 62
     0
100
AcDbPolyline
 90
        2
 70
     0
 43
0.0
 10
193.1091119705146
 20
269.1665619974102
 10
197.7757786371812
 20
273.7498953307436
  0
LWPOLYLINE
  5
1011410
330
1F
100
AcDbEntity
  8
P
  6
DASHDOT
 62
     0
100
AcDbPolyline
 90
        2
 70
     0
 43
0.0
 10
196.2757786371812
 20
269.1665619974102
 10
200.9424453038479
 20
273.8332286640769
  0
LWPOLYLINE
  5
1011411
330
1F
100
AcDbEntity
  8
P
  6
DASHDOT
 62
     0
100
AcDbPolyline
 90
        2
 70
     0
 43
0.0
 10
199.2757786371812
 20
269.083228664077
 10
204.2757786371812
 20
273.6665619974102
  0
LWPOLYLINE
  5
1011412
330
1F
100
AcDbEntity
  8
P
  6
DASHDOT
 62
     0
100
AcDbPolyline
 90
        2
 70
     0
 43
0.0
 10
202.6091119705146
 20
268.9998953307436
 10
207.2757786371812
 20
273.6665619974102
  0
LWPOLYLINE
  5
1011413
330
1F
100
AcDbEntity
  8
P
  6
DASHDOT
 62
     0
100
AcDbPolyline
 90
        2
 70
     0
 43
0.0
 10
205.8591119705146
 20
268.9998953307436
 10
210.4424453038479
 20
273.583228664077
  0
LWPOLYLINE
  5
1011414
330
1F
100
AcDbEntity
  8
P
  6
DASHDOT
 62
     0
100
AcDbPolyline
 90
        2
 70
     0
 43
0.0
 10
209.0257786371812
 20
268.9998953307436
 10
213.5257786371813
 20
273.583228664077
  0
LWPOLYLINE
  5
1011415
330
1F
100
AcDbEntity
  8
P
  6
DASHDOT
 62
     0
100
AcDbPolyline
 90
        2
 70
     0
 43
0.0
 10
212.5257786371812
 20
268.9165619974102
 10
216.3798362288043
 20
273.1988482103248
  0
LWPOLYLINE
  5
1011416
330
1F
100
AcDbEntity
  8
P
  6
DASHDOT
 62
     0
100
AcDbPolyline
 90
        2
 70
     0
 43
0.0
 10
215.4424453038479
 20
268.833228664077
 10
216.2757786371813
 20
269.7498953307436
  0
LWPOLYLINE
  5
1011417
330
1F
100
AcDbEntity
  8
P
  6
DASHDOT
 62
     0
100
AcDbPolyline
 90
        2
 70
     0
 43
0.0
 10
31.77577863718125
 20
267.9998953307436
 10
33.94244530384791
 20
270.1665619974102
  0
LWPOLYLINE
  5
1011418
330
1F
100
AcDbEntity
  8
P
  6
DASHDOT
 62
     0
100
AcDbPolyline
 90
        2
 70
     0
 43
0.0
 10
34.77577863718125
 20
267.8332286640769
 10
37.10911197051458
 20
270.1665619974102
  0
LWPOLYLINE
  5
1011419
330
1F
100
AcDbEntity
  8
P
  6
DASHDOT
 62
     0
100
AcDbPolyline
 90
        2
 70
     0
 43
0.0
 10
38.02577863718125
 20
267.8332286640769
 10
40.19244530384791
 20
270.0832286640769
  0
LWPOLYLINE
  5
101141A
330
1F
100
AcDbEntity
  8
P
  6
DASHDOT
 62
     0
100
AcDbPolyline
 90
        2
 70
     0
 43
0.0
 10
41.19244530384791
 20
267.8332286640769
 10
43.35911197051458
 20
269.9998953307436
  0
LWPOLYLINE
  5
101141B
330
1F
100
AcDbEntity
  8
P
  6
DASHDOT
 62
     0
100
AcDbPolyline
 90
        2
 70
     0
 43
0.0
 10
44.35911197051458
 20
267.8332286640769
 10
46.52577863718124
 20
269.9998953307436
  0
LWPOLYLINE
  5
101141C
330
1F
100
AcDbEntity
  8
P
  6
DASHDOT
 62
     0
100
AcDbPolyline
 90
        2
 70
     0
 43
0.0
 10
47.69244530384791
 20
267.7498953307436
 10
49.94244530384791
 20
269.9165619974102
  0
LWPOLYLINE
  5
101141D
330
1F
100
AcDbEntity
  8
P
  6
DASHDOT
 62
     0
100
AcDbPolyline
 90
        2
 70
     0
 43
0.0
 10
50.60911197051458
 20
267.5832286640769
 10
52.94244530384791
 20
269.9165619974102
  0
LWPOLYLINE
  5
101141E
330
1F
100
AcDbEntity
  8
P
  6
DASHDOT
 62
     0
100
AcDbPolyline
 90
        2
 70
     0
 43
0.0
 10
53.85911197051458
 20
267.6665619974102
 10
56.02577863718124
 20
269.8332286640769
  0
LWPOLYLINE
  5
101141F
330
1F
100
AcDbEntity
  8
P
  6
DASHDOT
 62
     0
100
AcDbPolyline
 90
        2
 70
     0
 43
0.0
 10
57.02577863718125
 20
267.6665619974102
 10
59.19244530384791
 20
269.8332286640769
  0
LWPOLYLINE
  5
1011420
330
1F
100
AcDbEntity
  8
P
  6
DASHDOT
 62
     0
100
AcDbPolyline
 90
        2
 70
     0
 43
0.0
 10
60.02577863718125
 20
267.4998953307436
 10
62.35911197051458
 20
269.8332286640769
  0
LWPOLYLINE
  5
1011421
330
1F
100
AcDbEntity
  8
P
  6
DASHDOT
 62
     0
100
AcDbPolyline
 90
        2
 70
     0
 43
0.0
 10
63.27577863718125
 20
267.4998953307436
 10
65.44244530384792
 20
269.7498953307436
  0
LWPOLYLINE
  5
1011422
330
1F
100
AcDbEntity
  8
P
  6
DASHDOT
 62
     0
100
AcDbPolyline
 90
        2
 70
     0
 43
0.0
 10
66.69244530384792
 20
267.4165619974102
 10
68.77577863718125
 20
269.583228664077
  0
LWPOLYLINE
  5
1011423
330
1F
100
AcDbEntity
  8
P
  6
DASHDOT
 62
     0
100
AcDbPolyline
 90
        2
 70
     0
 43
0.0
 10
69.69244530384791
 20
267.4998953307436
 10
71.85911197051457
 20
269.583228664077
  0
LWPOLYLINE
  5
1011424
330
1F
100
AcDbEntity
  8
P
  6
DASHDOT
 62
     0
100
AcDbPolyline
 90
        2
 70
     0
 43
0.0
 10
72.77577863718125
 20
267.4165619974102
 10
75.02577863718125
 20
269.583228664077
  0
LWPOLYLINE
  5
1011425
330
1F
100
AcDbEntity
  8
P
  6
DASHDOT
 62
     0
100
AcDbPolyline
 90
        2
 70
     0
 43
0.0
 10
75.94244530384791
 20
267.4165619974102
 10
78.10911197051457
 20
269.4998953307436
  0
LWPOLYLINE
  5
1011426
330
1F
100
AcDbEntity
  8
P
  6
DASHDOT
 62
     0
100
AcDbPolyline
 90
        2
 70
     0
 43
0.0
 10
79.19244530384792
 20
267.333228664077
 10
81.27577863718125
 20
269.4998953307436
  0
LWPOLYLINE
  5
1011427
330
1F
100
AcDbEntity
  8
P
  6
DASHDOT
 62
     0
100
AcDbPolyline
 90
        2
 70
     0
 43
0.0
 10
82.27577863718124
 20
267.2498953307436
 10
84.44244530384791
 20
269.4165619974102
  0
LWPOLYLINE
  5
1011428
330
1F
100
AcDbEntity
  8
P
  6
DASHDOT
 62
     0
100
AcDbPolyline
 90
        2
 70
     0
 43
0.0
 10
85.52577863718125
 20
267.2498953307436
 10
87.85911197051458
 20
269.4165619974102
  0
LWPOLYLINE
  5
1011429
330
1F
100
AcDbEntity
  8
P
  6
DASHDOT
 62
     0
100
AcDbPolyline
 90
        2
 70
     0
 43
0.0
 10
88.77577863718125
 20
267.1665619974102
 10
90.94244530384791
 20
269.333228664077
  0
LWPOLYLINE
  5
101142A
330
1F
100
AcDbEntity
  8
P
  6
DASHDOT
 62
     0
100
AcDbPolyline
 90
        2
 70
     0
 43
0.0
 10
91.77577863718125
 20
267.1665619974102
 10
93.94244530384792
 20
269.333228664077
  0
LWPOLYLINE
  5
101142B
330
1F
100
AcDbEntity
  8
P
  6
DASHDOT
 62
     0
100
AcDbPolyline
 90
        2
 70
     0
 43
0.0
 10
94.94244530384792
 20
267.083228664077
 10
97.02577863718126
 20
269.2498953307436
  0
LWPOLYLINE
  5
101142C
330
1F
100
AcDbEntity
  8
P
  6
DASHDOT
 62
     0
100
AcDbPolyline
 90
        2
 70
     0
 43
0.0
 10
98.02577863718125
 20
266.9998953307436
 10
100.1924453038479
 20
269.1665619974102
  0
LWPOLYLINE
  5
101142D
330
1F
100
AcDbEntity
  8
P
  6
DASHDOT
 62
     0
100
AcDbPolyline
 90
        2
 70
     0
 43
0.0
 10
101.1924453038479
 20
266.9998953307436
 10
103.2757786371812
 20
269.1665619974102
  0
LWPOLYLINE
  5
101142E
330
1F
100
AcDbEntity
  8
P
  6
DASHDOT
 62
     0
100
AcDbPolyline
 90
        2
 70
     0
 43
0.0
 10
104.3591119705145
 20
266.9998953307436
 10
106.3591119705145
 20
268.9998953307436
  0
LWPOLYLINE
  5
101142F
330
1F
100
AcDbEntity
  8
P
  6
DASHDOT
 62
     0
100
AcDbPolyline
 90
        2
 70
     0
 43
0.0
 10
107.5257786371812
 20
266.9165619974102
 10
109.8591119705146
 20
268.9998953307436
  0
LWPOLYLINE
  5
1011430
330
1F
100
AcDbEntity
  8
P
  6
DASHDOT
 62
     0
100
AcDbPolyline
 90
        2
 70
     0
 43
0.0
 10
110.7757786371812
 20
266.9165619974102
 10
112.9424453038479
 20
268.9998953307436
  0
LWPOLYLINE
  5
1011431
330
1F
100
AcDbEntity
  8
P
  6
DASHDOT
 62
     0
100
AcDbPolyline
 90
        2
 70
     0
 43
0.0
 10
113.8591119705145
 20
266.833228664077
 10
116.0257786371812
 20
268.9998953307436
  0
LWPOLYLINE
  5
1011432
330
1F
100
AcDbEntity
  8
P
  6
DASHDOT
 62
     0
100
AcDbPolyline
 90
        2
 70
     0
 43
0.0
 10
117.0257786371812
 20
266.7498953307436
 10
119.1924453038479
 20
268.9165619974102
  0
LWPOLYLINE
  5
1011433
330
1F
100
AcDbEntity
  8
P
  6
DASHDOT
 62
     0
100
AcDbPolyline
 90
        2
 70
     0
 43
0.0
 10
120.3591119705146
 20
266.6665619974102
 10
122.2757786371812
 20
268.833228664077
  0
LWPOLYLINE
  5
1011434
330
1F
100
AcDbEntity
  8
P
  6
DASHDOT
 62
     0
100
AcDbPolyline
 90
        2
 70
     0
 43
0.0
 10
123.3591119705145
 20
266.6665619974102
 10
125.5257786371812
 20
268.9165619974102
  0
LWPOLYLINE
  5
1011435
330
1F
100
AcDbEntity
  8
P
  6
DASHDOT
 62
     0
100
AcDbPolyline
 90
        2
 70
     0
 43
0.0
 10
126.4424453038479
 20
266.583228664077
 10
128.6091119705146
 20
268.7498953307436
  0
LWPOLYLINE
  5
1011436
330
1F
100
AcDbEntity
  8
P
  6
DASHDOT
 62
     0
100
AcDbPolyline
 90
        2
 70
     0
 43
0.0
 10
129.6091119705146
 20
266.583228664077
 10
131.7757786371812
 20
268.7498953307436
  0
LWPOLYLINE
  5
1011437
330
1F
100
AcDbEntity
  8
P
  6
DASHDOT
 62
     0
100
AcDbPolyline
 90
        2
 70
     0
 43
0.0
 10
132.6924453038479
 20
266.4998953307436
 10
134.9424453038479
 20
268.6665619974102
  0
LWPOLYLINE
  5
1011438
330
1F
100
AcDbEntity
  8
P
  6
DASHDOT
 62
     0
100
AcDbPolyline
 90
        2
 70
     0
 43
0.0
 10
135.8591119705146
 20
266.4998953307436
 10
137.9424453038479
 20
268.6665619974102
  0
LWPOLYLINE
  5
1011439
330
1F
100
AcDbEntity
  8
P
  6
DASHDOT
 62
     0
100
AcDbPolyline
 90
        2
 70
     0
 43
0.0
 10
139.0257786371812
 20
266.4998953307436
 10
141.1091119705146
 20
268.583228664077
  0
LWPOLYLINE
  5
101143A
330
1F
100
AcDbEntity
  8
P
  6
DASHDOT
 62
     0
100
AcDbPolyline
 90
        2
 70
     0
 43
0.0
 10
142.3591119705146
 20
266.4165619974102
 10
144.5257786371812
 20
268.4998953307436
  0
LWPOLYLINE
  5
101143B
330
1F
100
AcDbEntity
  8
P
  6
DASHDOT
 62
     0
100
AcDbPolyline
 90
        2
 70
     0
 43
0.0
 10
145.3591119705146
 20
266.333228664077
 10
147.6091119705146
 20
268.4998953307436
  0
LWPOLYLINE
  5
101143C
330
1F
100
AcDbEntity
  8
P
  6
DASHDOT
 62
     0
100
AcDbPolyline
 90
        2
 70
     0
 43
0.0
 10
148.5257786371812
 20
266.333228664077
 10
150.6924453038479
 20
268.4165619974102
  0
LWPOLYLINE
  5
101143D
330
1F
100
AcDbEntity
  8
P
  6
DASHDOT
 62
     0
100
AcDbPolyline
 90
        2
 70
     0
 43
0.0
 10
151.6091119705146
 20
266.2498953307436
 10
153.7757786371812
 20
268.4165619974102
  0
LWPOLYLINE
  5
101143E
330
1F
100
AcDbEntity
  8
P
  6
DASHDOT
 62
     0
100
AcDbPolyline
 90
        2
 70
     0
 43
0.0
 10
154.7757786371812
 20
266.2498953307436
 10
156.9424453038479
 20
268.4165619974102
  0
LWPOLYLINE
  5
101143F
330
1F
100
AcDbEntity
  8
P
  6
DASHDOT
 62
     0
100
AcDbPolyline
 90
        2
 70
     0
 43
0.0
 10
157.8591119705146
 20
266.1665619974102
 10
160.1091119705146
 20
268.3332286640769
  0
LWPOLYLINE
  5
1011440
330
1F
100
AcDbEntity
  8
P
  6
DASHDOT
 62
     0
100
AcDbPolyline
 90
        2
 70
     0
 43
0.0
 10
161.3591119705146
 20
266.1665619974102
 10
163.4424453038479
 20
268.1665619974102
  0
LWPOLYLINE
  5
1011441
330
1F
100
AcDbEntity
  8
P
  6
DASHDOT
 62
     0
100
AcDbPolyline
 90
        2
 70
     0
 43
0.0
 10
164.3591119705146
 20
266.0832286640769
 10
166.4424453038479
 20
268.2498953307436
  0
LWPOLYLINE
  5
1011442
330
1F
100
AcDbEntity
  8
P
  6
DASHDOT
 62
     0
100
AcDbPolyline
 90
        2
 70
     0
 43
0.0
 10
167.4424453038479
 20
265.9998953307436
 10
169.6091119705146
 20
268.1665619974102
  0
LWPOLYLINE
  5
1011443
330
1F
100
AcDbEntity
  8
P
  6
DASHDOT
 62
     0
100
AcDbPolyline
 90
        2
 70
     0
 43
0.0
 10
28.85911197051458
 20
268.2498953307436
 10
30.85911197051458
 20
270.1665619974102
  0
LWPOLYLINE
  5
1011444
330
1F
100
AcDbEntity
  8
P
  6
Continuous
 62
     0
100
AcDbPolyline
 90
        2
 70
     0
 43
0.0
 10
28.60911197051458
 20
267.9998953307436
 10
216.1091119705146
 20
265.333228664077
  0
LWPOLYLINE
  5
1011445
330
1F
100
AcDbEntity
  8
P
  6
DASHDOT
 62
     0
100
AcDbPolyline
 90
        2
 70
     0
 43
0.0
 10
170.6091119705146
 20
265.9998953307436
 10
172.6924453038479
 20
268.0832286640769
  0
LWPOLYLINE
  5
1011446
330
1F
100
AcDbEntity
  8
P
  6
DASHDOT
 62
     0
100
AcDbPolyline
 90
        2
 70
     0
 43
0.0
 10
173.9424453038479
 20
265.9165619974102
 10
176.1091119705146
 20
268.0832286640769
  0
LWPOLYLINE
  5
1011447
330
1F
100
AcDbEntity
  8
P
  6
DASHDOT
 62
     0
100
AcDbPolyline
 90
        2
 70
     0
 43
0.0
 10
176.9424453038479
 20
265.9165619974102
 10
179.1091119705146
 20
268.0832286640769
  0
LWPOLYLINE
  5
1011448
330
1F
100
AcDbEntity
  8
P
  6
DASHDOT
 62
     0
100
AcDbPolyline
 90
        2
 70
     0
 43
0.0
 10
180.1091119705146
 20
265.8332286640769
 10
182.2757786371812
 20
267.9998953307436
  0
LWPOLYLINE
  5
1011449
330
1F
100
AcDbEntity
  8
P
  6
DASHDOT
 62
     0
100
AcDbPolyline
 90
        2
 70
     0
 43
0.0
 10
183.1924453038479
 20
265.7498953307436
 10
185.3591119705146
 20
267.9165619974102
  0
LWPOLYLINE
  5
101144A
330
1F
100
AcDbEntity
  8
P
  6
DASHDOT
 62
     0
100
AcDbPolyline
 90
        2
 70
     0
 43
0.0
 10
186.3591119705146
 20
265.7498953307436
 10
188.5257786371812
 20
267.9165619974102
  0
LWPOLYLINE
  5
101144B
330
1F
100
AcDbEntity
  8
P
  6
DASHDOT
 62
     0
100
AcDbPolyline
 90
        2
 70
     0
 43
0.0
 10
189.4424453038479
 20
265.6665619974102
 10
191.6091119705146
 20
267.8332286640769
  0
LWPOLYLINE
  5
101144C
330
1F
100
AcDbEntity
  8
P
  6
DASHDOT
 62
     0
100
AcDbPolyline
 90
        2
 70
     0
 43
0.0
 10
192.9424453038479
 20
265.6665619974102
 10
194.9424453038479
 20
267.7498953307436
  0
LWPOLYLINE
  5
101144D
330
1F
100
AcDbEntity
  8
P
  6
DASHDOT
 62
     0
100
AcDbPolyline
 90
        2
 70
     0
 43
0.0
 10
195.9424453038479
 20
265.5832286640769
 10
198.0257786371812
 20
267.7498953307436
  0
LWPOLYLINE
  5
101144E
330
1F
100
AcDbEntity
  8
P
  6
DASHDOT
 62
     0
100
AcDbPolyline
 90
        2
 70
     0
 43
0.0
 10
199.0257786371812
 20
265.4998953307436
 10
201.1924453038479
 20
267.7498953307436
  0
LWPOLYLINE
  5
101144F
330
1F
100
AcDbEntity
  8
P
  6
DASHDOT
 62
     0
100
AcDbPolyline
 90
        2
 70
     0
 43
0.0
 10
202.1924453038479
 20
265.4998953307436
 10
204.3591119705146
 20
267.6665619974102
  0
LWPOLYLINE
  5
1011450
330
1F
100
AcDbEntity
  8
P
  6
DASHDOT
 62
     0
100
AcDbPolyline
 90
        2
 70
     0
 43
0.0
 10
205.5257786371813
 20
265.4165619974102
 10
207.6924453038479
 20
267.5832286640769
  0
LWPOLYLINE
  5
1011451
330
1F
100
AcDbEntity
  8
P
  6
DASHDOT
 62
     0
100
AcDbPolyline
 90
        2
 70
     0
 43
0.0
 10
208.5257786371812
 20
265.4165619974102
 10
210.6924453038479
 20
267.5832286640769
  0
LWPOLYLINE
  5
1011452
330
1F
100
AcDbEntity
  8
P
  6
DASHDOT
 62
     0
100
AcDbPolyline
 90
        2
 70
     0
 43
0.0
 10
211.8591119705146
 20
265.5832286640769
 10
213.7757786371813
 20
267.4998953307436
  0
LWPOLYLINE
  5
1011453
330
1F
100
AcDbEntity
  8
P
  6
DASHDOT
 62
     0
100
AcDbPolyline
 90
        2
 70
     0
 43
0.0
 10
214.9424453038479
 20
265.4165619974102
 10
216.1091119705146
 20
266.583228664077
  0
HATCH
  5
1011454
330
1F
100
AcDbEntity
  8
H
  6
DASHDOT
 62
     0
100
AcDbHatch
 10
0.0
 20
0.0
 30
0.0
210
0.0
220
0.0
230
1.0
  2
SOLID
 70
     1
 71
     0
 91
        1
 92
        1
 93
        4
 72
     1
 10
199.4424453038479
 20
264.6665619974102
 11
200.4424453038479
 21
264.6665619974102
 72
     1
 10
200.4424453038479
 20
264.6665619974102
 11
200.4424453038479
 21
265.6665619974102
 72
     1
 10
200.4424453038479
 20
265.6665619974102
 11
199.4424453038479
 21
265.6665619974102
 72
     1
 10
199.4424453038479
 20
265.6665619974102
 11
199.4424453038479
 21
264.6665619974102
 97
        0
 75
     0
 76
     1
 98
        0
450
        0
451
        0
460
0.0
461
0.0
452
        1
462
0.0
453
        0
470

  0
LWPOLYLINE
  5
1011455
330
1F
100
AcDbEntity
  8
P
  6
Continuous
 62
     0
100
AcDbPolyline
 90
        2
 70
     0
 43
0.0
 10
60.27577863718125
 20
312.3332286640769
 10
60.27577863718125
 20
263.2498953307436
  0
LWPOLYLINE
  5
1011456
330
1F
100
AcDbEntity
  8
P
  6
Continuous
 62
     0
100
AcDbPolyline
 90
        2
 70
     0
 43
0.0
 10
94.60911197051457
 20
312.3332286640769
 10
94.60911197051457
 20
269.9998953307436
  0
LWPOLYLINE
  5
1011457
330
1F
100
AcDbEntity
  8
P
  6
Continuous
 62
     0
100
AcDbPolyline
 90
        2
 70
     0
 43
0.0
 10
107.8591119705146
 20
312.3332286640769
 10
107.8591119705146
 20
272.7498953307436
  0
LWPOLYLINE
  5
1011458
330
1F
100
AcDbEntity
  8
P
  6
Continuous
 62
     0
100
AcDbPolyline
 90
        2
 70
     0
 43
0.0
 10
138.2757786371812
 20
312.1665619974103
 10
138.2757786371812
 20
277.333228664077
  0
LWPOLYLINE
  5
1011459
330
1F
100
AcDbEntity
  8
P
  6
Continuous
 62
     0
100
AcDbPolyline
 90
        2
 70
     0
 43
0.0
 10
83.60911197051457
 20
312.3332286640769
 10
83.60911197051457
 20
268.3332286640769
  0
LWPOLYLINE
  5
101145A
330
1F
100
AcDbEntity
  8
P
  6
Continuous
 62
     0
100
AcDbPolyline
 90
        2
 70
     0
 43
0.0
 10
123.1091119705145
 20
311.9998953307436
 10
123.1091119705145
 20
277.333228664077
  0
LWPOLYLINE
  5
101145B
330
1F
100
AcDbEntity
  8
P
  6
Continuous
 62
     0
100
AcDbPolyline
 90
        2
 70
     0
 43
0.0
 10
71.69244530384792
 20
312.3332286640769
 10
71.69244530384792
 20
266.833228664077
  0
LWPOLYLINE
  5
101145C
330
1F
100
AcDbEntity
  8
P
  6
Continuous
 62
     0
100
AcDbPolyline
 90
        2
 70
     0
 43
0.0
 10
199.9424453038479
 20
312.3332286640769
 10
199.9424453038479
 20
265.083228664077
  0
LWPOLYLINE
  5
101145D
330
1F
100
AcDbEntity
  8
P
  6
Continuous
 62
     0
100
AcDbPolyline
 90
        2
 70
     0
 43
0.0
 10
217.2757786371812
 20
312.9998953307436
 10
217.2757786371812
 20
276.833228664077
  0
MTEXT
  5
101145E
330
1F
100
AcDbEntity
  8
Text
  6
Continuous
 62
     7
100
AcDbMText
 10
59.27577863718124
 20
316.9998953307436
 30
0.0
 40
3.25
 41
3.5
 46
0.0
 71
     4
 72
     5
  1
{\fHelveticaNeueLTPro|b0|i0|c1|p15;1}
 73
     2
 44
1.0
  0
MTEXT
  5
101145F
330
1F
100
AcDbEntity
  8
Text
  6
Continuous
 62
     0
100
AcDbMText
 10
70.69244530384792
 20
316.9998953307436
 30
0.0
 40
3.25
 41
3.5
 46
0.0
 71
     4
 72
     5
  1
{\fHelveticaNeueLTPro|b0|i0|c1|p15;2}
 73
     2
 44
1.0
  0
MTEXT
  5
1011460
330
1F
100
AcDbEntity
  8
Text
  6
Continuous
 62
     0
100
AcDbMText
 10
93.52577863718124
 20
316.9998953307436
 30
0.0
 40
3.25
 41
3.5
 46
0.0
 71
     4
 72
     5
  1
{\fHelveticaNeueLTPro|b0|i0|c1|p15;5}
 73
     2
 44
1.0
  0
MTEXT
  5
1011461
330
1F
100
AcDbEntity
  8
Text
  6
Continuous
 62
     0
100
AcDbMText
 10
106.8591119705146
 20
316.9998953307436
 30
0.0
 40
3.25
 41
3.5
 46
0.0
 71
     4
 72
     5
  1
{\fHelveticaNeueLTPro|b0|i0|c1|p15;6}
 73
     2
 44
1.0
  0
MTEXT
  5
1011462
330
1F
100
AcDbEntity
  8
Text
  6
Continuous
 62
     0
100
AcDbMText
 10
137.2757786371812
 20
316.9165619974103
 30
0.0
 40
3.25
 41
3.5
 46
0.0
 71
     4
 72
     5
  1
{\fHelveticaNeueLTPro|b0|i0|c1|p15;8}
 73
     2
 44
1.0
  0
MTEXT
  5
1011463
330
1F
100
AcDbEntity
  8
Text
  6
Continuous
 62
     0
100
AcDbMText
 10
82.60911197051457
 20
316.9998953307436
 30
0.0
 40
3.25
 41
7.0
 46
0.0
 71
     4
 72
     5
  1
{\fHelveticaNeueLTPro|b0|i0|c1|p15;4 }
 73
     2
 44
1.0
  0
MTEXT
  5
1011464
330
1F
100
AcDbEntity
  8
Text
  6
Continuous
 62
     0
100
AcDbMText
 10
122.1091119705145
 20
316.9998953307436
 30
0.0
 40
3.25
 41
3.5
 46
0.0
 71
     4
 72
     5
  1
{\fHelveticaNeueLTPro|b0|i0|c1|p15;3}
 73
     2
 44
1.0
  0
MTEXT
  5
1011465
330
1F
100
AcDbEntity
  8
Text
  6
Continuous
 62
     0
100
AcDbMText
 10
198.9424453038479
 20
316.9165619974103
 30
0.0
 40
3.25
 41
3.5
 46
0.0
 71
     4
 72
     5
  1
{\fHelveticaNeueLTPro|b0|i0|c1|p15;3}
 73
     2
 44
1.0
  0
HATCH
  5
1011466
330
1F
100
AcDbEntity
  8
H
  6
Continuous
 62
     0
100
AcDbHatch
 10
0.0
 20
0.0
 30
0.0
210
0.0
220
0.0
230
1.0
  2
SOLID
 70
     1
 71
     0
 91
        1
 92
        1
 93
        4
 72
     1
 10
218.7757786371812
 20
265.083228664077
 11
219.7757786371813
 21
265.083228664077
 72
     1
 10
219.7757786371813
 20
265.083228664077
 11
219.7757786371813
 21
266.0832286640769
 72
     1
 10
219.7757786371813
 20
266.0832286640769
 11
218.7757786371812
 21
266.0832286640769
 72
     1
 10
218.7757786371812
 20
266.0832286640769
 11
218.7757786371812
 21
265.083228664077
 97
        0
 75
     0
 76
     1
 98
        0
450
        0
451
        0
460
0.0
461
0.0
452
        1
462
0.0
453
        0
470

  0
LWPOLYLINE
  5
1011467
330
1F
100
AcDbEntity
  8
P
  6
Continuous
 62
     0
100
AcDbPolyline
 90
        2
 70
     0
 43
0.0
 10
219.1924453038479
 20
265.5832286640769
 10
230.3591119705146
 20
265.5832286640769
  0
MTEXT
  5
1011468
330
1F
100
AcDbEntity
  8
Text
  6
Continuous
 62
     0
100
AcDbMText
 10
231.1924453038479
 20
264.9835543647214
 30
0.0
 40
3.25
 41
7.0
 46
0.0
 71
     4
 72
     5
  1
{\fHelveticaNeueLTPro|b0|i0|c1|p15;11}
 73
     2
 44
1.0
  0
MTEXT
  5
1011469
330
1F
100
AcDbEntity
  8
Text
  6
Continuous
 62
     0
100
AcDbMText
 10
216.2757786371813
 20
316.9165619974103
 30
0.0
 40
3.25
 41
3.5
 46
0.0
 71
     4
 72
     5
  1
{\fHelveticaNeueLTPro|b0|i0|c1|p15;9}
 73
     2
 44
1.0
  0
HATCH
  5
101146A
330
1F
100
AcDbEntity
  8
H
  6
Continuous
 62
     0
100
AcDbHatch
 10
0.0
 20
0.0
 30
0.0
210
0.0
220
0.0
230
1.0
  2
SOLID
 70
     1
 71
     0
 91
        1
 92
        1
 93
        4
 72
     1
 10
94.10911197051458
 20
269.4165619974102
 11
95.10911197051457
 21
269.4165619974102
 72
     1
 10
95.10911197051457
 20
269.4165619974102
 11
95.10911197051457
 21
270.4165619974102
 72
     1
 10
95.10911197051457
 20
270.4165619974102
 11
94.10911197051458
 21
270.4165619974102
 72
     1
 10
94.10911197051458
 20
270.4165619974102
 11
94.10911197051458
 21
269.4165619974102
 97
        0
 75
     0
 76
     1
 98
        0
450
        0
451
        0
460
0.0
461
0.0
452
        1
462
0.0
453
        0
470

  0
LWPOLYLINE
  5
101146B
330
1F
100
AcDbEntity
  8
P
  6
Continuous
 62
     0
100
AcDbPolyline
 90
        2
 70
     0
 43
0.0
 10
217.1924453038479
 20
275.4165619974102
 10
219.177685227107
 20
273.4313220741512
  0
LWPOLYLINE
  5
101146C
330
1F
100
AcDbEntity
  8
P
  6
Continuous
 62
     0
100
AcDbPolyline
 90
        2
 70
     0
 43
0.0
 10
216.5896310809055
 20
274.6860428870193
 10
218.8325072954344
 20
272.4431666724904
  0
LWPOLYLINE
  5
101146D
330
1F
100
AcDbEntity
  8
P
  6
Continuous
 62
     0
100
AcDbPolyline
 90
        2
 70
     0
 43
0.0
 10
216.3882377650787
 20
273.5626991740192
 10
218.0082976900942
 20
271.8413855036903
  0
LWPOLYLINE
  5
101146E
330
1F
100
AcDbEntity
  8
P
  6
Continuous
 62
     0
100
AcDbPolyline
 90
        2
 70
     0
 43
0.0
 10
219.1893069046921
 20
273.8300902649211
 10
217.2967197277948
 20
271.9375030880239
  0
LWPOLYLINE
  5
101146F
330
1F
100
AcDbEntity
  8
P
  6
Continuous
 62
     0
100
AcDbPolyline
 90
        2
 70
     0
 43
0.0
 10
218.8620014831486
 20
274.9194515100443
 10
216.6136306119303
 20
272.671080638826
  0
LWPOLYLINE
  5
1011470
330
1F
100
AcDbEntity
  8
P
  6
Continuous
 62
     0
100
AcDbPolyline
 90
        2
 70
     0
 43
0.0
 10
218.1091119705146
 20
275.4998953307436
 10
216.3865629509067
 20
273.7773463111358
  0
HATCH
  5
1011471
330
1F
100
AcDbEntity
  8
H
  6
Continuous
 62
     0
100
AcDbHatch
 10
0.0
 20
0.0
 30
0.0
210
0.0
220
0.0
230
1.0
  2
SOLID
 70
     1
 71
     0
 91
        1
 92
        1
 93
        4
 72
     1
 10
217.2757786371812
 20
273.083228664077
 11
218.2757786371813
 21
273.083228664077
 72
     1
 10
218.2757786371813
 20
273.083228664077
 11
218.2757786371813
 21
274.0832286640769
 72
     1
 10
218.2757786371813
 20
274.0832286640769
 11
217.2757786371812
 21
274.0832286640769
 72
     1
 10
217.2757786371812
 20
274.0832286640769
 11
217.2757786371812
 21
273.083228664077
 97
        0
 75
     0
 76
     1
 98
        0
450
        0
451
        0
460
0.0
461
0.0
452
        1
462
0.0
453
        0
470

  0
LWPOLYLINE
  5
1011472
330
1F
100
AcDbEntity
  8
P
  6
Continuous
 62
     0
100
AcDbPolyline
 90
        2
 70
     0
 43
0.0
 10
217.7757786371813
 20
273.583228664077
 10
230.3591119705146
 20
273.583228664077
  0
MTEXT
  5
1011473
330
1F
100
AcDbEntity
  8
Text
  6
Continuous
 62
     0
100
AcDbMText
 10
231.1924453038479
 20
272.900221031388
 30
0.0
 40
3.25
 41
7.0
 46
0.0
 71
     4
 72
     5
  1
{\fHelveticaNeueLTPro|b0|i0|c1|p15;10}
 73
     2
 44
1.0
  0
MTEXT
  5
1011474
330
1F
100
AcDbEntity
  8
Text
  6
Continuous
 62
     0
100
AcDbMText
 10
131.6091119705146
 20
84.83322866407689
 30
0.0
 40
3.75
 41
136.0
 46
0.0
 71
     4
 72
     5
  1
{\fHelveticaNeueLTPro|b0|i0|c0|p15;geeignetes Fugenhinterfüllmaterial}
 73
     2
 44
1.0
  0
MTEXT
  5
1011475
330
1F
100
AcDbEntity
  8
Text
  6
Continuous
 62
     7
100
AcDbMText
 10
123.6091119705146
 20
84.83322866407689
 30
0.0
 40
3.25
 41
7.0
 46
0.0
 71
     4
 72
     5
  1
{\fHelveticaNeueLTPro|b0|i0|c1|p15;10}
 73
     2
 44
1.0
  0
MTEXT
  5
1011476
330
1F
100
AcDbEntity
  8
Text
  6
Continuous
 62
     0
100
AcDbMText
 10
131.6091119705146
 20
74.16656199741026
 30
0.0
 40
3.75
 41
116.0
 46
0.0
 71
     4
 72
     5
  1
{\fHelveticaNeueLTPro|b0|i0|c0|p15;geeignetes Randabschlussprofil}
 73
     2
 44
1.0
  0
MTEXT
  5
1011477
330
1F
100
AcDbEntity
  8
Text
  6
Continuous
 62
     7
100
AcDbMText
 10
123.6091119705146
 20
74.16656199741026
 30
0.0
 40
3.25
 41
7.0
 46
0.0
 71
     4
 72
     5
  1
{\fHelveticaNeueLTPro|b0|i0|c1|p15;11}
 73
     2
 44
1.0
  0
ELLIPSE
  5
1011478
330
1F
100
AcDbEntity
  8
0
  6
ByBlock
 62
     0
100
AcDbEllipse
 10
217.7883665720372
 20
273.7040635700177
 30
0.0
 11
0.0
 21
-1.885957970396191
 31
0.0
210
0.0
220
0.0
230
1.0
 40
0.7444909981295961
 41
0.0
 42
6.283185307179586
  0
ENDSEC
  0
SECTION
  2
OBJECTS
  0
DICTIONARY
  5
C
330
0
100
AcDbDictionary
281
     1
  3
ACAD_CIP_PREVIOUS_PRODUCT_INFO
350
10051
  3
ACAD_COLOR
350
10034
  3
ACAD_DETAILVIEWSTYLE
350
1004D
  3
ACAD_GROUP
350
D
  3
ACAD_LAYOUT
350
1A
  3
ACAD_MATERIAL
350
10002
  3
ACAD_MLEADERSTYLE
350
10049
  3
ACAD_MLINESTYLE
350
17
  3
ACAD_PLOTSETTINGS
350
19
  3
ACAD_PLOTSTYLENAME
350
E
  3
ACAD_SCALELIST
350
10037
  3
ACAD_SECTIONVIEWSTYLE
350
1004B
  3
ACAD_TABLESTYLE
350
10035
  3
ACAD_VISUALSTYLE
350
1001B
  3
ACDB_RECOMPOSE_DATA
350
1011485
  3
AcDbVariableDictionary
350
2D6
  0
DICTIONARY
  5
100FC
330
8
100
AcDbDictionary
280
     1
281
     1
  0
DICTIONARY
  5
101018B
330
2
100
AcDbDictionary
280
     1
281
     1
  3
ACAD_LAYERSTATES
360
101018C
  0
DICTIONARY
  5
10059
330
10
100
AcDbDictionary
280
     1
281
     1
  3
ADSK_XREC_LAYER_RECONCILED
360
1005A
  0
DICTIONARY
  5
1005B
330
47
100
AcDbDictionary
280
     1
281
     1
  3
ADSK_XREC_LAYER_RECONCILED
360
1005C
  0
DICTIONARY
  5
1005D
330
48
100
AcDbDictionary
280
     1
281
     1
  3
ADSK_XREC_LAYER_RECONCILED
360
1005E
  0
DICTIONARY
  5
1005F
330
49
100
AcDbDictionary
280
     1
281
     1
  3
ADSK_XREC_LAYER_RECONCILED
360
10060
  0
DICTIONARY
  5
10061
330
4A
100
AcDbDictionary
280
     1
281
     1
  3
ADSK_XREC_LAYER_RECONCILED
360
10062
  0
XRECORD
  5
10051
102
{ACAD_REACTORS
330
C
102
}
330
C
100
AcDbXrecord
280
     1
300
ACDLT
300
2017
300
ACDLT_F_S
  0
DICTIONARY
  5
10034
102
{ACAD_REACTORS
330
C
102
}
330
C
100
AcDbDictionary
281
     1
  0
DICTIONARY
  5
1004D
102
{ACAD_REACTORS
330
C
102
}
330
C
100
AcDbDictionary
281
     1
  3
Imperial24
350
1004E
  0
DICTIONARY
  5
D
330
C
100
AcDbDictionary
281
     1
  0
DICTIONARY
  5
1A
330
C
100
AcDbDictionary
281
     1
  3
Layout1
350
1E
  3
Layout2
350
26
  3
Model
350
22
  0
DICTIONARY
  5
10002
102
{ACAD_REACTORS
330
C
102
}
330
C
100
AcDbDictionary
281
     1
  3
ByBlock
350
1000B
  3
ByLayer
350
10003
  3
Global
350
10013
  0
DICTIONARY
  5
10049
102
{ACAD_REACTORS
330
C
102
}
330
C
100
AcDbDictionary
281
     1
  3
Standard
350
1004A
  0
DICTIONARY
  5
17
330
C
100
AcDbDictionary
281
     1
  3
Standard
350
18
  0
DICTIONARY
  5
19
330
C
100
AcDbDictionary
281
     1
  0
ACDBDICTIONARYWDFLT
  5
E
330
C
100
AcDbDictionary
281
     1
  3
Normal
350
F
100
AcDbDictionaryWithDefault
340
F
  0
DICTIONARY
  5
10037
102
{ACAD_REACTORS
330
C
102
}
330
C
100
AcDbDictionary
281
     1
  3
A0
350
10038
  3
A1
350
10039
  3
A2
350
1003A
  3
A3
350
1003B
  3
A4
350
1003C
  3
A5
350
1003D
  3
A6
350
1003E
  3
A7
350
1003F
  3
A8
350
10040
  3
A9
350
10041
  3
B0
350
10042
  3
B1
350
10043
  3
B2
350
10044
  3
B3
350
10045
  3
B4
350
10046
  3
B5
350
10047
  3
B6
350
10048
  0
DICTIONARY
  5
1004B
102
{ACAD_REACTORS
330
C
102
}
330
C
100
AcDbDictionary
281
     1
  3
Imperial24
350
1004C
  0
DICTIONARY
  5
10035
102
{ACAD_REACTORS
330
C
102
}
330
C
100
AcDbDictionary
281
     1
  3
Standard
350
10036
  0
DICTIONARY
  5
1001B
102
{ACAD_REACTORS
330
C
102
}
330
C
100
AcDbDictionary
281
     1
  3
2dWireframe
350
10021
  3
Basic
350
10020
  3
Brighten
350
10027
  3
ColorChange
350
1002B
  3
Conceptual
350
10024
  3
Dim
350
10026
  3
EdgeColorOff
350
10033
  3
Facepattern
350
1002A
  3
Flat
350
1001C
  3
FlatWithEdges
350
1001D
  3
Gouraud
350
1001E
  3
GouraudWithEdges
350
1001F
  3
Hidden
350
10023
  3
JitterOff
350
10031
  3
Linepattern
350
10029
  3
OverhangOff
350
10032
  3
Realistic
350
10025
  3
Shaded
350
10030
  3
Shaded with edges
350
1002F
  3
Shades of Gray
350
1002C
  3
Sketchy
350
1002D
  3
Thicken
350
10028
  3
Wireframe
350
10022
  3
X-Ray
350
1002E
  0
XRECORD
  5
1011485
102
{ACAD_REACTORS
330
C
102
}
330
C
100
AcDbXrecord
280
     1
 90
        1
330
10036
330
1004C
330
1004E
  0
DICTIONARY
  5
2D6
330
C
100
AcDbDictionary
281
     1
  3
CANNOSCALE
350
10067
  3
CMLEADERSTYLE
350
10064
  3
CTABLESTYLE
350
10063
  3
CVIEWDETAILSTYLE
350
10065
  3
CVIEWSECTIONSTYLE
350
10066
  3
DIMASSOC
350
2D8
  3
HIDETEXT
350
2D7
  3
INDEXCTL
350
10069
  3
LAYEREVAL
350
1011082
  3
LAYERNOTIFY
350
1011083
  3
LIGHTINGUNITS
350
1011081
  3
MSLTSCALE
350
1011080
  3
SORTENTS
350
10068
  0
DICTIONARY
  5
101018C
102
{ACAD_REACTORS
330
101018B
102
}
330
101018B
100
AcDbDictionary
281
     1
  0
XRECORD
  5
1005A
102
{ACAD_REACTORS
330
10059
102
}
330
10059
100
AcDbXrecord
280
     1
290
     1
  0
XRECORD
  5
1005C
102
{ACAD_REACTORS
330
1005B
102
}
330
1005B
100
AcDbXrecord
280
     1
290
     1
  0
XRECORD
  5
1005E
102
{ACAD_REACTORS
330
1005D
102
}
330
1005D
100
AcDbXrecord
280
     1
290
     1
  0
XRECORD
  5
10060
102
{ACAD_REACTORS
330
1005F
102
}
330
1005F
100
AcDbXrecord
280
     1
290
     1
  0
XRECORD
  5
10062
102
{ACAD_REACTORS
330
10061
102
}
330
10061
100
AcDbXrecord
280
     1
290
     1
  0
ACDBDETAILVIEWSTYLE
  5
1004E
102
{ACAD_XDICTIONARY
360
101107D
102
}
102
{ACAD_REACTORS
330
1004D
102
}
330
1004D
100
AcDbModelDocViewStyle
 70
     0
  3
Imperial24
290
     0
100
AcDbDetailViewStyle
 70
     0
 71
     0
 90
        3
 71
     1
340
11
 62
   256
 40
0.24
340
0
 62
   256
 40
0.24
300

 40
0.36
280
     3
 71
     2
340
16
 90
       25
 62
   256
 71
     3
340
11
 62
   256
 40
0.24
 90
        1
 40
0.75
 90
        1
300
%<\AcVar ViewType \f "%tc1">% %<\AcVar ViewDetailId>%\PVARIA %<\AcVar ViewScale \f "%sn">%
 71
     4
340
16
 90
       25
 62
   256
340
16
 90
       25
 62
   256
280
     0
  0
LAYOUT
  5
1E
330
1A
100
AcDbPlotSettings
  1

  2
C:\Program Files\AutoCAD 2002\plotters\DWF ePlot (optimized for plotting).pc3
  4

  6

 40
0.0
 41
0.0
 42
0.0
 43
0.0
 44
0.0
 45
0.0
 46
0.0
 47
0.0
 48
0.0
 49
0.0
140
0.0
141
0.0
142
1.0
143
1.0
 70
   688
 72
     0
 73
     0
 74
     5
  7

 75
    16
147
1.0
 76
     0
 77
     2
 78
   300
148
0.0
149
0.0
100
AcDbLayout
  1
Layout1
 70
     1
 71
     1
 10
0.0
 20
0.0
 11
12.0
 21
9.0
 12
0.0
 22
0.0
 32
0.0
 14
1.000000000000000E+20
 24
1.000000000000000E+20
 34
1.000000000000000E+20
 15
-1.000000000000000E+20
 25
-1.000000000000000E+20
 35
-1.000000000000000E+20
146
0.0
 13
0.0
 23
0.0
 33
0.0
 16
1.0
 26
0.0
 36
0.0
 17
0.0
 27
1.0
 37
0.0
 76
     0
330
1B
  0
LAYOUT
  5
26
330
1A
100
AcDbPlotSettings
  1

  2
C:\Program Files\AutoCAD 2002\plotters\DWF ePlot (optimized for plotting).pc3
  4

  6

 40
0.0
 41
0.0
 42
0.0
 43
0.0
 44
0.0
 45
0.0
 46
0.0
 47
0.0
 48
0.0
 49
0.0
140
0.0
141
0.0
142
1.0
143
1.0
 70
   688
 72
     0
 73
     0
 74
     5
  7

 75
    16
147
1.0
 76
     0
 77
     2
 78
   300
148
0.0
149
0.0
100
AcDbLayout
  1
Layout2
 70
     1
 71
     2
 10
0.0
 20
0.0
 11
12.0
 21
9.0
 12
0.0
 22
0.0
 32
0.0
 14
0.0
 24
0.0
 34
0.0
 15
0.0
 25
0.0
 35
0.0
146
0.0
 13
0.0
 23
0.0
 33
0.0
 16
1.0
 26
0.0
 36
0.0
 17
0.0
 27
1.0
 37
0.0
 76
     0
330
23
  0
LAYOUT
  5
22
330
1A
100
AcDbPlotSettings
  1

  2
C:\Program Files\AutoCAD 2002\plotters\DWF ePlot (optimized for plotting).pc3
  4

  6

 40
0.0
 41
0.0
 42
0.0
 43
0.0
 44
0.0
 45
0.0
 46
0.0
 47
0.0
 48
0.0
 49
0.0
140
0.0
141
0.0
142
1.0
143
1.0
 70
  1712
 72
     0
 73
     0
 74
     0
  7

 75
     0
147
1.0
 76
     0
 77
     2
 78
   300
148
0.0
149
0.0
100
AcDbLayout
  1
Model
 70
     1
 71
     0
 10
0.0
 20
0.0
 11
12.0
 21
9.0
 12
0.0
 22
0.0
 32
0.0
 14
0.0
 24
0.0
 34
0.0
 15
0.0
 25
0.0
 35
0.0
146
0.0
 13
0.0
 23
0.0
 33
0.0
 16
1.0
 26
0.0
 36
0.0
 17
0.0
 27
1.0
 37
0.0
 76
     0
330
1F
331
30
  0
MATERIAL
  5
1000B
102
{ACAD_XDICTIONARY
360
1000C
102
}
102
{ACAD_REACTORS
330
10002
102
}
330
10002
100
AcDbMaterial
  1
ByBlock
 72
     0
 43
0.0208333333333333
 43
0.0
 43
0.0
 43
0.0
 43
0.0
 43
0.0208333333333333
 43
0.0
 43
0.0
 43
0.0
 43
0.0
 43
1.0
 43
0.0
 43
0.0
 43
0.0
 43
0.0
 43
1.0
 77
     0
 47
0.0208333333333333
 47
0.0
 47
0.0
 47
0.0
 47
0.0
 47
0.0208333333333333
 47
0.0
 47
0.0
 47
0.0
 47
0.0
 47
1.0
 47
0.0
 47
0.0
 47
0.0
 47
0.0
 47
1.0
171
     0
 49
0.0208333333333333
 49
0.0
 49
0.0
 49
0.0
 49
0.0
 49
0.0208333333333333
 49
0.0
 49
0.0
 49
0.0
 49
0.0
 49
1.0
 49
0.0
 49
0.0
 49
0.0
 49
0.0
 49
1.0
175
     0
142
0.0208333333333333
142
0.0
142
0.0
142
0.0
142
0.0
142
0.0208333333333333
142
0.0
142
0.0
142
0.0
142
0.0
142
1.0
142
0.0
142
0.0
142
0.0
142
0.0
142
1.0
179
     0
144
0.0208333333333333
144
0.0
144
0.0
144
0.0
144
0.0
144
0.0208333333333333
144
0.0
144
0.0
144
0.0
144
0.0
144
1.0
144
0.0
144
0.0
144
0.0
144
0.0
144
1.0
147
0.0208333333333333
147
0.0
147
0.0
147
0.0
147
0.0
147
0.0208333333333333
147
0.0
147
0.0
147
0.0
147
0.0
147
1.0
147
0.0
147
0.0
147
0.0
147
0.0
147
1.0
  0
MATERIAL
  5
10003
102
{ACAD_XDICTIONARY
360
10004
102
}
102
{ACAD_REACTORS
330
10002
102
}
330
10002
100
AcDbMaterial
  1
ByLayer
 72
     0
 43
0.0208333333333333
 43
0.0
 43
0.0
 43
0.0
 43
0.0
 43
0.0208333333333333
 43
0.0
 43
0.0
 43
0.0
 43
0.0
 43
1.0
 43
0.0
 43
0.0
 43
0.0
 43
0.0
 43
1.0
 77
     0
 47
0.0208333333333333
 47
0.0
 47
0.0
 47
0.0
 47
0.0
 47
0.0208333333333333
 47
0.0
 47
0.0
 47
0.0
 47
0.0
 47
1.0
 47
0.0
 47
0.0
 47
0.0
 47
0.0
 47
1.0
171
     0
 49
0.0208333333333333
 49
0.0
 49
0.0
 49
0.0
 49
0.0
 49
0.0208333333333333
 49
0.0
 49
0.0
 49
0.0
 49
0.0
 49
1.0
 49
0.0
 49
0.0
 49
0.0
 49
0.0
 49
1.0
175
     0
142
0.0208333333333333
142
0.0
142
0.0
142
0.0
142
0.0
142
0.0208333333333333
142
0.0
142
0.0
142
0.0
142
0.0
142
1.0
142
0.0
142
0.0
142
0.0
142
0.0
142
1.0
179
     0
144
0.0208333333333333
144
0.0
144
0.0
144
0.0
144
0.0
144
0.0208333333333333
144
0.0
144
0.0
144
0.0
144
0.0
144
1.0
144
0.0
144
0.0
144
0.0
144
0.0
144
1.0
147
0.0208333333333333
147
0.0
147
0.0
147
0.0
147
0.0
147
0.0208333333333333
147
0.0
147
0.0
147
0.0
147
0.0
147
1.0
147
0.0
147
0.0
147
0.0
147
0.0
147
1.0
  0
MATERIAL
  5
10013
102
{ACAD_XDICTIONARY
360
10014
102
}
102
{ACAD_REACTORS
330
10002
102
}
330
10002
100
AcDbMaterial
  1
Global
 72
     0
 43
0.0208333333333333
 43
0.0
 43
0.0
 43
0.0
 43
0.0
 43
0.0208333333333333
 43
0.0
 43
0.0
 43
0.0
 43
0.0
 43
1.0
 43
0.0
 43
0.0
 43
0.0
 43
0.0
 43
1.0
 77
     0
 47
0.0208333333333333
 47
0.0
 47
0.0
 47
0.0
 47
0.0
 47
0.0208333333333333
 47
0.0
 47
0.0
 47
0.0
 47
0.0
 47
1.0
 47
0.0
 47
0.0
 47
0.0
 47
0.0
 47
1.0
171
     0
 49
0.0208333333333333
 49
0.0
 49
0.0
 49
0.0
 49
0.0
 49
0.0208333333333333
 49
0.0
 49
0.0
 49
0.0
 49
0.0
 49
1.0
 49
0.0
 49
0.0
 49
0.0
 49
0.0
 49
1.0
175
     0
142
0.0208333333333333
142
0.0
142
0.0
142
0.0
142
0.0
142
0.0208333333333333
142
0.0
142
0.0
142
0.0
142
0.0
142
1.0
142
0.0
142
0.0
142
0.0
142
0.0
142
1.0
179
     0
144
0.0208333333333333
144
0.0
144
0.0
144
0.0
144
0.0
144
0.0208333333333333
144
0.0
144
0.0
144
0.0
144
0.0
144
1.0
144
0.0
144
0.0
144
0.0
144
0.0
144
1.0
147
0.0208333333333333
147
0.0
147
0.0
147
0.0
147
0.0
147
0.0208333333333333
147
0.0
147
0.0
147
0.0
147
0.0
147
1.0
147
0.0
147
0.0
147
0.0
147
0.0
147
1.0
  0
MLEADERSTYLE
  5
1004A
102
{ACAD_REACTORS
330
10049
102
}
330
10049
100
AcDbMLeaderStyle
179
     2
170
     2
171
     1
172
     0
 90
        2
 40
0.0
 41
0.0
173
     1
 91
-1056964608
340
14
 92
       -2
290
     1
 42
0.09
291
     1
 43
0.36
  3
Standard
 44
0.18
300

342
11
174
     1
178
     6
175
     1
176
     0
 93
-1056964608
 45
0.18
292
     0
297
     0
 46
0.18
 94
-1056964608
 47
1.0
 49
1.0
140
1.0
293
     1
141
0.0
294
     1
177
     0
142
1.0
295
     0
296
     0
143
0.125
271
     0
272
     9
273
     9
298
     0
  0
MLINESTYLE
  5
18
330
17
100
AcDbMlineStyle
  2
STANDARD
 70
     0
  3

 62
   256
 51
90.0
 52
90.0
 71
     2
 49
0.5
 62
   256
  6
BYLAYER
 49
-0.5
 62
   256
  6
BYLAYER
  0
ACDBPLACEHOLDER
  5
F
330
E
  0
SCALE
  5
10038
102
{ACAD_REACTORS
330
10037
102
}
330
10037
100
AcDbScale
 70
     0
300
1:1
140
1.0
141
1.0
290
     1
  0
SCALE
  5
10039
102
{ACAD_REACTORS
330
10037
102
}
330
10037
100
AcDbScale
 70
     0
300
1/128" = 1'-0"
140
0.0078125
141
12.0
290
     0
  0
SCALE
  5
1003A
102
{ACAD_REACTORS
330
10037
102
}
330
10037
100
AcDbScale
 70
     0
300
1/64" = 1'-0"
140
0.015625
141
12.0
290
     0
  0
SCALE
  5
1003B
102
{ACAD_REACTORS
330
10037
102
}
330
10037
100
AcDbScale
 70
     0
300
1/32" = 1'-0"
140
0.03125
141
12.0
290
     0
  0
SCALE
  5
1003C
102
{ACAD_REACTORS
330
10037
102
}
330
10037
100
AcDbScale
 70
     0
300
1/16" = 1'-0"
140
0.0625
141
12.0
290
     0
  0
SCALE
  5
1003D
102
{ACAD_REACTORS
330
10037
102
}
330
10037
100
AcDbScale
 70
     0
300
3/32" = 1'-0"
140
0.09375
141
12.0
290
     0
  0
SCALE
  5
1003E
102
{ACAD_REACTORS
330
10037
102
}
330
10037
100
AcDbScale
 70
     0
300
1/8" = 1'-0"
140
0.125
141
12.0
290
     0
  0
SCALE
  5
1003F
102
{ACAD_REACTORS
330
10037
102
}
330
10037
100
AcDbScale
 70
     0
300
3/16" = 1'-0"
140
0.1875
141
12.0
290
     0
  0
SCALE
  5
10040
102
{ACAD_REACTORS
330
10037
102
}
330
10037
100
AcDbScale
 70
     0
300
1/4" = 1'-0"
140
0.25
141
12.0
290
     0
  0
SCALE
  5
10041
102
{ACAD_REACTORS
330
10037
102
}
330
10037
100
AcDbScale
 70
     0
300
3/8" = 1'-0"
140
0.375
141
12.0
290
     0
  0
SCALE
  5
10042
102
{ACAD_REACTORS
330
10037
102
}
330
10037
100
AcDbScale
 70
     0
300
1/2" = 1'-0"
140
0.5
141
12.0
290
     0
  0
SCALE
  5
10043
102
{ACAD_REACTORS
330
10037
102
}
330
10037
100
AcDbScale
 70
     0
300
3/4" = 1'-0"
140
0.75
141
12.0
290
     0
  0
SCALE
  5
10044
102
{ACAD_REACTORS
330
10037
102
}
330
10037
100
AcDbScale
 70
     0
300
1" = 1'-0"
140
1.0
141
12.0
290
     0
  0
SCALE
  5
10045
102
{ACAD_REACTORS
330
10037
102
}
330
10037
100
AcDbScale
 70
     0
300
1-1/2" = 1'-0"
140
1.5
141
12.0
290
     0
  0
SCALE
  5
10046
102
{ACAD_REACTORS
330
10037
102
}
330
10037
100
AcDbScale
 70
     0
300
3" = 1'-0"
140
3.0
141
12.0
290
     0
  0
SCALE
  5
10047
102
{ACAD_REACTORS
330
10037
102
}
330
10037
100
AcDbScale
 70
     0
300
6" = 1'-0"
140
6.0
141
12.0
290
     0
  0
SCALE
  5
10048
102
{ACAD_REACTORS
330
10037
102
}
330
10037
100
AcDbScale
 70
     0
300
1'-0" = 1'-0"
140
12.0
141
12.0
290
     0
  0
ACDBSECTIONVIEWSTYLE
  5
1004C
102
{ACAD_XDICTIONARY
360
101107B
102
}
102
{ACAD_REACTORS
330
1004B
102
}
330
1004B
100
AcDbModelDocViewStyle
 70
     0
  3
Imperial24
290
     0
100
AcDbSectionViewStyle
 70
     0
 71
     0
 90
       78
 71
     1
340
11
 62
   256
 40
0.24
340
0
340
0
 62
   256
 40
0.24
300
I, O, Q, S, X, Z
 40
0.48
 90
        3
 40
0.18
 90
        1
 71
     2
340
16
 90
       25
 62
   256
340
16
 90
       50
 62
   256
 40
0.24
 40
0.0
 40
0.24
 71
     3
340
11
 62
   256
 40
0.24
 90
        1
 40
0.75
 90
        1
300
%<\AcVar ViewType \f "%tc1">% %<\AcVar ViewSectionStartId>%-%<\AcVar ViewSectionEndId>%\PVARIA %<\AcVar ViewScale \f "%sn">%
 71
     4
 62
   256
 62
   257
300
ANSI31
 40
1.0
 90
        0
290
     0
290
     0
 90
        6
 40
0.0
 40
1.570796326794896
 40
0.2617993877991494
 40
1.308996938995747
 40
-0.2617993877991494
 40
1.832595714594045
  0
TABLESTYLE
  5
10036
102
{ACAD_XDICTIONARY
360
1006C
102
}
102
{ACAD_REACTORS
330
10035
102
}
330
10035
100
AcDbTableStyle
280
     0
  3
Standard
 70
     0
 71
     0
 40
0.06
 41
0.06
280
     0
281
     0
  7
Standard
140
0.18
170
     2
 62
     0
 63
     7
283
     0
 90
      512
 91
        0
  1

274
    -2
284
     1
 64
     0
275
    -2
285
     1
 65
     0
276
    -2
286
     1
 66
     0
277
    -2
287
     1
 67
     0
278
    -2
288
     1
 68
     0
279
    -2
289
     1
 69
     0
  7
Standard
140
0.25
170
     5
 62
     0
 63
     7
283
     0
 90
      512
 91
        0
  1

274
    -2
284
     1
 64
     0
275
    -2
285
     1
 65
     0
276
    -2
286
     1
 66
     0
277
    -2
287
     1
 67
     0
278
    -2
288
     1
 68
     0
279
    -2
289
     1
 69
     0
  7
Standard
140
0.18
170
     5
 62
     0
 63
     7
283
     0
 90
      512
 91
        0
  1

274
    -2
284
     1
 64
     0
275
    -2
285
     1
 65
     0
276
    -2
286
     1
 66
     0
277
    -2
287
     1
 67
     0
278
    -2
288
     1
 68
     0
279
    -2
289
     1
 69
     0
  0
VISUALSTYLE
  5
10021
102
{ACAD_REACTORS
330
1001B
102
}
330
1001B
100
AcDbVisualStyle
  2

 70
     4
177
     3
291
     0
 70
    58
 90
        0
176
     1
 90
        2
176
     1
 90
        0
176
     1
 90
        0
176
     1
 40
0.6
176
     1
 40
30.0
176
     1
 62
     7
176
     1
 90
        1
176
     1
 90
        4
176
     1
 62
     7
176
     1
 62
   257
176
     1
 90
        1
176
     1
 90
        1
176
     1
 40
1.0
176
     1
 90
        0
176
     1
 62
   257
176
     1
 40
1.0
176
     1
 90
        1
176
     1
 90
        6
176
     1
 90
        2
176
     1
 62
     7
176
     1
 90
        5
176
     1
 90
        0
176
     1
 90
        0
176
     1
290
     0
176
     1
 90
        1
176
     1
 40
0.0
176
     1
 90
        0
176
     1
290
     1
176
     1
290
     1
176
     1
290
     0
176
     1
290
     0
176
     1
290
     0
176
     1
290
     0
176
     1
290
     0
176
     1
290
     0
176
     1
290
     0
176
     1
 90
       50
176
     1
 40
0.0
176
     1
 40
1.0
176
     1
 90
        0
176
     1
 62
    18
420
        0
176
     1
 90
       50
176
     1
 90
        3
176
     1
 62
     5
420
      255
176
     1
290
     0
176
     1
 90
       50
176
     1
 90
       50
176
     1
 90
       50
176
     1
290
     0
176
     1
 90
       50
176
     1
 62
   256
176
     0
 40
1.0
176
     0
 90
        2
176
     1
  1
strokes_ogs.tif
176
     1
290
     0
176
     1
 40
1.0
176
     1
 40
1.0
176
     1
  0
VISUALSTYLE
  5
10020
102
{ACAD_REACTORS
330
1001B
102
}
330
1001B
100
AcDbVisualStyle
  2

 70
     7
177
     3
291
     1
 70
    58
 90
        1
176
     1
 90
        0
176
     1
 90
        1
176
     1
 90
        0
176
     1
 40
0.6
176
     1
 40
30.0
176
     1
 62
     7
176
     1
 90
        0
176
     1
 90
        4
176
     1
 62
     7
176
     1
 62
   257
176
     1
 90
        1
176
     1
 90
        1
176
     1
 40
1.0
176
     1
 90
        8
176
     1
 62
     7
176
     1
 40
1.0
176
     1
 90
        1
176
     1
 90
        6
176
     1
 90
        2
176
     1
 62
     7
176
     1
 90
        5
176
     1
 90
        0
176
     1
 90
        0
176
     1
290
     0
176
     1
 90
        1
176
     1
 40
0.0
176
     1
 90
        0
176
     1
290
     0
176
     1
290
     1
176
     1
290
     1
176
     1
290
     0
176
     1
290
     0
176
     1
290
     0
176
     1
290
     0
176
     1
290
     0
176
     1
290
     0
176
     1
 90
       50
176
     1
 40
0.0
176
     1
 40
1.0
176
     1
 90
        0
176
     1
 62
    18
420
        0
176
     1
 90
       50
176
     1
 90
        3
176
     1
 62
     5
420
      255
176
     1
290
     0
176
     1
 90
       50
176
     1
 90
       50
176
     1
 90
       50
176
     1
290
     0
176
     1
 90
       50
176
     1
 62
   256
176
     0
 40
1.0
176
     0
 90
        2
176
     1
  1
strokes_ogs.tif
176
     1
290
     0
176
     1
 40
1.0
176
     1
 40
1.0
176
     1
  0
VISUALSTYLE
  5
10027
102
{ACAD_REACTORS
330
1001B
102
}
330
1001B
100
AcDbVisualStyle
  2

 70
    12
177
     3
291
     1
 70
    58
 90
        2
176
     1
 90
        2
176
     1
 90
        0
176
     1
 90
        0
176
     1
 40
0.6
176
     1
 40
30.0
176
     1
 62
     7
176
     1
 90
        1
176
     1
 90
        4
176
     1
 62
     7
176
     1
 62
   257
176
     1
 90
        1
176
     1
 90
        1
176
     1
 40
1.0
176
     1
 90
        8
176
     1
 62
     7
176
     1
 40
1.0
176
     1
 90
        1
176
     1
 90
        6
176
     1
 90
        2
176
     1
 62
     7
176
     1
 90
        5
176
     1
 90
        0
176
     1
 90
        0
176
     1
290
     0
176
     1
 90
        1
176
     1
 40
50.0
176
     1
 90
        0
176
     1
290
     0
176
     1
290
     1
176
     1
290
     1
176
     1
290
     0
176
     1
290
     0
176
     1
290
     0
176
     1
290
     0
176
     1
290
     0
176
     1
290
     0
176
     1
 90
       50
176
     1
 40
0.0
176
     1
 40
1.0
176
     1
 90
        0
176
     1
 62
    18
420
        0
176
     1
 90
       50
176
     1
 90
        3
176
     1
 62
     5
420
      255
176
     1
290
     0
176
     1
 90
       50
176
     1
 90
       50
176
     1
 90
       50
176
     1
290
     0
176
     1
 90
       50
176
     1
 62
   256
176
     0
 40
1.0
176
     0
 90
        2
176
     1
  1
strokes_ogs.tif
176
     1
290
     0
176
     1
 40
1.0
176
     1
 40
1.0
176
     1
  0
VISUALSTYLE
  5
1002B
102
{ACAD_REACTORS
330
1001B
102
}
330
1001B
100
AcDbVisualStyle
  2

 70
    16
177
     3
291
     1
 70
    58
 90
        2
176
     1
 90
        2
176
     1
 90
        3
176
     1
 90
        0
176
     1
 40
0.6
176
     1
 40
30.0
176
     1
 62
     8
176
     1
 90
        1
176
     1
 90
        4
176
     1
 62
     7
176
     1
 62
   257
176
     1
 90
        1
176
     1
 90
        1
176
     1
 40
1.0
176
     1
 90
        8
176
     1
 62
     8
176
     1
 40
1.0
176
     1
 90
        1
176
     1
 90
        6
176
     1
 90
        2
176
     1
 62
     7
176
     1
 90
        5
176
     1
 90
        0
176
     1
 90
        0
176
     1
290
     0
176
     1
 90
        1
176
     1
 40
0.0
176
     1
 90
        0
176
     1
290
     0
176
     1
290
     1
176
     1
290
     1
176
     1
290
     0
176
     1
290
     0
176
     1
290
     0
176
     1
290
     0
176
     1
290
     0
176
     1
290
     0
176
     1
 90
       50
176
     1
 40
0.0
176
     1
 40
1.0
176
     1
 90
        0
176
     1
 62
    18
420
        0
176
     1
 90
       50
176
     1
 90
        3
176
     1
 62
     5
420
      255
176
     1
290
     0
176
     1
 90
       50
176
     1
 90
       50
176
     1
 90
       50
176
     1
290
     0
176
     1
 90
       50
176
     1
 62
   256
176
     0
 40
1.0
176
     0
 90
        2
176
     1
  1
strokes_ogs.tif
176
     1
290
     0
176
     1
 40
1.0
176
     1
 40
1.0
176
     1
  0
VISUALSTYLE
  5
10024
102
{ACAD_REACTORS
330
1001B
102
}
330
1001B
100
AcDbVisualStyle
  2

 70
     9
177
     3
291
     0
 70
    58
 90
        3
176
     1
 90
        2
176
     1
 90
        0
176
     1
 90
        0
176
     1
 40
0.6
176
     1
 40
30.0
176
     1
 62
     7
176
     1
 90
        2
176
     1
 90
        2
176
     1
 62
     7
176
     1
 62
   257
176
     1
 90
        1
176
     1
 90
        1
176
     1
 40
179.0
176
     1
 90
        8
176
     1
 62
     7
176
     1
 40
1.0
176
     1
 90
        1
176
     1
 90
        6
176
     1
 90
        2
176
     1
 62
     7
176
     1
 90
        3
176
     1
 90
        0
176
     1
 90
        0
176
     1
290
     0
176
     1
 90
        1
176
     1
 40
0.0
176
     1
 90
        0
176
     1
290
     0
176
     1
290
     1
176
     1
290
     1
176
     1
290
     0
176
     1
290
     0
176
     1
290
     0
176
     1
290
     0
176
     1
290
     0
176
     1
290
     0
176
     1
 90
       50
176
     1
 40
0.0
176
     1
 40
1.0
176
     1
 90
        0
176
     1
 62
    18
420
        0
176
     1
 90
       50
176
     1
 90
        3
176
     1
 62
     5
420
      255
176
     1
290
     0
176
     1
 90
       50
176
     1
 90
       50
176
     1
 90
       50
176
     1
290
     0
176
     1
 90
       50
176
     1
 62
   256
176
     0
 40
1.0
176
     0
 90
        2
176
     1
  1
strokes_ogs.tif
176
     1
290
     0
176
     1
 40
1.0
176
     1
 40
1.0
176
     1
  0
VISUALSTYLE
  5
10026
102
{ACAD_REACTORS
330
1001B
102
}
330
1001B
100
AcDbVisualStyle
  2

 70
    11
177
     3
291
     1
 70
    58
 90
        2
176
     1
 90
        2
176
     1
 90
        0
176
     1
 90
        0
176
     1
 40
0.6
176
     1
 40
30.0
176
     1
 62
     7
176
     1
 90
        1
176
     1
 90
        4
176
     1
 62
     7
176
     1
 62
   257
176
     1
 90
        1
176
     1
 90
        1
176
     1
 40
1.0
176
     1
 90
        8
176
     1
 62
     7
176
     1
 40
1.0
176
     1
 90
        1
176
     1
 90
        6
176
     1
 90
        2
176
     1
 62
     7
176
     1
 90
        5
176
     1
 90
        0
176
     1
 90
        0
176
     1
290
     0
176
     1
 90
        1
176
     1
 40
-50.0
176
     1
 90
        0
176
     1
290
     0
176
     1
290
     1
176
     1
290
     1
176
     1
290
     0
176
     1
290
     0
176
     1
290
     0
176
     1
290
     0
176
     1
290
     0
176
     1
290
     0
176
     1
 90
       50
176
     1
 40
0.0
176
     1
 40
1.0
176
     1
 90
        0
176
     1
 62
    18
420
        0
176
     1
 90
       50
176
     1
 90
        3
176
     1
 62
     5
420
      255
176
     1
290
     0
176
     1
 90
       50
176
     1
 90
       50
176
     1
 90
       50
176
     1
290
     0
176
     1
 90
       50
176
     1
 62
   256
176
     0
 40
1.0
176
     0
 90
        2
176
     1
  1
strokes_ogs.tif
176
     1
290
     0
176
     1
 40
1.0
176
     1
 40
1.0
176
     1
  0
VISUALSTYLE
  5
10033
102
{ACAD_REACTORS
330
1001B
102
}
330
1001B
100
AcDbVisualStyle
  2

 70
    22
177
     3
291
     1
 70
    58
 90
        2
176
     0
 90
        2
176
     0
 90
        0
176
     0
 90
        0
176
     0
 40
0.6
176
     0
 40
30.0
176
     0
 62
     7
176
     0
 90
        1
176
     0
 90
        4
176
     0
 62
     7
176
     0
 62
   257
176
     0
 90
        1
176
     0
 90
        1
176
     0
 40
1.0
176
     0
 90
        8
176
     2
 62
     7
176
     0
 40
1.0
176
     0
 90
        1
176
     0
 90
        6
176
     0
 90
        2
176
     0
 62
     7
176
     0
 90
        5
176
     0
 90
        0
176
     0
 90
        0
176
     0
290
     0
176
     0
 90
        1
176
     0
 40
0.0
176
     0
 90
        0
176
     0
290
     0
176
     1
290
     1
176
     1
290
     1
176
     1
290
     0
176
     1
290
     0
176
     1
290
     0
176
     1
290
     0
176
     1
290
     0
176
     1
290
     0
176
     1
 90
       50
176
     0
 40
0.0
176
     0
 40
1.0
176
     0
 90
        0
176
     0
 62
    18
420
        0
176
     0
 90
       50
176
     0
 90
        3
176
     0
 62
     5
420
      255
176
     0
290
     0
176
     1
 90
       50
176
     0
 90
       50
176
     0
 90
       50
176
     0
290
     0
176
     1
 90
       50
176
     0
 62
   256
176
     0
 40
1.0
176
     0
 90
        2
176
     0
  1
strokes_ogs.tif
176
     0
290
     0
176
     1
 40
1.0
176
     0
 40
1.0
176
     0
  0
VISUALSTYLE
  5
1002A
102
{ACAD_REACTORS
330
1001B
102
}
330
1001B
100
AcDbVisualStyle
  2

 70
    15
177
     3
291
     1
 70
    58
 90
        2
176
     1
 90
        2
176
     1
 90
        0
176
     1
 90
        0
176
     1
 40
0.6
176
     1
 40
30.0
176
     1
 62
     7
176
     1
 90
        1
176
     1
 90
        4
176
     1
 62
     7
176
     1
 62
   257
176
     1
 90
        1
176
     1
 90
        1
176
     1
 40
1.0
176
     1
 90
        8
176
     1
 62
     7
176
     1
 40
1.0
176
     1
 90
        1
176
     1
 90
        6
176
     1
 90
        2
176
     1
 62
     7
176
     1
 90
        5
176
     1
 90
        0
176
     1
 90
        0
176
     1
290
     0
176
     1
 90
        1
176
     1
 40
0.0
176
     1
 90
        0
176
     1
290
     0
176
     1
290
     1
176
     1
290
     1
176
     1
290
     0
176
     1
290
     0
176
     1
290
     0
176
     1
290
     0
176
     1
290
     0
176
     1
290
     0
176
     1
 90
       50
176
     1
 40
0.0
176
     1
 40
1.0
176
     1
 90
        0
176
     1
 62
    18
420
        0
176
     1
 90
       50
176
     1
 90
        3
176
     1
 62
     5
420
      255
176
     1
290
     0
176
     1
 90
       50
176
     1
 90
       50
176
     1
 90
       50
176
     1
290
     0
176
     1
 90
       50
176
     1
 62
   256
176
     0
 40
1.0
176
     0
 90
        2
176
     1
  1
strokes_ogs.tif
176
     1
290
     0
176
     1
 40
1.0
176
     1
 40
1.0
176
     1
  0
VISUALSTYLE
  5
1001C
102
{ACAD_REACTORS
330
1001B
102
}
330
1001B
100
AcDbVisualStyle
  2

 70
     0
177
     3
291
     1
 70
    58
 90
        2
176
     1
 90
        1
176
     1
 90
        1
176
     1
 90
        2
176
     1
 40
0.6
176
     1
 40
30.0
176
     1
 62
     7
176
     1
 90
        0
176
     1
 90
        0
176
     1
 62
     7
176
     1
 62
   257
176
     1
 90
        1
176
     1
 90
        1
176
     1
 40
1.0
176
     1
 90
        8
176
     1
 62
     7
176
     1
 40
1.0
176
     1
 90
        1
176
     1
 90
        6
176
     1
 90
        2
176
     1
 62
     7
176
     1
 90
        5
176
     1
 90
        0
176
     1
 90
        0
176
     1
290
     0
176
     1
 90
       13
176
     1
 40
0.0
176
     1
 90
        0
176
     1
290
     0
176
     1
290
     1
176
     1
290
     1
176
     1
290
     0
176
     1
290
     0
176
     1
290
     0
176
     1
290
     0
176
     1
290
     0
176
     1
290
     0
176
     1
 90
       50
176
     1
 40
0.0
176
     1
 40
1.0
176
     1
 90
        0
176
     1
 62
    18
420
        0
176
     1
 90
       50
176
     1
 90
        3
176
     1
 62
     5
420
      255
176
     1
290
     0
176
     1
 90
       50
176
     1
 90
       50
176
     1
 90
       50
176
     1
290
     0
176
     1
 90
       50
176
     1
 62
   256
176
     0
 40
1.0
176
     0
 90
        2
176
     1
  1
strokes_ogs.tif
176
     1
290
     0
176
     1
 40
1.0
176
     1
 40
1.0
176
     1
  0
VISUALSTYLE
  5
1001D
102
{ACAD_REACTORS
330
1001B
102
}
330
1001B
100
AcDbVisualStyle
  2

 70
     1
177
     3
291
     1
 70
    58
 90
        2
176
     1
 90
        1
176
     1
 90
        1
176
     1
 90
        2
176
     1
 40
0.6
176
     1
 40
30.0
176
     1
 62
     7
176
     1
 90
        1
176
     1
 90
        0
176
     1
 62
     7
176
     1
 62
   257
176
     1
 90
        1
176
     1
 90
        1
176
     1
 40
1.0
176
     1
 90
        0
176
     1
 62
   257
176
     1
 40
1.0
176
     1
 90
        1
176
     1
 90
        6
176
     1
 90
        2
176
     1
 62
     7
176
     1
 90
        5
176
     1
 90
        0
176
     1
 90
        0
176
     1
290
     0
176
     1
 90
       13
176
     1
 40
0.0
176
     1
 90
        0
176
     1
290
     0
176
     1
290
     1
176
     1
290
     1
176
     1
290
     0
176
     1
290
     0
176
     1
290
     0
176
     1
290
     0
176
     1
290
     0
176
     1
290
     0
176
     1
 90
       50
176
     1
 40
0.0
176
     1
 40
1.0
176
     1
 90
        0
176
     1
 62
    18
420
        0
176
     1
 90
       50
176
     1
 90
        3
176
     1
 62
     5
420
      255
176
     1
290
     0
176
     1
 90
       50
176
     1
 90
       50
176
     1
 90
       50
176
     1
290
     0
176
     1
 90
       50
176
     1
 62
   256
176
     0
 40
1.0
176
     0
 90
        2
176
     1
  1
strokes_ogs.tif
176
     1
290
     0
176
     1
 40
1.0
176
     1
 40
1.0
176
     1
  0
VISUALSTYLE
  5
1001E
102
{ACAD_REACTORS
330
1001B
102
}
330
1001B
100
AcDbVisualStyle
  2

 70
     2
177
     3
291
     1
 70
    58
 90
        2
176
     1
 90
        2
176
     1
 90
        1
176
     1
 90
        2
176
     1
 40
0.6
176
     1
 40
30.0
176
     1
 62
     7
176
     1
 90
        0
176
     1
 90
        0
176
     1
 62
     7
176
     1
 62
   257
176
     1
 90
        1
176
     1
 90
        1
176
     1
 40
1.0
176
     1
 90
        0
176
     1
 62
     7
176
     1
 40
1.0
176
     1
 90
        1
176
     1
 90
        6
176
     1
 90
        2
176
     1
 62
     7
176
     1
 90
        5
176
     1
 90
        0
176
     1
 90
        0
176
     1
290
     0
176
     1
 90
       13
176
     1
 40
0.0
176
     1
 90
        0
176
     1
290
     0
176
     1
290
     1
176
     1
290
     1
176
     1
290
     0
176
     1
290
     0
176
     1
290
     0
176
     1
290
     0
176
     1
290
     0
176
     1
290
     0
176
     1
 90
       50
176
     1
 40
0.0
176
     1
 40
1.0
176
     1
 90
        0
176
     1
 62
    18
420
        0
176
     1
 90
       50
176
     1
 90
        3
176
     1
 62
     5
420
      255
176
     1
290
     0
176
     1
 90
       50
176
     1
 90
       50
176
     1
 90
       50
176
     1
290
     0
176
     1
 90
       50
176
     1
 62
   256
176
     0
 40
1.0
176
     0
 90
        2
176
     1
  1
strokes_ogs.tif
176
     1
290
     0
176
     1
 40
1.0
176
     1
 40
1.0
176
     1
  0
VISUALSTYLE
  5
1001F
102
{ACAD_REACTORS
330
1001B
102
}
330
1001B
100
AcDbVisualStyle
  2

 70
     3
177
     3
291
     1
 70
    58
 90
        2
176
     1
 90
        2
176
     1
 90
        1
176
     1
 90
        2
176
     1
 40
0.6
176
     1
 40
30.0
176
     1
 62
     7
176
     1
 90
        1
176
     1
 90
        0
176
     1
 62
     7
176
     1
 62
   257
176
     1
 90
        1
176
     1
 90
        1
176
     1
 40
1.0
176
     1
 90
        0
176
     1
 62
   257
176
     1
 40
1.0
176
     1
 90
        1
176
     1
 90
        6
176
     1
 90
        2
176
     1
 62
     7
176
     1
 90
        5
176
     1
 90
        0
176
     1
 90
        0
176
     1
290
     0
176
     1
 90
       13
176
     1
 40
0.0
176
     1
 90
        0
176
     1
290
     0
176
     1
290
     1
176
     1
290
     1
176
     1
290
     0
176
     1
290
     0
176
     1
290
     0
176
     1
290
     0
176
     1
290
     0
176
     1
290
     0
176
     1
 90
       50
176
     1
 40
0.0
176
     1
 40
1.0
176
     1
 90
        0
176
     1
 62
    18
420
        0
176
     1
 90
       50
176
     1
 90
        3
176
     1
 62
     5
420
      255
176
     1
290
     0
176
     1
 90
       50
176
     1
 90
       50
176
     1
 90
       50
176
     1
290
     0
176
     1
 90
       50
176
     1
 62
   256
176
     0
 40
1.0
176
     0
 90
        2
176
     1
  1
strokes_ogs.tif
176
     1
290
     0
176
     1
 40
1.0
176
     1
 40
1.0
176
     1
  0
VISUALSTYLE
  5
10023
102
{ACAD_REACTORS
330
1001B
102
}
330
1001B
100
AcDbVisualStyle
  2

 70
     6
177
     3
291
     0
 70
    58
 90
        1
176
     1
 90
        2
176
     1
 90
        2
176
     1
 90
        0
176
     1
 40
0.6
176
     1
 40
30.0
176
     1
 62
     7
176
     1
 90
        2
176
     1
 90
        2
176
     1
 62
     7
176
     1
 62
   257
176
     1
 90
        2
176
     1
 90
        1
176
     1
 40
40.0
176
     1
 90
        0
176
     1
 62
   257
176
     1
 40
1.0
176
     1
 90
        1
176
     1
 90
        6
176
     1
 90
        2
176
     1
 62
     7
176
     1
 90
        3
176
     1
 90
        0
176
     1
 90
        0
176
     1
290
     0
176
     1
 90
        1
176
     1
 40
0.0
176
     1
 90
        0
176
     1
290
     0
176
     1
290
     1
176
     1
290
     1
176
     1
290
     0
176
     1
290
     0
176
     1
290
     0
176
     1
290
     0
176
     1
290
     0
176
     1
290
     0
176
     1
 90
       50
176
     1
 40
0.0
176
     1
 40
1.0
176
     1
 90
        0
176
     1
 62
    18
420
        0
176
     1
 90
       50
176
     1
 90
        3
176
     1
 62
     5
420
      255
176
     1
290
     0
176
     1
 90
       50
176
     1
 90
       50
176
     1
 90
       50
176
     1
290
     0
176
     1
 90
       50
176
     1
 62
   256
176
     0
 40
1.0
176
     0
 90
        2
176
     1
  1
strokes_ogs.tif
176
     1
290
     0
176
     1
 40
1.0
176
     1
 40
1.0
176
     1
  0
VISUALSTYLE
  5
10031
102
{ACAD_REACTORS
330
1001B
102
}
330
1001B
100
AcDbVisualStyle
  2

 70
    20
177
     3
291
     1
 70
    58
 90
        2
176
     0
 90
        2
176
     0
 90
        0
176
     0
 90
        0
176
     0
 40
0.6
176
     0
 40
30.0
176
     0
 62
     7
176
     0
 90
        1
176
     0
 90
        4
176
     0
 62
     7
176
     0
 62
   257
176
     0
 90
        1
176
     0
 90
        1
176
     0
 40
1.0
176
     0
 90
       10
176
     2
 62
     7
176
     0
 40
1.0
176
     0
 90
        1
176
     0
 90
        6
176
     0
 90
        2
176
     0
 62
     7
176
     0
 90
        5
176
     0
 90
        0
176
     0
 90
        0
176
     0
290
     0
176
     0
 90
        1
176
     0
 40
0.0
176
     0
 90
        0
176
     0
290
     0
176
     1
290
     1
176
     1
290
     1
176
     1
290
     0
176
     1
290
     0
176
     1
290
     0
176
     1
290
     0
176
     1
290
     0
176
     1
290
     0
176
     1
 90
       50
176
     0
 40
0.0
176
     0
 40
1.0
176
     0
 90
        0
176
     0
 62
    18
420
        0
176
     0
 90
       50
176
     0
 90
        3
176
     0
 62
     5
420
      255
176
     0
290
     0
176
     1
 90
       50
176
     0
 90
       50
176
     0
 90
       50
176
     0
290
     0
176
     1
 90
       50
176
     0
 62
   256
176
     0
 40
1.0
176
     0
 90
        2
176
     0
  1
strokes_ogs.tif
176
     0
290
     0
176
     1
 40
1.0
176
     0
 40
1.0
176
     0
  0
VISUALSTYLE
  5
10029
102
{ACAD_REACTORS
330
1001B
102
}
330
1001B
100
AcDbVisualStyle
  2

 70
    14
177
     3
291
     1
 70
    58
 90
        2
176
     1
 90
        2
176
     1
 90
        0
176
     1
 90
        0
176
     1
 40
0.6
176
     1
 40
30.0
176
     1
 62
     7
176
     1
 90
        1
176
     1
 90
        4
176
     1
 62
     7
176
     1
 62
   257
176
     1
 90
        7
176
     1
 90
        7
176
     1
 40
1.0
176
     1
 90
        8
176
     1
 62
     7
176
     1
 40
1.0
176
     1
 90
        1
176
     1
 90
        6
176
     1
 90
        2
176
     1
 62
     7
176
     1
 90
        5
176
     1
 90
        0
176
     1
 90
        0
176
     1
290
     0
176
     1
 90
        1
176
     1
 40
0.0
176
     1
 90
        0
176
     1
290
     0
176
     1
290
     1
176
     1
290
     1
176
     1
290
     0
176
     1
290
     0
176
     1
290
     0
176
     1
290
     0
176
     1
290
     0
176
     1
290
     0
176
     1
 90
       50
176
     1
 40
0.0
176
     1
 40
1.0
176
     1
 90
        0
176
     1
 62
    18
420
        0
176
     1
 90
       50
176
     1
 90
        3
176
     1
 62
     5
420
      255
176
     1
290
     0
176
     1
 90
       50
176
     1
 90
       50
176
     1
 90
       50
176
     1
290
     0
176
     1
 90
       50
176
     1
 62
   256
176
     0
 40
1.0
176
     0
 90
        2
176
     1
  1
strokes_ogs.tif
176
     1
290
     0
176
     1
 40
1.0
176
     1
 40
1.0
176
     1
  0
VISUALSTYLE
  5
10032
102
{ACAD_REACTORS
330
1001B
102
}
330
1001B
100
AcDbVisualStyle
  2

 70
    21
177
     3
291
     1
 70
    58
 90
        2
176
     0
 90
        2
176
     0
 90
        0
176
     0
 90
        0
176
     0
 40
0.6
176
     0
 40
30.0
176
     0
 62
     7
176
     0
 90
        1
176
     0
 90
        4
176
     0
 62
     7
176
     0
 62
   257
176
     0
 90
        1
176
     0
 90
        1
176
     0
 40
1.0
176
     0
 90
        9
176
     2
 62
     7
176
     0
 40
1.0
176
     0
 90
        1
176
     0
 90
        6
176
     0
 90
        2
176
     0
 62
     7
176
     0
 90
        5
176
     0
 90
        0
176
     0
 90
        0
176
     0
290
     0
176
     0
 90
        1
176
     0
 40
0.0
176
     0
 90
        0
176
     0
290
     0
176
     1
290
     1
176
     1
290
     1
176
     1
290
     0
176
     1
290
     0
176
     1
290
     0
176
     1
290
     0
176
     1
290
     0
176
     1
290
     0
176
     1
 90
       50
176
     0
 40
0.0
176
     0
 40
1.0
176
     0
 90
        0
176
     0
 62
    18
420
        0
176
     0
 90
       50
176
     0
 90
        3
176
     0
 62
     5
420
      255
176
     0
290
     0
176
     1
 90
       50
176
     0
 90
       50
176
     0
 90
       50
176
     0
290
     0
176
     1
 90
       50
176
     0
 62
   256
176
     0
 40
1.0
176
     0
 90
        2
176
     0
  1
strokes_ogs.tif
176
     0
290
     0
176
     1
 40
1.0
176
     0
 40
1.0
176
     0
  0
VISUALSTYLE
  5
10025
102
{ACAD_REACTORS
330
1001B
102
}
330
1001B
100
AcDbVisualStyle
  2

 70
     8
177
     3
291
     0
 70
    58
 90
        2
176
     1
 90
        2
176
     1
 90
        0
176
     1
 90
        2
176
     1
 40
0.6
176
     1
 40
30.0
176
     1
 62
     7
176
     1
 90
        0
176
     1
 90
        0
176
     1
 62
     7
176
     1
 62
   257
176
     1
 90
        1
176
     1
 90
        1
176
     1
 40
1.0
176
     1
 90
        8
176
     1
 62
   257
176
     1
 40
1.0
176
     1
 90
        1
176
     1
 90
        6
176
     1
 90
        2
176
     1
 62
     7
176
     1
 90
        3
176
     1
 90
        0
176
     1
 90
        0
176
     1
290
     0
176
     1
 90
       13
176
     1
 40
0.0
176
     1
 90
        0
176
     1
290
     0
176
     1
290
     1
176
     1
290
     1
176
     1
290
     0
176
     1
290
     0
176
     1
290
     0
176
     1
290
     0
176
     1
290
     0
176
     1
290
     0
176
     1
 90
       50
176
     1
 40
0.0
176
     1
 40
1.0
176
     1
 90
        0
176
     1
 62
    18
420
        0
176
     1
 90
       50
176
     1
 90
        3
176
     1
 62
     5
420
      255
176
     1
290
     0
176
     1
 90
       50
176
     1
 90
       50
176
     1
 90
       50
176
     1
290
     0
176
     1
 90
       50
176
     1
 62
   256
176
     0
 40
1.0
176
     0
 90
        2
176
     1
  1
strokes_ogs.tif
176
     1
290
     0
176
     1
 40
1.0
176
     1
 40
1.0
176
     1
  0
VISUALSTYLE
  5
10030
102
{ACAD_REACTORS
330
1001B
102
}
330
1001B
100
AcDbVisualStyle
  2

 70
    27
177
     3
291
     0
 70
    58
 90
        2
176
     1
 90
        2
176
     1
 90
        1
176
     1
 90
        2
176
     1
 40
0.6
176
     1
 40
30.0
176
     1
 62
     7
176
     1
 90
        0
176
     1
 90
        4
176
     1
 62
     7
176
     1
 62
   257
176
     1
 90
        1
176
     1
 90
        1
176
     1
 40
1.0
176
     1
 90
        8
176
     1
 62
   257
176
     1
 40
1.0
176
     1
 90
        1
176
     1
 90
        6
176
     1
 90
        2
176
     1
 62
     8
176
     1
 90
        3
176
     1
 90
        0
176
     1
 90
        0
176
     1
290
     0
176
     1
 90
        5
176
     1
 40
0.0
176
     1
 90
        0
176
     1
290
     0
176
     1
290
     1
176
     1
290
     1
176
     1
290
     0
176
     1
290
     0
176
     1
290
     0
176
     1
290
     0
176
     1
290
     0
176
     1
290
     0
176
     1
 90
       50
176
     1
 40
0.0
176
     1
 40
1.0
176
     1
 90
        0
176
     1
 62
    18
420
        0
176
     1
 90
       50
176
     1
 90
        3
176
     1
 62
     5
420
      255
176
     1
290
     0
176
     1
 90
       50
176
     1
 90
       50
176
     1
 90
       50
176
     1
290
     0
176
     1
 90
       50
176
     1
 62
   256
176
     0
 40
1.0
176
     0
 90
        2
176
     1
  1
strokes_ogs.tif
176
     1
290
     0
176
     1
 40
1.0
176
     1
 40
1.0
176
     1
  0
VISUALSTYLE
  5
1002F
102
{ACAD_REACTORS
330
1001B
102
}
330
1001B
100
AcDbVisualStyle
  2

 70
    26
177
     3
291
     0
 70
    58
 90
        2
176
     1
 90
        2
176
     1
 90
        1
176
     1
 90
        2
176
     1
 40
0.6
176
     1
 40
30.0
176
     1
 62
     7
176
     1
 90
        1
176
     1
 90
        2
176
     1
 62
     7
176
     1
 62
   257
176
     1
 90
        2
176
     1
 90
        1
176
     1
 40
1.0
176
     1
 90
        8
176
     1
 62
   257
176
     1
 40
1.0
176
     1
 90
        1
176
     1
 90
        6
176
     1
 90
        2
176
     1
 62
     7
176
     1
 90
        3
176
     1
 90
        0
176
     1
 90
        0
176
     1
290
     0
176
     1
 90
        5
176
     1
 40
0.0
176
     1
 90
        0
176
     1
290
     0
176
     1
290
     1
176
     1
290
     1
176
     1
290
     0
176
     1
290
     0
176
     1
290
     0
176
     1
290
     0
176
     1
290
     0
176
     1
290
     0
176
     1
 90
       50
176
     1
 40
0.0
176
     1
 40
1.0
176
     1
 90
        0
176
     1
 62
    18
420
        0
176
     1
 90
       50
176
     1
 90
        3
176
     1
 62
     5
420
      255
176
     1
290
     0
176
     1
 90
       50
176
     1
 90
       50
176
     1
 90
       50
176
     1
290
     0
176
     1
 90
       50
176
     1
 62
   256
176
     0
 40
1.0
176
     0
 90
        2
176
     1
  1
strokes_ogs.tif
176
     1
290
     0
176
     1
 40
1.0
176
     1
 40
1.0
176
     1
  0
VISUALSTYLE
  5
1002C
102
{ACAD_REACTORS
330
1001B
102
}
330
1001B
100
AcDbVisualStyle
  2

 70
    23
177
     3
291
     0
 70
    58
 90
        2
176
     1
 90
        2
176
     1
 90
        3
176
     1
 90
        0
176
     1
 40
0.6
176
     1
 40
30.0
176
     1
 62
     7
176
     1
 90
        2
176
     1
 90
        2
176
     1
 62
     7
176
     1
 62
     7
176
     1
 90
        1
176
     1
 90
        1
176
     1
 40
40.0
176
     1
 90
        8
176
     1
 62
     7
176
     1
 40
1.0
176
     1
 90
        1
176
     1
 90
        6
176
     1
 90
        2
176
     1
 62
     7
176
     1
 90
        3
176
     1
 90
        0
176
     1
 90
        0
176
     1
290
     0
176
     1
 90
        1
176
     1
 40
0.0
176
     1
 90
        0
176
     1
290
     0
176
     1
290
     1
176
     1
290
     1
176
     1
290
     0
176
     1
290
     0
176
     1
290
     0
176
     1
290
     0
176
     1
290
     0
176
     1
290
     0
176
     1
 90
       50
176
     1
 40
0.0
176
     1
 40
1.0
176
     1
 90
        0
176
     1
 62
    18
420
        0
176
     1
 90
       50
176
     1
 90
        3
176
     1
 62
     5
420
      255
176
     1
290
     0
176
     1
 90
       50
176
     1
 90
       50
176
     1
 90
       50
176
     1
290
     0
176
     1
 90
       50
176
     1
 62
   256
176
     0
 40
1.0
176
     0
 90
        2
176
     1
  1
strokes_ogs.tif
176
     1
290
     0
176
     1
 40
1.0
176
     1
 40
1.0
176
     1
  0
VISUALSTYLE
  5
1002D
102
{ACAD_REACTORS
330
1001B
102
}
330
1001B
100
AcDbVisualStyle
  2

 70
    24
177
     3
291
     0
 70
    58
 90
        1
176
     1
 90
        2
176
     1
 90
        2
176
     1
 90
        0
176
     1
 40
0.6
176
     1
 40
30.0
176
     1
 62
     7
176
     1
 90
        2
176
     1
 90
        2
176
     1
 62
     7
176
     1
 62
     7
176
     1
 90
        1
176
     1
 90
        1
176
     1
 40
40.0
176
     1
 90
       11
176
     1
 62
     7
176
     1
 40
1.0
176
     1
 90
        1
176
     1
 90
        6
176
     1
 90
        2
176
     1
 62
     7
176
     1
 90
        6
176
     1
 90
        0
176
     1
 90
        0
176
     1
290
     0
176
     1
 90
        1
176
     1
 40
0.0
176
     1
 90
        0
176
     1
290
     0
176
     1
290
     1
176
     1
290
     1
176
     1
290
     0
176
     1
290
     0
176
     1
290
     0
176
     1
290
     0
176
     1
290
     0
176
     1
290
     0
176
     1
 90
       50
176
     1
 40
0.0
176
     1
 40
1.0
176
     1
 90
        0
176
     1
 62
    18
420
        0
176
     1
 90
       50
176
     1
 90
        3
176
     1
 62
     5
420
      255
176
     1
290
     0
176
     1
 90
       50
176
     1
 90
       50
176
     1
 90
       50
176
     1
290
     0
176
     1
 90
       50
176
     1
 62
   256
176
     0
 40
1.0
176
     0
 90
        2
176
     1
  1
strokes_ogs.tif
176
     1
290
     0
176
     1
 40
1.0
176
     1
 40
1.0
176
     1
  0
VISUALSTYLE
  5
10028
102
{ACAD_REACTORS
330
1001B
102
}
330
1001B
100
AcDbVisualStyle
  2

 70
    13
177
     3
291
     1
 70
    58
 90
        2
176
     1
 90
        2
176
     1
 90
        0
176
     1
 90
        0
176
     1
 40
0.6
176
     1
 40
30.0
176
     1
 62
     7
176
     1
 90
        1
176
     1
 90
        4
176
     1
 62
     7
176
     1
 62
   257
176
     1
 90
        1
176
     1
 90
        1
176
     1
 40
1.0
176
     1
 90
       12
176
     1
 62
     7
176
     1
 40
1.0
176
     1
 90
        1
176
     1
 90
        6
176
     1
 90
        2
176
     1
 62
     7
176
     1
 90
        5
176
     1
 90
        0
176
     1
 90
        0
176
     1
290
     0
176
     1
 90
        1
176
     1
 40
0.0
176
     1
 90
        0
176
     1
290
     0
176
     1
290
     1
176
     1
290
     1
176
     1
290
     0
176
     1
290
     0
176
     1
290
     0
176
     1
290
     0
176
     1
290
     0
176
     1
290
     0
176
     1
 90
       50
176
     1
 40
0.0
176
     1
 40
1.0
176
     1
 90
        0
176
     1
 62
    18
420
        0
176
     1
 90
       50
176
     1
 90
        3
176
     1
 62
     5
420
      255
176
     1
290
     0
176
     1
 90
       50
176
     1
 90
       50
176
     1
 90
       50
176
     1
290
     0
176
     1
 90
       50
176
     1
 62
   256
176
     0
 40
1.0
176
     0
 90
        2
176
     1
  1
strokes_ogs.tif
176
     1
290
     0
176
     1
 40
1.0
176
     1
 40
1.0
176
     1
  0
VISUALSTYLE
  5
10022
102
{ACAD_REACTORS
330
1001B
102
}
330
1001B
100
AcDbVisualStyle
  2

 70
     5
177
     3
291
     0
 70
    58
 90
        0
176
     1
 90
        2
176
     1
 90
        0
176
     1
 90
        0
176
     1
 40
0.6
176
     1
 40
30.0
176
     1
 62
     7
176
     1
 90
        1
176
     1
 90
        4
176
     1
 62
     7
176
     1
 62
   257
176
     1
 90
        1
176
     1
 90
        1
176
     1
 40
1.0
176
     1
 90
        0
176
     1
 62
   257
176
     1
 40
1.0
176
     1
 90
        1
176
     1
 90
        6
176
     1
 90
        2
176
     1
 62
     7
176
     1
 90
        3
176
     1
 90
        0
176
     1
 90
        0
176
     1
290
     0
176
     1
 90
        1
176
     1
 40
0.0
176
     1
 90
        0
176
     1
290
     0
176
     1
290
     1
176
     1
290
     1
176
     1
290
     0
176
     1
290
     0
176
     1
290
     0
176
     1
290
     0
176
     1
290
     0
176
     1
290
     0
176
     1
 90
       50
176
     1
 40
0.0
176
     1
 40
1.0
176
     1
 90
        0
176
     1
 62
    18
420
        0
176
     1
 90
       50
176
     1
 90
        3
176
     1
 62
     5
420
      255
176
     1
290
     0
176
     1
 90
       50
176
     1
 90
       50
176
     1
 90
       50
176
     1
290
     0
176
     1
 90
       50
176
     1
 62
   256
176
     0
 40
1.0
176
     0
 90
        2
176
     1
  1
strokes_ogs.tif
176
     1
290
     0
176
     1
 40
1.0
176
     1
 40
1.0
176
     1
  0
VISUALSTYLE
  5
1002E
102
{ACAD_REACTORS
330
1001B
102
}
330
1001B
100
AcDbVisualStyle
  2

 70
    25
177
     3
291
     0
 70
    58
 90
        2
176
     1
 90
        2
176
     1
 90
        1
176
     1
 90
        1
176
     1
 40
0.5
176
     1
 40
30.0
176
     1
 62
     7
176
     1
 90
        1
176
     1
 90
        0
176
     1
 62
     7
176
     1
 62
   257
176
     1
 90
        1
176
     1
 90
        1
176
     1
 40
1.0
176
     1
 90
        8
176
     1
 62
     7
176
     1
 40
1.0
176
     1
 90
        1
176
     1
 90
        6
176
     1
 90
        2
176
     1
 62
     7
176
     1
 90
        3
176
     1
 90
        0
176
     1
 90
        0
176
     1
290
     0
176
     1
 90
       13
176
     1
 40
0.0
176
     1
 90
        0
176
     1
290
     0
176
     1
290
     1
176
     1
290
     1
176
     1
290
     0
176
     1
290
     0
176
     1
290
     0
176
     1
290
     0
176
     1
290
     0
176
     1
290
     0
176
     1
 90
       50
176
     1
 40
0.0
176
     1
 40
1.0
176
     1
 90
        0
176
     1
 62
    18
420
        0
176
     1
 90
       50
176
     1
 90
        3
176
     1
 62
     5
420
      255
176
     1
290
     0
176
     1
 90
       50
176
     1
 90
       50
176
     1
 90
       50
176
     1
290
     0
176
     1
 90
       50
176
     1
 62
   256
176
     0
 40
1.0
176
     0
 90
        2
176
     1
  1
strokes_ogs.tif
176
     1
290
     0
176
     1
 40
1.0
176
     1
 40
1.0
176
     1
  0
DICTIONARYVAR
  5
10067
102
{ACAD_REACTORS
330
2D6
102
}
330
2D6
100
DictionaryVariables
280
     0
  1
1:1
  0
DICTIONARYVAR
  5
10064
102
{ACAD_REACTORS
330
2D6
102
}
330
2D6
100
DictionaryVariables
280
     0
  1
STANDARD
  0
DICTIONARYVAR
  5
10063
102
{ACAD_REACTORS
330
2D6
102
}
330
2D6
100
DictionaryVariables
280
     0
  1
STANDARD
  0
DICTIONARYVAR
  5
10065
102
{ACAD_REACTORS
330
2D6
102
}
330
2D6
100
DictionaryVariables
280
     0
  1
Imperial24
  0
DICTIONARYVAR
  5
10066
102
{ACAD_REACTORS
330
2D6
102
}
330
2D6
100
DictionaryVariables
280
     0
  1
Imperial24
  0
DICTIONARYVAR
  5
2D8
330
2D6
100
DictionaryVariables
280
     0
  1
1
  0
DICTIONARYVAR
  5
2D7
330
2D6
100
DictionaryVariables
280
     0
  1
0
  0
DICTIONARYVAR
  5
10069
102
{ACAD_REACTORS
330
2D6
102
}
330
2D6
100
DictionaryVariables
280
     0
  1
0
  0
DICTIONARYVAR
  5
1011082
102
{ACAD_REACTORS
330
2D6
102
}
330
2D6
100
DictionaryVariables
280
     0
  1
1
  0
DICTIONARYVAR
  5
1011083
102
{ACAD_REACTORS
330
2D6
102
}
330
2D6
100
DictionaryVariables
280
     0
  1
15
  0
DICTIONARYVAR
  5
1011081
102
{ACAD_REACTORS
330
2D6
102
}
330
2D6
100
DictionaryVariables
280
     0
  1
0
  0
DICTIONARYVAR
  5
1011080
102
{ACAD_REACTORS
330
2D6
102
}
330
2D6
100
DictionaryVariables
280
     0
  1
0
  0
DICTIONARYVAR
  5
10068
102
{ACAD_REACTORS
330
2D6
102
}
330
2D6
100
DictionaryVariables
280
     0
  1
127
  0
DICTIONARY
  5
101107D
330
1004E
100
AcDbDictionary
280
     1
281
     1
  3
ACAD_XREC_ROUNDTRIP
360
1011484
  0
DICTIONARY
  5
1000C
330
1000B
100
AcDbDictionary
280
     1
281
     1
  3
BUMPTILE
360
1000E
  3
DIFFUSETILE
360
1000D
  3
OPACITYTILE
360
10011
  3
REFLECTIONTILE
360
10010
  3
REFRACTIONTILE
360
10012
  3
SPECULARTILE
360
1000F
  0
DICTIONARY
  5
10004
330
10003
100
AcDbDictionary
280
     1
281
     1
  3
BUMPTILE
360
10006
  3
DIFFUSETILE
360
10005
  3
OPACITYTILE
360
10009
  3
REFLECTIONTILE
360
10008
  3
REFRACTIONTILE
360
1000A
  3
SPECULARTILE
360
10007
  0
DICTIONARY
  5
10014
330
10013
100
AcDbDictionary
280
     1
281
     1
  3
BUMPTILE
360
10016
  3
DIFFUSETILE
360
10015
  3
OPACITYTILE
360
10019
  3
REFLECTIONTILE
360
10018
  3
REFRACTIONTILE
360
1001A
  3
SPECULARTILE
360
10017
  0
DICTIONARY
  5
101107B
330
1004C
100
AcDbDictionary
280
     1
281
     1
  3
ACAD_XREC_ROUNDTRIP
360
1011483
  0
DICTIONARY
  5
1006C
330
10036
100
AcDbDictionary
280
     1
281
     1
  3
ACAD_ROUNDTRIP_2008_TABLESTYLE_CELLSTYLEMAP
360
1011482
  0
XRECORD
  5
1011484
102
{ACAD_REACTORS
330
101107D
102
}
330
101107D
100
AcDbXrecord
280
     1
102
DISPLAYNAME
  1
Imperial24
102
FLAGS
 90
        0
  0
XRECORD
  5
1000E
102
{ACAD_REACTORS
330
1000C
102
}
330
1000C
100
AcDbXrecord
280
     1
270
     1
271
     1
  0
XRECORD
  5
1000D
102
{ACAD_REACTORS
330
1000C
102
}
330
1000C
100
AcDbXrecord
280
     1
270
     1
271
     1
  0
XRECORD
  5
10011
102
{ACAD_REACTORS
330
1000C
102
}
330
1000C
100
AcDbXrecord
280
     1
270
     1
271
     1
  0
XRECORD
  5
10010
102
{ACAD_REACTORS
330
1000C
102
}
330
1000C
100
AcDbXrecord
280
     1
270
     1
271
     1
  0
XRECORD
  5
10012
102
{ACAD_REACTORS
330
1000C
102
}
330
1000C
100
AcDbXrecord
280
     1
270
     1
271
     1
  0
XRECORD
  5
1000F
102
{ACAD_REACTORS
330
1000C
102
}
330
1000C
100
AcDbXrecord
280
     1
270
     1
271
     1
  0
XRECORD
  5
10006
102
{ACAD_REACTORS
330
10004
102
}
330
10004
100
AcDbXrecord
280
     1
270
     1
271
     1
  0
XRECORD
  5
10005
102
{ACAD_REACTORS
330
10004
102
}
330
10004
100
AcDbXrecord
280
     1
270
     1
271
     1
  0
XRECORD
  5
10009
102
{ACAD_REACTORS
330
10004
102
}
330
10004
100
AcDbXrecord
280
     1
270
     1
271
     1
  0
XRECORD
  5
10008
102
{ACAD_REACTORS
330
10004
102
}
330
10004
100
AcDbXrecord
280
     1
270
     1
271
     1
  0
XRECORD
  5
1000A
102
{ACAD_REACTORS
330
10004
102
}
330
10004
100
AcDbXrecord
280
     1
270
     1
271
     1
  0
XRECORD
  5
10007
102
{ACAD_REACTORS
330
10004
102
}
330
10004
100
AcDbXrecord
280
     1
270
     1
271
     1
  0
XRECORD
  5
10016
102
{ACAD_REACTORS
330
10014
102
}
330
10014
100
AcDbXrecord
280
     1
270
     1
271
     1
  0
XRECORD
  5
10015
102
{ACAD_REACTORS
330
10014
102
}
330
10014
100
AcDbXrecord
280
     1
270
     1
271
     1
  0
XRECORD
  5
10019
102
{ACAD_REACTORS
330
10014
102
}
330
10014
100
AcDbXrecord
280
     1
270
     1
271
     1
  0
XRECORD
  5
10018
102
{ACAD_REACTORS
330
10014
102
}
330
10014
100
AcDbXrecord
280
     1
270
     1
271
     1
  0
XRECORD
  5
1001A
102
{ACAD_REACTORS
330
10014
102
}
330
10014
100
AcDbXrecord
280
     1
270
     1
271
     1
  0
XRECORD
  5
10017
102
{ACAD_REACTORS
330
10014
102
}
330
10014
100
AcDbXrecord
280
     1
270
     1
271
     1
  0
XRECORD
  5
1011483
102
{ACAD_REACTORS
330
101107B
102
}
330
101107B
100
AcDbXrecord
280
     1
102
DISPLAYNAME
  1
Imperial24
102
FLAGS
 90
        0
  0
CELLSTYLEMAP
  5
1011482
102
{ACAD_REACTORS
330
1006C
102
}
330
1006C
100
AcDbCellStyleMap
 90
        3
300
CELLSTYLE
  1
TABLEFORMAT_BEGIN
 90
        5
170
     1
 91
        0
 92
    32768
 62
   257
 93
        1
300
CONTENTFORMAT
  1
CONTENTFORMAT_BEGIN
 90
        0
 91
        0
 92
      512
 93
        0
300

 40
0.0
140
1.0
 94
        5
 62
     0
340
11
144
0.25
309
CONTENTFORMAT_END
171
     1
301
MARGIN
  1
CELLMARGIN_BEGIN
 40
0.06
 40
0.06
 40
0.06
 40
0.06
 40
0.18
 40
0.18
309
CELLMARGIN_END
 94
        6
 95
        1
302
GRIDFORMAT
  1
GRIDFORMAT_BEGIN
 90
        0
 91
        1
 62
     0
 92
       -2
340
0
 93
        0
 40
0.045
309
GRIDFORMAT_END
 95
        2
302
GRIDFORMAT
  1
GRIDFORMAT_BEGIN
 90
        0
 91
        1
 62
     0
 92
       -2
340
0
 93
        0
 40
0.045
309
GRIDFORMAT_END
 95
        4
302
GRIDFORMAT
  1
GRIDFORMAT_BEGIN
 90
        0
 91
        1
 62
     0
 92
       -2
340
0
 93
        0
 40
0.045
309
GRIDFORMAT_END
 95
        8
302
GRIDFORMAT
  1
GRIDFORMAT_BEGIN
 90
        0
 91
        1
 62
     0
 92
       -2
340
0
 93
        0
 40
0.045
309
GRIDFORMAT_END
 95
       16
302
GRIDFORMAT
  1
GRIDFORMAT_BEGIN
 90
        0
 91
        1
 62
     0
 92
       -2
340
0
 93
        0
 40
0.045
309
GRIDFORMAT_END
 95
       32
302
GRIDFORMAT
  1
GRIDFORMAT_BEGIN
 90
        0
 91
        1
 62
     0
 92
       -2
340
0
 93
        0
 40
0.045
309
GRIDFORMAT_END
309
TABLEFORMAT_END
  1
CELLSTYLE_BEGIN
 90
        1
 91
        1
300
_TITLE
309
CELLSTYLE_END
300
CELLSTYLE
  1
TABLEFORMAT_BEGIN
 90
        5
170
     1
 91
        0
 92
        0
 62
   257
 93
        1
300
CONTENTFORMAT
  1
CONTENTFORMAT_BEGIN
 90
        0
 91
        0
 92
      512
 93
        0
300

 40
0.0
140
1.0
 94
        5
 62
     0
340
11
144
0.18
309
CONTENTFORMAT_END
171
     1
301
MARGIN
  1
CELLMARGIN_BEGIN
 40
0.06
 40
0.06
 40
0.06
 40
0.06
 40
0.18
 40
0.18
309
CELLMARGIN_END
 94
        6
 95
        1
302
GRIDFORMAT
  1
GRIDFORMAT_BEGIN
 90
        0
 91
        1
 62
     0
 92
       -2
340
0
 93
        0
 40
0.045
309
GRIDFORMAT_END
 95
        2
302
GRIDFORMAT
  1
GRIDFORMAT_BEGIN
 90
        0
 91
        1
 62
     0
 92
       -2
340
0
 93
        0
 40
0.045
309
GRIDFORMAT_END
 95
        4
302
GRIDFORMAT
  1
GRIDFORMAT_BEGIN
 90
        0
 91
        1
 62
     0
 92
       -2
340
0
 93
        0
 40
0.045
309
GRIDFORMAT_END
 95
        8
302
GRIDFORMAT
  1
GRIDFORMAT_BEGIN
 90
        0
 91
        1
 62
     0
 92
       -2
340
0
 93
        0
 40
0.045
309
GRIDFORMAT_END
 95
       16
302
GRIDFORMAT
  1
GRIDFORMAT_BEGIN
 90
        0
 91
        1
 62
     0
 92
       -2
340
0
 93
        0
 40
0.045
309
GRIDFORMAT_END
 95
       32
302
GRIDFORMAT
  1
GRIDFORMAT_BEGIN
 90
        0
 91
        1
 62
     0
 92
       -2
340
0
 93
        0
 40
0.045
309
GRIDFORMAT_END
309
TABLEFORMAT_END
  1
CELLSTYLE_BEGIN
 90
        2
 91
        1
300
_HEADER
309
CELLSTYLE_END
300
CELLSTYLE
  1
TABLEFORMAT_BEGIN
 90
        5
170
     1
 91
        0
 92
        0
 62
   257
 93
        1
300
CONTENTFORMAT
  1
CONTENTFORMAT_BEGIN
 90
        0
 91
        0
 92
      512
 93
        0
300

 40
0.0
140
1.0
 94
        2
 62
     0
340
11
144
0.18
309
CONTENTFORMAT_END
171
     1
301
MARGIN
  1
CELLMARGIN_BEGIN
 40
0.06
 40
0.06
 40
0.06
 40
0.06
 40
0.18
 40
0.18
309
CELLMARGIN_END
 94
        6
 95
        1
302
GRIDFORMAT
  1
GRIDFORMAT_BEGIN
 90
        0
 91
        1
 62
     0
 92
       -2
340
0
 93
        0
 40
0.045
309
GRIDFORMAT_END
 95
        2
302
GRIDFORMAT
  1
GRIDFORMAT_BEGIN
 90
        0
 91
        1
 62
     0
 92
       -2
340
0
 93
        0
 40
0.045
309
GRIDFORMAT_END
 95
        4
302
GRIDFORMAT
  1
GRIDFORMAT_BEGIN
 90
        0
 91
        1
 62
     0
 92
       -2
340
0
 93
        0
 40
0.045
309
GRIDFORMAT_END
 95
        8
302
GRIDFORMAT
  1
GRIDFORMAT_BEGIN
 90
        0
 91
        1
 62
     0
 92
       -2
340
0
 93
        0
 40
0.045
309
GRIDFORMAT_END
 95
       16
302
GRIDFORMAT
  1
GRIDFORMAT_BEGIN
 90
        0
 91
        1
 62
     0
 92
       -2
340
0
 93
        0
 40
0.045
309
GRIDFORMAT_END
 95
       32
302
GRIDFORMAT
  1
GRIDFORMAT_BEGIN
 90
        0
 91
        1
 62
     0
 92
       -2
340
0
 93
        0
 40
0.045
309
GRIDFORMAT_END
309
TABLEFORMAT_END
  1
CELLSTYLE_BEGIN
 90
        3
 91
        2
300
_DATA
309
CELLSTYLE_END
  0
ENDSEC
  0
EOF
