  0
SECTION
  2
HEADER
  9
$ACADVER
  1
AC1027
  9
$ACADMAINTVER
 70
   125
  9
$DWGCODEPAGE
  3
ANSI_1252
  9
$LASTSAVEDBY
  1
Peter
  9
$REQUIREDVERSIONS
160
                 0
  9
$INSBASE
 10
0.0
 20
0.0
 30
0.0
  9
$EXTMIN
 10
27.74024321813158
 20
23.40761544229616
 30
0.0
  9
$EXTMAX
 10
280.6569098847983
 20
396.9076154422963
 30
0.0
  9
$LIMMIN
 10
0.0
 20
0.0
  9
$LIMMAX
 10
12.0
 20
9.0
  9
$ORTHOMODE
 70
     0
  9
$REGENMODE
 70
     1
  9
$FILLMODE
 70
     1
  9
$QTEXTMODE
 70
     0
  9
$MIRRTEXT
 70
     0
  9
$LTSCALE
 40
1.0
  9
$ATTMODE
 70
     1
  9
$TEXTSIZE
 40
0.2
  9
$TRACEWID
 40
0.05
  9
$TEXTSTYLE
  7
Roman
  9
$CLAYER
  8
0
  9
$CELTYPE
  6
CONTINUOUS
  9
$CECOLOR
 62
   256
  9
$CELTSCALE
 40
1.0
  9
$DISPSILH
 70
     0
  9
$DIMSCALE
 40
1.0
  9
$DIMASZ
 40
0.18
  9
$DIMEXO
 40
0.0625
  9
$DIMDLI
 40
0.38
  9
$DIMRND
 40
0.0
  9
$DIMDLE
 40
0.0
  9
$DIMEXE
 40
0.18
  9
$DIMTP
 40
0.0
  9
$DIMTM
 40
0.0
  9
$DIMTXT
 40
0.18
  9
$DIMCEN
 40
0.09
  9
$DIMTSZ
 40
0.0
  9
$DIMTOL
 70
     0
  9
$DIMLIM
 70
     0
  9
$DIMTIH
 70
     1
  9
$DIMTOH
 70
     1
  9
$DIMSE1
 70
     0
  9
$DIMSE2
 70
     0
  9
$DIMTAD
 70
     0
  9
$DIMZIN
 70
     0
  9
$DIMBLK
  1

  9
$DIMASO
 70
     1
  9
$DIMSHO
 70
     1
  9
$DIMPOST
  1

  9
$DIMAPOST
  1

  9
$DIMALT
 70
     0
  9
$DIMALTD
 70
     2
  9
$DIMALTF
 40
25.4
  9
$DIMLFAC
 40
1.0
  9
$DIMTOFL
 70
     0
  9
$DIMTVP
 40
0.0
  9
$DIMTIX
 70
     0
  9
$DIMSOXD
 70
     0
  9
$DIMSAH
 70
     0
  9
$DIMBLK1
  1

  9
$DIMBLK2
  1

  9
$DIMSTYLE
  2
Standard
  9
$DIMCLRD
 70
     0
  9
$DIMCLRE
 70
     0
  9
$DIMCLRT
 70
     0
  9
$DIMTFAC
 40
1.0
  9
$DIMGAP
 40
0.09
  9
$DIMJUST
 70
     0
  9
$DIMSD1
 70
     0
  9
$DIMSD2
 70
     0
  9
$DIMTOLJ
 70
     1
  9
$DIMTZIN
 70
     0
  9
$DIMALTZ
 70
     0
  9
$DIMALTTZ
 70
     0
  9
$DIMUPT
 70
     0
  9
$DIMDEC
 70
     4
  9
$DIMTDEC
 70
     4
  9
$DIMALTU
 70
     2
  9
$DIMALTTD
 70
     2
  9
$DIMTXSTY
  7
Standard
  9
$DIMAUNIT
 70
     0
  9
$DIMADEC
 70
     0
  9
$DIMALTRND
 40
0.0
  9
$DIMAZIN
 70
     0
  9
$DIMDSEP
 70
    46
  9
$DIMATFIT
 70
     3
  9
$DIMFRAC
 70
     0
  9
$DIMLDRBLK
  1

  9
$DIMLUNIT
 70
     2
  9
$DIMLWD
 70
    -2
  9
$DIMLWE
 70
    -2
  9
$DIMTMOVE
 70
     0
  9
$DIMFXL
 40
1.0
  9
$DIMFXLON
 70
     0
  9
$DIMJOGANG
 40
0.7853981633974483
  9
$DIMTFILL
 70
     0
  9
$DIMTFILLCLR
 70
     0
  9
$DIMARCSYM
 70
     0
  9
$DIMLTYPE
  6

  9
$DIMLTEX1
  6

  9
$DIMLTEX2
  6

  9
$DIMTXTDIRECTION
 70
     0
  9
$LUNITS
 70
     2
  9
$LUPREC
 70
     4
  9
$SKETCHINC
 40
0.1
  9
$FILLETRAD
 40
0.0
  9
$AUNITS
 70
     0
  9
$AUPREC
 70
     0
  9
$MENU
  1
.
  9
$ELEVATION
 40
0.0
  9
$PELEVATION
 40
0.0
  9
$THICKNESS
 40
0.0
  9
$LIMCHECK
 70
     0
  9
$CHAMFERA
 40
0.0
  9
$CHAMFERB
 40
0.0
  9
$CHAMFERC
 40
0.0
  9
$CHAMFERD
 40
0.0
  9
$SKPOLY
 70
     0
  9
$TDCREATE
 40
2458354.663275463
  9
$TDUCREATE
 40
2458354.579942130
  9
$TDUPDATE
 40
2458946.714537037
  9
$TDUUPDATE
 40
2458946.631203704
  9
$TDINDWG
 40
0.0079745370
  9
$TDUSRTIMER
 40
0.0079745370
  9
$USRTIMER
 70
     1
  9
$ANGBASE
 50
0.0
  9
$ANGDIR
 70
     0
  9
$PDMODE
 70
     0
  9
$PDSIZE
 40
0.0
  9
$PLINEWID
 40
0.0
  9
$SPLFRAME
 70
     0
  9
$SPLINETYPE
 70
     6
  9
$SPLINESEGS
 70
     8
  9
$HANDSEED
  5
1011702
  9
$SURFTAB1
 70
     6
  9
$SURFTAB2
 70
     6
  9
$SURFTYPE
 70
     6
  9
$SURFU
 70
     6
  9
$SURFV
 70
     6
  9
$UCSBASE
  2

  9
$UCSNAME
  2

  9
$UCSORG
 10
0.0
 20
0.0
 30
0.0
  9
$UCSXDIR
 10
1.0
 20
0.0
 30
0.0
  9
$UCSYDIR
 10
0.0
 20
1.0
 30
0.0
  9
$UCSORTHOREF
  2

  9
$UCSORTHOVIEW
 70
     0
  9
$UCSORGTOP
 10
0.0
 20
0.0
 30
0.0
  9
$UCSORGBOTTOM
 10
0.0
 20
0.0
 30
0.0
  9
$UCSORGLEFT
 10
0.0
 20
0.0
 30
0.0
  9
$UCSORGRIGHT
 10
0.0
 20
0.0
 30
0.0
  9
$UCSORGFRONT
 10
0.0
 20
0.0
 30
0.0
  9
$UCSORGBACK
 10
0.0
 20
0.0
 30
0.0
  9
$PUCSBASE
  2

  9
$PUCSNAME
  2

  9
$PUCSORG
 10
0.0
 20
0.0
 30
0.0
  9
$PUCSXDIR
 10
1.0
 20
0.0
 30
0.0
  9
$PUCSYDIR
 10
0.0
 20
1.0
 30
0.0
  9
$PUCSORTHOREF
  2

  9
$PUCSORTHOVIEW
 70
     0
  9
$PUCSORGTOP
 10
0.0
 20
0.0
 30
0.0
  9
$PUCSORGBOTTOM
 10
0.0
 20
0.0
 30
0.0
  9
$PUCSORGLEFT
 10
0.0
 20
0.0
 30
0.0
  9
$PUCSORGRIGHT
 10
0.0
 20
0.0
 30
0.0
  9
$PUCSORGFRONT
 10
0.0
 20
0.0
 30
0.0
  9
$PUCSORGBACK
 10
0.0
 20
0.0
 30
0.0
  9
$USERI1
 70
     0
  9
$USERI2
 70
     0
  9
$USERI3
 70
     0
  9
$USERI4
 70
     0
  9
$USERI5
 70
     0
  9
$USERR1
 40
0.0
  9
$USERR2
 40
0.0
  9
$USERR3
 40
0.0
  9
$USERR4
 40
0.0
  9
$USERR5
 40
0.0
  9
$WORLDVIEW
 70
     1
  9
$SHADEDGE
 70
     3
  9
$SHADEDIF
 70
    70
  9
$TILEMODE
 70
     1
  9
$MAXACTVP
 70
    64
  9
$PINSBASE
 10
0.0
 20
0.0
 30
0.0
  9
$PLIMCHECK
 70
     0
  9
$PEXTMIN
 10
1.000000000000000E+20
 20
1.000000000000000E+20
 30
1.000000000000000E+20
  9
$PEXTMAX
 10
-1.000000000000000E+20
 20
-1.000000000000000E+20
 30
-1.000000000000000E+20
  9
$PLIMMIN
 10
0.0
 20
0.0
  9
$PLIMMAX
 10
12.0
 20
9.0
  9
$UNITMODE
 70
     0
  9
$VISRETAIN
 70
     1
  9
$PLINEGEN
 70
     0
  9
$PSLTSCALE
 70
     1
  9
$TREEDEPTH
 70
  3020
  9
$CMLSTYLE
  2
Standard
  9
$CMLJUST
 70
     0
  9
$CMLSCALE
 40
1.0
  9
$PROXYGRAPHICS
 70
     1
  9
$MEASUREMENT
 70
     0
  9
$CELWEIGHT
370
    -1
  9
$ENDCAPS
280
     0
  9
$JOINSTYLE
280
     0
  9
$LWDISPLAY
290
     0
  9
$INSUNITS
 70
     1
  9
$HYPERLINKBASE
  1

  9
$STYLESHEET
  1

  9
$XEDIT
290
     1
  9
$CEPSNTYPE
380
     0
  9
$PSTYLEMODE
290
     1
  9
$FINGERPRINTGUID
  2
{1DB9D1DE-789F-E248-BE97-F7CD108A34F9}
  9
$VERSIONGUID
  2
{E6F663BC-9B2F-C043-8C40-5FE6566BE068}
  9
$EXTNAMES
290
     1
  9
$PSVPSCALE
 40
0.0
  9
$OLESTARTUP
290
     0
  9
$SORTENTS
280
   127
  9
$INDEXCTL
280
     0
  9
$HIDETEXT
280
     0
  9
$XCLIPFRAME
280
     2
  9
$HALOGAP
280
     0
  9
$OBSCOLOR
 70
   257
  9
$OBSLTYPE
280
     0
  9
$INTERSECTIONDISPLAY
280
     0
  9
$INTERSECTIONCOLOR
 70
   257
  9
$DIMASSOC
280
     1
  9
$PROJECTNAME
  1

  9
$CAMERADISPLAY
290
     0
  9
$LENSLENGTH
 40
50.0
  9
$CAMERAHEIGHT
 40
0.0
  9
$STEPSPERSEC
 40
2.0
  9
$STEPSIZE
 40
6.0
  9
$3DDWFPREC
 40
2.0
  9
$PSOLWIDTH
 40
0.25
  9
$PSOLHEIGHT
 40
4.0
  9
$LOFTANG1
 40
1.570796326794896
  9
$LOFTANG2
 40
1.570796326794896
  9
$LOFTMAG1
 40
0.0
  9
$LOFTMAG2
 40
0.0
  9
$LOFTPARAM
 70
     7
  9
$LOFTNORMALS
280
     1
  9
$LATITUDE
 40
37.795
  9
$LONGITUDE
 40
-122.394
  9
$NORTHDIRECTION
 40
0.0
  9
$TIMEZONE
 70
 -8000
  9
$LIGHTGLYPHDISPLAY
280
     1
  9
$TILEMODELIGHTSYNCH
280
     1
  9
$CMATERIAL
347
10003
  9
$SOLIDHIST
280
     0
  9
$SHOWHIST
280
     1
  9
$DWFFRAME
280
     2
  9
$DGNFRAME
280
     0
  9
$REALWORLDSCALE
290
     1
  9
$INTERFERECOLOR
 62
     1
  9
$INTERFEREOBJVS
345
10025
  9
$INTERFEREVPVS
346
10022
  9
$CSHADOW
280
     0
  9
$SHADOWPLANELOCATION
 40
0.0
  0
ENDSEC
  0
SECTION
  2
CLASSES
  0
CLASS
  1
ACDBDICTIONARYWDFLT
  2
AcDbDictionaryWithDefault
  3
ObjectDBX Classes
 90
        0
 91
        1
280
     0
281
     0
  0
CLASS
  1
DICTIONARYVAR
  2
AcDbDictionaryVar
  3
ObjectDBX Classes
 90
        0
 91
       13
280
     0
281
     0
  0
CLASS
  1
MATERIAL
  2
AcDbMaterial
  3
ObjectDBX Classes
 90
     1153
 91
        3
280
     0
281
     0
  0
CLASS
  1
VISUALSTYLE
  2
AcDbVisualStyle
  3
ObjectDBX Classes
 90
     4095
 91
       24
280
     0
281
     0
  0
CLASS
  1
TABLESTYLE
  2
AcDbTableStyle
  3
ObjectDBX Classes
 90
     4095
 91
        1
280
     0
281
     0
  0
CLASS
  1
SCALE
  2
AcDbScale
  3
ObjectDBX Classes
 90
     1153
 91
       17
280
     0
281
     0
  0
CLASS
  1
MLEADERSTYLE
  2
AcDbMLeaderStyle
  3
ACDB_MLEADERSTYLE_CLASS
 90
     4095
 91
        1
280
     0
281
     0
  0
CLASS
  1
ACDBSECTIONVIEWSTYLE
  2
AcDbSectionViewStyle
  3
ObjectDBX Classes
 90
     1025
 91
        1
280
     0
281
     0
  0
CLASS
  1
ACDBDETAILVIEWSTYLE
  2
AcDbDetailViewStyle
  3
ObjectDBX Classes
 90
     1025
 91
        1
280
     0
281
     0
  0
CLASS
  1
CELLSTYLEMAP
  2
AcDbCellStyleMap
  3
ObjectDBX Classes
 90
     1152
 91
        1
280
     0
281
     0
  0
ENDSEC
  0
SECTION
  2
TABLES
  0
TABLE
  2
VPORT
  5
8
102
{ACAD_XDICTIONARY
360
100FC
102
}
330
0
100
AcDbSymbolTable
 70
     1
1001
ACAD
1000
DbSaveVer
1071
        5
  0
VPORT
  5
30
330
8
100
AcDbSymbolTableRecord
100
AcDbViewportTableRecord
  2
*Active
 70
     0
 10
0.0
 20
0.0
 11
1.0
 21
1.0
 12
154.1918587887585
 22
216.6786908351264
 13
0.0
 23
0.0
 14
0.0
 24
0.0
 15
10.0
 25
10.0
 16
0.0
 26
0.0
 36
1.0
 17
0.0
 27
0.0
 37
0.0
 40
376.2301142982438
 41
2.283154121863799
 42
50.0
 43
0.0
 44
0.0
 50
0.0
 51
0.0
 71
     0
 72
   100
 73
     1
 74
     3
 75
     1
 76
     1
 77
     0
 78
     0
281
     0
 65
     1
110
0.0
120
0.0
130
0.0
111
1.0
121
0.0
131
0.0
112
0.0
122
1.0
132
0.0
 79
     0
146
0.0
348
10021
 60
     3
 61
     5
292
     1
282
     1
141
0.0
142
0.0
 63
   250
421
  3355443
1001
ACAD_NAV_VCDISPLAY
1070
     3
  0
ENDTAB
  0
TABLE
  2
LTYPE
  5
5
330
0
100
AcDbSymbolTable
 70
    23
  0
LTYPE
  5
14
330
5
100
AcDbSymbolTableRecord
100
AcDbLinetypeTableRecord
  2
BYBLOCK
 70
     0
  3

 72
    65
 73
     0
 40
0.0
  0
LTYPE
  5
15
330
5
100
AcDbSymbolTableRecord
100
AcDbLinetypeTableRecord
  2
BYLAYER
 70
     0
  3

 72
    65
 73
     0
 40
0.0
  0
LTYPE
  5
16
330
5
100
AcDbSymbolTableRecord
100
AcDbLinetypeTableRecord
  2
CONTINUOUS
 70
     0
  3
Solid line
 72
    65
 73
     0
 40
0.0
  0
LTYPE
  5
31
330
5
100
AcDbSymbolTableRecord
100
AcDbLinetypeTableRecord
  2
ACAD_ISO02W100
 70
     0
  3
ISO Dashed __ __ __ __ __ __ __ __ __ __ _
 72
    65
 73
     2
 40
15.0
 49
12.0
 74
     0
 49
-3.0
 74
     0
  0
LTYPE
  5
32
330
5
100
AcDbSymbolTableRecord
100
AcDbLinetypeTableRecord
  2
ACAD_ISO03W100
 70
     0
  3
ISO Dashed with Distance __    __    __    _
 72
    65
 73
     2
 40
30.0
 49
12.0
 74
     0
 49
-18.0
 74
     0
  0
LTYPE
  5
33
330
5
100
AcDbSymbolTableRecord
100
AcDbLinetypeTableRecord
  2
ACAD_ISO04W100
 70
     0
  3
ISO Long Dashed Dotted ____ . ____ . __
 72
    65
 73
     4
 40
30.0
 49
24.0
 74
     0
 49
-3.0
 74
     0
 49
0.0
 74
     0
 49
-3.0
 74
     0
  0
LTYPE
  5
34
330
5
100
AcDbSymbolTableRecord
100
AcDbLinetypeTableRecord
  2
ACAD_ISO05W100
 70
     0
  3
ISO Long Dashed Double Dotted ____ .. __
 72
    65
 73
     6
 40
33.0
 49
24.0
 74
     0
 49
-3.0
 74
     0
 49
0.0
 74
     0
 49
-3.0
 74
     0
 49
0.0
 74
     0
 49
-3.0
 74
     0
  0
LTYPE
  5
35
330
5
100
AcDbSymbolTableRecord
100
AcDbLinetypeTableRecord
  2
BORDER
 70
     0
  3
Border __ __ . __ __ . __ __ . __ __ . __ __ .
 72
    65
 73
     6
 40
44.45
 49
12.7
 74
     0
 49
-6.349999999999998
 74
     0
 49
12.7
 74
     0
 49
-6.349999999999998
 74
     0
 49
0.0
 74
     0
 49
-6.349999999999998
 74
     0
  0
LTYPE
  5
36
330
5
100
AcDbSymbolTableRecord
100
AcDbLinetypeTableRecord
  2
BORDER2
 70
     0
  3
Border (.5x) __.__.__.__.__.__.__.__.__.__.__.
 72
    65
 73
     6
 40
22.225
 49
6.349999999999998
 74
     0
 49
-3.174999999999998
 74
     0
 49
6.349999999999998
 74
     0
 49
-3.174999999999998
 74
     0
 49
0.0
 74
     0
 49
-3.174999999999998
 74
     0
  0
LTYPE
  5
37
330
5
100
AcDbSymbolTableRecord
100
AcDbLinetypeTableRecord
  2
BORDERX2
 70
     0
  3
Border (2x) ____  ____  .  ____  ____  .  ___
 72
    65
 73
     6
 40
88.9
 49
25.4
 74
     0
 49
-12.7
 74
     0
 49
25.4
 74
     0
 49
-12.7
 74
     0
 49
0.0
 74
     0
 49
-12.7
 74
     0
  0
LTYPE
  5
38
330
5
100
AcDbSymbolTableRecord
100
AcDbLinetypeTableRecord
  2
CENTER
 70
     0
  3
Center ____ _ ____ _ ____ _ ____ _ ____ _ ____
 72
    65
 73
     4
 40
50.8
 49
31.75
 74
     0
 49
-6.349999999999998
 74
     0
 49
6.349999999999998
 74
     0
 49
-6.349999999999998
 74
     0
  0
LTYPE
  5
39
330
5
100
AcDbSymbolTableRecord
100
AcDbLinetypeTableRecord
  2
CENTER2
 70
     0
  3
Center (.5x) ___ _ ___ _ ___ _ ___ _ ___ _ ___
 72
    65
 73
     4
 40
28.575
 49
19.05
 74
     0
 49
-3.174999999999998
 74
     0
 49
3.174999999999998
 74
     0
 49
-3.174999999999998
 74
     0
  0
LTYPE
  5
3A
330
5
100
AcDbSymbolTableRecord
100
AcDbLinetypeTableRecord
  2
CENTERX2
 70
     0
  3
Center (2x) ________  __  ________  __  _____
 72
    65
 73
     4
 40
101.6
 49
63.5
 74
     0
 49
-12.7
 74
     0
 49
12.7
 74
     0
 49
-12.7
 74
     0
  0
LTYPE
  5
3B
330
5
100
AcDbSymbolTableRecord
100
AcDbLinetypeTableRecord
  2
DASHDOT
 70
     0
  3
Dash dot __ . __ . __ . __ . __ . __ . __ . __
 72
    65
 73
     4
 40
25.4
 49
12.7
 74
     0
 49
-6.349999999999998
 74
     0
 49
0.0
 74
     0
 49
-6.349999999999998
 74
     0
  0
LTYPE
  5
3C
330
5
100
AcDbSymbolTableRecord
100
AcDbLinetypeTableRecord
  2
DASHDOT2
 70
     0
  3
Dash dot (.5x) _._._._._._._._._._._._._._._.
 72
    65
 73
     4
 40
12.7
 49
6.349999999999998
 74
     0
 49
-3.174999999999998
 74
     0
 49
0.0
 74
     0
 49
-3.174999999999998
 74
     0
  0
LTYPE
  5
3D
330
5
100
AcDbSymbolTableRecord
100
AcDbLinetypeTableRecord
  2
DASHDOTX2
 70
     0
  3
Dash dot (2x) ____  .  ____  .  ____  .  ___
 72
    65
 73
     4
 40
50.8
 49
25.4
 74
     0
 49
-12.7
 74
     0
 49
0.0
 74
     0
 49
-12.7
 74
     0
  0
LTYPE
  5
3E
330
5
100
AcDbSymbolTableRecord
100
AcDbLinetypeTableRecord
  2
DASHED
 70
     0
  3
Dashed __ __ __ __ __ __ __ __ __ __ __ __ __ _
 72
    65
 73
     2
 40
19.05
 49
12.7
 74
     0
 49
-6.349999999999998
 74
     0
  0
LTYPE
  5
3F
330
5
100
AcDbSymbolTableRecord
100
AcDbLinetypeTableRecord
  2
DASHED2
 70
     0
  3
Dashed (.5x) _ _ _ _ _ _ _ _ _ _ _ _ _ _ _ _ _
 72
    65
 73
     2
 40
9.525
 49
6.349999999999998
 74
     0
 49
-3.174999999999998
 74
     0
  0
LTYPE
  5
40
330
5
100
AcDbSymbolTableRecord
100
AcDbLinetypeTableRecord
  2
DASHEDX2
 70
     0
  3
Dashed (2x) ____  ____  ____  ____  ____  ___
 72
    65
 73
     2
 40
38.1
 49
25.4
 74
     0
 49
-12.7
 74
     0
  0
LTYPE
  5
41
330
5
100
AcDbSymbolTableRecord
100
AcDbLinetypeTableRecord
  2
DIVIDE
 70
     0
  3
Divide ____ . . ____ . . ____ . . ____ . . ____
 72
    65
 73
     6
 40
31.75
 49
12.7
 74
     0
 49
-6.349999999999998
 74
     0
 49
0.0
 74
     0
 49
-6.349999999999998
 74
     0
 49
0.0
 74
     0
 49
-6.349999999999998
 74
     0
  0
LTYPE
  5
42
330
5
100
AcDbSymbolTableRecord
100
AcDbLinetypeTableRecord
  2
DIVIDE2
 70
     0
  3
Divide (.5x) __..__..__..__..__..__..__..__.._
 72
    65
 73
     6
 40
15.875
 49
6.349999999999998
 74
     0
 49
-3.174999999999998
 74
     0
 49
0.0
 74
     0
 49
-3.174999999999998
 74
     0
 49
0.0
 74
     0
 49
-3.174999999999998
 74
     0
  0
LTYPE
  5
43
330
5
100
AcDbSymbolTableRecord
100
AcDbLinetypeTableRecord
  2
DIVIDEX2
 70
     0
  3
Divide (2x) ________  .  .  ________  .  .  _
 72
    65
 73
     6
 40
63.5
 49
25.4
 74
     0
 49
-12.7
 74
     0
 49
0.0
 74
     0
 49
-12.7
 74
     0
 49
0.0
 74
     0
 49
-12.7
 74
     0
  0
LTYPE
  5
44
330
5
100
AcDbSymbolTableRecord
100
AcDbLinetypeTableRecord
  2
DOT
 70
     0
  3
Dot . . . . . . . . . . . . . . . . . . . . . .
 72
    65
 73
     2
 40
6.349999999999998
 49
0.0
 74
     0
 49
-6.349999999999998
 74
     0
  0
LTYPE
  5
45
330
5
100
AcDbSymbolTableRecord
100
AcDbLinetypeTableRecord
  2
DOT2
 70
     0
  3
Dot (.5x) .....................................
 72
    65
 73
     2
 40
3.174999999999998
 49
0.0
 74
     0
 49
-3.174999999999998
 74
     0
  0
LTYPE
  5
46
330
5
100
AcDbSymbolTableRecord
100
AcDbLinetypeTableRecord
  2
DOTX2
 70
     0
  3
Dot (2x) .  .  .  .  .  .  .  .  .  .  .  .  .
 72
    65
 73
     2
 40
12.7
 49
0.0
 74
     0
 49
-12.7
 74
     0
  0
ENDTAB
  0
TABLE
  2
LAYER
  5
2
102
{ACAD_XDICTIONARY
360
101018B
102
}
330
0
100
AcDbSymbolTable
 70
     5
  0
LAYER
  5
10
102
{ACAD_XDICTIONARY
360
10059
102
}
330
2
100
AcDbSymbolTableRecord
100
AcDbLayerTableRecord
  2
0
 70
     0
 62
   250
  6
CONTINUOUS
370
   100
390
F
347
10013
348
0
  0
LAYER
  5
47
102
{ACAD_XDICTIONARY
360
1005B
102
}
330
2
100
AcDbSymbolTableRecord
100
AcDbLayerTableRecord
  2
H
 70
     0
 62
     7
  6
CONTINUOUS
370
   100
390
F
347
10013
348
0
  0
LAYER
  5
48
102
{ACAD_XDICTIONARY
360
1005D
102
}
330
2
100
AcDbSymbolTableRecord
100
AcDbLayerTableRecord
  2
P
 70
     0
 62
   250
  6
CONTINUOUS
370
   100
390
F
347
10013
348
0
  0
LAYER
  5
49
102
{ACAD_XDICTIONARY
360
1005F
102
}
330
2
100
AcDbSymbolTableRecord
100
AcDbLayerTableRecord
  2
Text
 70
     0
 62
   250
  6
CONTINUOUS
370
   100
390
F
347
10013
348
0
  0
LAYER
  5
4A
102
{ACAD_XDICTIONARY
360
10061
102
}
330
2
100
AcDbSymbolTableRecord
100
AcDbLayerTableRecord
  2
Images
 70
     0
 62
   250
  6
CONTINUOUS
370
   100
390
F
347
10013
348
0
  0
ENDTAB
  0
TABLE
  2
STYLE
  5
3
330
0
100
AcDbSymbolTable
 70
     2
  0
STYLE
  5
11
330
3
100
AcDbSymbolTableRecord
100
AcDbTextStyleTableRecord
  2
Standard
 70
     0
 40
0.0
 41
0.75
 50
0.0
 71
     0
 42
2.5
  3
txt
  4

  0
STYLE
  5
10001
330
3
100
AcDbSymbolTableRecord
100
AcDbTextStyleTableRecord
  2
Roman
 70
     0
 40
0.0
 41
1.0
 50
0.0
 71
     0
 42
0.2
  3

  4

  0
ENDTAB
  0
TABLE
  2
VIEW
  5
6
330
0
100
AcDbSymbolTable
 70
     0
  0
ENDTAB
  0
TABLE
  2
UCS
  5
7
330
0
100
AcDbSymbolTable
 70
     0
  0
ENDTAB
  0
TABLE
  2
APPID
  5
9
330
0
100
AcDbSymbolTable
 70
     4
  0
APPID
  5
12
330
9
100
AcDbSymbolTableRecord
100
AcDbRegAppTableRecord
  2
ACAD
 70
     0
  0
APPID
  5
10052
330
9
100
AcDbSymbolTableRecord
100
AcDbRegAppTableRecord
  2
ACAD_EXEMPT_FROM_CAD_STANDARDS
 70
     0
  0
APPID
  5
1006B
330
9
100
AcDbSymbolTableRecord
100
AcDbRegAppTableRecord
  2
ACAD_NAV_VCDISPLAY
 70
     0
  0
APPID
  5
100AA
330
9
100
AcDbSymbolTableRecord
100
AcDbRegAppTableRecord
  2
ACAD_MLEADERVER
 70
     0
  0
ENDTAB
  0
TABLE
  2
DIMSTYLE
  5
A
330
0
100
AcDbSymbolTable
 70
     1
100
AcDbDimStyleTable
 71
     1
340
27
  0
DIMSTYLE
105
27
330
A
100
AcDbSymbolTableRecord
100
AcDbDimStyleTableRecord
  2
Standard
 70
     0
 41
1.0
 42
1.0
 43
3.75
 44
1.0
 73
     0
 74
     0
 77
     1
 78
     8
140
1.0
141
2.5
143
0.03937007874016
147
1.0
171
     3
172
     1
271
     2
272
     2
274
     3
278
    44
283
     0
284
     8
340
11
  0
ENDTAB
  0
TABLE
  2
BLOCK_RECORD
  5
1
330
0
100
AcDbSymbolTable
 70
     1
  0
BLOCK_RECORD
  5
1F
330
1
100
AcDbSymbolTableRecord
100
AcDbBlockTableRecord
  2
*Model_Space
340
22
 70
     0
280
     1
281
     0
  0
BLOCK_RECORD
  5
1B
330
1
100
AcDbSymbolTableRecord
100
AcDbBlockTableRecord
  2
*Paper_Space
340
1E
 70
     0
280
     1
281
     0
  0
BLOCK_RECORD
  5
23
330
1
100
AcDbSymbolTableRecord
100
AcDbBlockTableRecord
  2
*Paper_Space0
340
26
 70
     0
280
     1
281
     0
  0
ENDTAB
  0
ENDSEC
  0
SECTION
  2
BLOCKS
  0
BLOCK
  5
20
330
1F
100
AcDbEntity
  8
0
100
AcDbBlockBegin
  2
*Model_Space
 70
     0
 10
0.0
 20
0.0
 30
0.0
  3
*Model_Space
  1

  0
ENDBLK
  5
21
330
1F
100
AcDbEntity
  8
0
100
AcDbBlockEnd
  0
BLOCK
  5
1C
330
1B
100
AcDbEntity
 67
     1
  8
0
100
AcDbBlockBegin
  2
*Paper_Space
 70
     0
 10
0.0
 20
0.0
 30
0.0
  3
*Paper_Space
  1

  0
ENDBLK
  5
1D
330
1B
100
AcDbEntity
 67
     1
  8
0
100
AcDbBlockEnd
  0
BLOCK
  5
24
330
23
100
AcDbEntity
 67
     1
  8
0
100
AcDbBlockBegin
  2
*Paper_Space0
 70
     0
 10
0.0
 20
0.0
 30
0.0
  3
*Paper_Space0
  1

  0
ENDBLK
  5
25
330
23
100
AcDbEntity
 67
     1
  8
0
100
AcDbBlockEnd
  0
ENDSEC
  0
SECTION
  2
ENTITIES
  0
MTEXT
  5
52
330
1F
100
AcDbEntity
  8
Text
  6
Continuous
 62
     0
100
AcDbMText
 10
170.5
 20
36.58333333333331
 30
0.0
 40
3.25
 41
3.5
 46
0.0
 71
     4
 72
     5
  1
{\fHelveticaNeueLTPro|b0|i0|c1|p15; }
 73
     2
 44
1.0
  0
MTEXT
  5
64
330
1F
100
AcDbEntity
  8
Text
  6
Continuous
 62
     0
100
AcDbMText
 10
55.16666666666665
 20
52.16666666666668
 30
0.0
 40
3.0
 41
3.25
 46
0.0
 71
     4
 72
     5
  1
{\fHelveticaNeueLTPro|b0|i0|c1|p15; }
 73
     2
 44
1.0
  0
MTEXT
  5
6A
330
1F
100
AcDbEntity
  8
Text
  6
Continuous
 62
     0
100
AcDbMText
 10
65.33333333333333
 20
52.16666666666668
 30
0.0
 40
3.0
 41
3.25
 46
0.0
 71
     4
 72
     5
  1
{\fHelveticaNeueLTPro|b0|i0|c1|p15; }
 73
     2
 44
1.0
  0
MTEXT
  5
6E
330
1F
100
AcDbEntity
  8
Text
  6
Continuous
 62
     0
100
AcDbMText
 10
71.08333333333333
 20
52.16666666666668
 30
0.0
 40
3.0
 41
3.25
 46
0.0
 71
     4
 72
     5
  1
{\fHelveticaNeueLTPro|b0|i0|c1|p15; }
 73
     2
 44
1.0
  0
MTEXT
  5
7B
330
1F
100
AcDbEntity
  8
Text
  6
Continuous
 62
     0
100
AcDbMText
 10
93.16666666666668
 20
52.16666666666668
 30
0.0
 40
3.0
 41
3.25
 46
0.0
 71
     4
 72
     5
  1
{\fHelveticaNeueLTPro|b0|i0|c1|p15; }
 73
     2
 44
1.0
  0
MTEXT
  5
85
330
1F
100
AcDbEntity
  8
Text
  6
Continuous
 62
     0
100
AcDbMText
 10
108.75
 20
52.16666666666668
 30
0.0
 40
3.0
 41
3.25
 46
0.0
 71
     4
 72
     5
  1
{\fHelveticaNeueLTPro|b0|i0|c1|p15; }
 73
     2
 44
1.0
  0
MTEXT
  5
89
330
1F
100
AcDbEntity
  8
Text
  6
Continuous
 62
     0
100
AcDbMText
 10
115.3333333333333
 20
52.16666666666668
 30
0.0
 40
3.0
 41
3.25
 46
0.0
 71
     4
 72
     5
  1
{\fHelveticaNeueLTPro|b0|i0|c1|p15; }
 73
     2
 44
1.0
  0
MTEXT
  5
92
330
1F
100
AcDbEntity
  8
Text
  6
Continuous
 62
     0
100
AcDbMText
 10
128.9166666666666
 20
52.16666666666668
 30
0.0
 40
3.0
 41
3.25
 46
0.0
 71
     4
 72
     5
  1
{\fHelveticaNeueLTPro|b0|i0|c1|p15; }
 73
     2
 44
1.0
  0
MTEXT
  5
98
330
1F
100
AcDbEntity
  8
Text
  6
Continuous
 62
     0
100
AcDbMText
 10
137.75
 20
52.16666666666668
 30
0.0
 40
3.0
 41
3.25
 46
0.0
 71
     4
 72
     5
  1
{\fHelveticaNeueLTPro|b0|i0|c1|p15; }
 73
     2
 44
1.0
  0
MTEXT
  5
E3
330
1F
100
AcDbEntity
  8
Text
  6
Continuous
 62
     7
100
AcDbMText
 10
66.16666666666667
 20
36.41666666666669
 30
0.0
 40
3.75
 41
4.0
 46
0.0
 71
     4
 72
     5
  1
{\fHelveticaNeueLTPro|b0|i0|c1|p15; }
 73
     2
 44
1.0
  0
MTEXT
  5
E7
330
1F
100
AcDbEntity
  8
Text
  6
Continuous
 62
     7
100
AcDbMText
 10
74.33333333333333
 20
36.41666666666669
 30
0.0
 40
3.75
 41
4.0
 46
0.0
 71
     4
 72
     5
  1
{\fHelveticaNeueLTPro|b0|i0|c1|p15; }
 73
     2
 44
1.0
  0
MTEXT
  5
EB
330
1F
100
AcDbEntity
  8
Text
  6
Continuous
 62
     7
100
AcDbMText
 10
82.33333333333332
 20
36.41666666666669
 30
0.0
 40
3.75
 41
4.0
 46
0.0
 71
     4
 72
     5
  1
{\fHelveticaNeueLTPro|b0|i0|c1|p15; }
 73
     2
 44
1.0
  0
MTEXT
  5
F9
330
1F
100
AcDbEntity
  8
Text
  6
Continuous
 62
     0
100
AcDbMText
 10
273.25
 20
389.1666666666666
 30
0.0
 40
3.75
 41
4.0
 46
0.0
 71
     4
 72
     5
  1
{\fHelveticaNeueLTPro|b0|i0|c1|p15; }
 73
     2
 44
1.0
  0
MTEXT
  5
FA
330
1F
100
AcDbEntity
  8
Text
  6
Continuous
 62
     0
100
AcDbMText
 10
177.1666666666666
 20
389.4166666666666
 30
0.0
 40
3.75
 41
4.0
 46
0.0
 71
     4
 72
     5
  1
{\fHelveticaNeueLTPro|b0|i0|c1|p15; }
 73
     2
 44
1.0
  0
HATCH
  5
10113C5
330
1F
100
AcDbEntity
  8
H
  6
Continuous
 62
     0
100
AcDbHatch
 10
0.0
 20
0.0
 30
0.0
210
0.0
220
0.0
230
1.0
  2
SOLID
 70
     1
 71
     0
 91
        1
 92
        1
 93
       20
 72
     1
 10
82.24024321813159
 20
264.1576154422961
 11
82.24024321813159
 21
263.3242821089628
 72
     1
 10
82.24024321813159
 20
263.3242821089628
 11
82.5735765514649
 21
262.5742821089628
 72
     1
 10
82.5735765514649
 20
262.5742821089628
 11
82.99024321813158
 21
261.9076154422961
 72
     1
 10
82.99024321813158
 20
261.9076154422961
 11
83.57357655146492
 21
261.3242821089628
 72
     1
 10
83.57357655146492
 20
261.3242821089628
 11
84.15690988479825
 21
260.9076154422961
 72
     1
 10
84.15690988479825
 20
260.9076154422961
 11
84.82357655146492
 21
260.6576154422961
 72
     1
 10
84.82357655146492
 20
260.6576154422961
 11
85.49024321813158
 21
260.4909487756295
 72
     1
 10
85.49024321813158
 20
260.4909487756295
 11
110.1569098847982
 21
260.4909487756295
 72
     1
 10
110.1569098847982
 20
260.4909487756295
 11
106.9902432181315
 21
261.6576154422961
 72
     1
 10
106.9902432181315
 20
261.6576154422961
 11
85.82357655146491
 21
261.6576154422961
 72
     1
 10
85.82357655146491
 20
261.6576154422961
 11
85.15690988479825
 21
261.7409487756295
 72
     1
 10
85.15690988479825
 20
261.7409487756295
 11
84.65690988479826
 21
261.9909487756295
 72
     1
 10
84.65690988479826
 20
261.9909487756295
 11
84.32357655146491
 21
262.2409487756295
 72
     1
 10
84.32357655146491
 20
262.2409487756295
 11
83.90690988479825
 21
262.5742821089628
 72
     1
 10
83.90690988479825
 20
262.5742821089628
 11
83.65690988479824
 21
263.0742821089628
 72
     1
 10
83.65690988479824
 20
263.0742821089628
 11
83.49024321813159
 21
263.5742821089628
 72
     1
 10
83.49024321813159
 20
263.5742821089628
 11
83.40690988479826
 21
264.0742821089629
 72
     1
 10
83.40690988479826
 20
264.0742821089629
 11
83.49024321813159
 21
288.4909487756295
 72
     1
 10
83.49024321813159
 20
288.4909487756295
 11
82.32357655146492
 21
290.7409487756295
 72
     1
 10
82.32357655146492
 20
290.7409487756295
 11
82.24024321813159
 21
264.1576154422961
 97
        0
 75
     0
 76
     1
 98
        0
450
        0
451
        0
460
0.0
461
0.0
452
        1
462
0.0
453
        0
470

  0
MTEXT
  5
10113C6
330
1F
100
AcDbEntity
  8
Text
  6
Continuous
 62
     0
100
AcDbMText
 10
27.74024321813158
 20
370.8242821089628
 30
0.0
 40
7.75
 41
144.0
 46
0.0
 71
     4
 72
     5
  1
{\fHelveticaNeueLTPro|b0|i0|c1|p15;Detailskizze 5.102}
 73
     2
 44
1.0
  0
MTEXT
  5
10113C7
330
1F
100
AcDbEntity
  8
Text
  6
Continuous
 62
     0
100
AcDbMText
 10
27.74024321813158
 20
361.8242821089628
 30
0.0
 40
7.75
 41
368.0
 46
0.0
 71
     4
 72
     5
  1
{\fStandardCTStencil|b1|i0|c1|p15;Boden-Wand-Anschluss - Abdichtung mit DICHT PA}
 73
     2
 44
1.0
  0
MTEXT
  5
10113C8
330
1F
100
AcDbEntity
  8
Text
  6
Continuous
 62
     0
100
AcDbMText
 10
27.74024321813158
 20
352.2409487756295
 30
0.0
 40
7.75
 41
224.0
 46
0.0
 71
     4
 72
     5
  1
{\fStandardCTStencil|b1|i0|c1|p15;hohe chemische Beanspruchung}
 73
     2
 44
1.0
  0
MTEXT
  5
10113C9
330
1F
100
AcDbEntity
  8
Text
  6
Continuous
 62
     0
100
AcDbMText
 10
27.82357655146491
 20
52.15761544229616
 30
0.0
 40
3.0
 41
3.25
 46
0.0
 71
     4
 72
     5
  1
{\fHelveticaNeueLTPro|b0|i0|c1|p15;D}
 73
     2
 44
1.0
  0
MTEXT
  5
10113CA
330
1F
100
AcDbEntity
  8
Text
  6
Continuous
 62
     0
100
AcDbMText
 10
30.15690988479825
 20
52.15761544229616
 30
0.0
 40
3.0
 41
3.25
 46
0.0
 71
     4
 72
     5
  1
{\fHelveticaNeueLTPro|b0|i0|c1|p15;e}
 73
     2
 44
1.0
  0
MTEXT
  5
10113CB
330
1F
100
AcDbEntity
  8
Text
  6
Continuous
 62
     0
100
AcDbMText
 10
31.90690988479825
 20
52.15761544229616
 30
0.0
 40
3.0
 41
3.25
 46
0.0
 71
     4
 72
     5
  1
{\fHelveticaNeueLTPro|b0|i0|c1|p15;t}
 73
     2
 44
1.0
  0
MTEXT
  5
10113CC
330
1F
100
AcDbEntity
  8
Text
  6
Continuous
 62
     0
100
AcDbMText
 10
32.99024321813158
 20
52.15761544229616
 30
0.0
 40
3.0
 41
3.25
 46
0.0
 71
     4
 72
     5
  1
{\fHelveticaNeueLTPro|b0|i0|c1|p15;a}
 73
     2
 44
1.0
  0
MTEXT
  5
10113CD
330
1F
100
AcDbEntity
  8
Text
  6
Continuous
 62
     0
100
AcDbMText
 10
34.82357655146492
 20
52.15761544229616
 30
0.0
 40
3.0
 41
3.25
 46
0.0
 71
     4
 72
     5
  1
{\fHelveticaNeueLTPro|b0|i0|c1|p15;i}
 73
     2
 44
1.0
  0
MTEXT
  5
10113CE
330
1F
100
AcDbEntity
  8
Text
  6
Continuous
 62
     0
100
AcDbMText
 10
35.57357655146492
 20
52.15761544229616
 30
0.0
 40
3.0
 41
3.25
 46
0.0
 71
     4
 72
     5
  1
{\fHelveticaNeueLTPro|b0|i0|c1|p15;l}
 73
     2
 44
1.0
  0
MTEXT
  5
10113CF
330
1F
100
AcDbEntity
  8
Text
  6
Continuous
 62
     0
100
AcDbMText
 10
36.32357655146492
 20
52.15761544229616
 30
0.0
 40
3.0
 41
3.25
 46
0.0
 71
     4
 72
     5
  1
{\fHelveticaNeueLTPro|b0|i0|c1|p15;z}
 73
     2
 44
1.0
  0
MTEXT
  5
10113D0
330
1F
100
AcDbEntity
  8
Text
  6
Continuous
 62
     0
100
AcDbMText
 10
37.90690988479825
 20
52.15761544229616
 30
0.0
 40
3.0
 41
3.25
 46
0.0
 71
     4
 72
     5
  1
{\fHelveticaNeueLTPro|b0|i0|c1|p15;e}
 73
     2
 44
1.0
  0
MTEXT
  5
10113D1
330
1F
100
AcDbEntity
  8
Text
  6
Continuous
 62
     0
100
AcDbMText
 10
39.65690988479824
 20
52.15761544229616
 30
0.0
 40
3.0
 41
3.25
 46
0.0
 71
     4
 72
     5
  1
{\fHelveticaNeueLTPro|b0|i0|c1|p15;i}
 73
     2
 44
1.0
  0
MTEXT
  5
10113D2
330
1F
100
AcDbEntity
  8
Text
  6
Continuous
 62
     0
100
AcDbMText
 10
40.49024321813158
 20
52.15761544229616
 30
0.0
 40
3.0
 41
3.25
 46
0.0
 71
     4
 72
     5
  1
{\fHelveticaNeueLTPro|b0|i0|c1|p15;c}
 73
     2
 44
1.0
  0
MTEXT
  5
10113D3
330
1F
100
AcDbEntity
  8
Text
  6
Continuous
 62
     0
100
AcDbMText
 10
42.24024321813158
 20
52.15761544229616
 30
0.0
 40
3.0
 41
3.25
 46
0.0
 71
     4
 72
     5
  1
{\fHelveticaNeueLTPro|b0|i0|c1|p15;h}
 73
     2
 44
1.0
  0
MTEXT
  5
10113D4
330
1F
100
AcDbEntity
  8
Text
  6
Continuous
 62
     0
100
AcDbMText
 10
44.07357655146491
 20
52.15761544229616
 30
0.0
 40
3.0
 41
3.25
 46
0.0
 71
     4
 72
     5
  1
{\fHelveticaNeueLTPro|b0|i0|c1|p15;n}
 73
     2
 44
1.0
  0
MTEXT
  5
10113D5
330
1F
100
AcDbEntity
  8
Text
  6
Continuous
 62
     0
100
AcDbMText
 10
45.90690988479824
 20
52.15761544229616
 30
0.0
 40
3.0
 41
3.25
 46
0.0
 71
     4
 72
     5
  1
{\fHelveticaNeueLTPro|b0|i0|c1|p15;u}
 73
     2
 44
1.0
  0
MTEXT
  5
10113D6
330
1F
100
AcDbEntity
  8
Text
  6
Continuous
 62
     0
100
AcDbMText
 10
47.74024321813158
 20
52.15761544229616
 30
0.0
 40
3.0
 41
3.25
 46
0.0
 71
     4
 72
     5
  1
{\fHelveticaNeueLTPro|b0|i0|c1|p15;n}
 73
     2
 44
1.0
  0
MTEXT
  5
10113D7
330
1F
100
AcDbEntity
  8
Text
  6
Continuous
 62
     0
100
AcDbMText
 10
49.65690988479824
 20
52.15761544229616
 30
0.0
 40
3.0
 41
3.25
 46
0.0
 71
     4
 72
     5
  1
{\fHelveticaNeueLTPro|b0|i0|c1|p15;g}
 73
     2
 44
1.0
  0
MTEXT
  5
10113D8
330
1F
100
AcDbEntity
  8
Text
  6
Continuous
 62
     0
100
AcDbMText
 10
51.49024321813158
 20
52.15761544229616
 30
0.0
 40
3.0
 41
3.25
 46
0.0
 71
     4
 72
     5
  1
{\fHelveticaNeueLTPro|b0|i0|c1|p15;e}
 73
     2
 44
1.0
  0
MTEXT
  5
10113D9
330
1F
100
AcDbEntity
  8
Text
  6
Continuous
 62
     0
100
AcDbMText
 10
53.32357655146491
 20
52.15761544229616
 30
0.0
 40
3.0
 41
3.25
 46
0.0
 71
     4
 72
     5
  1
{\fHelveticaNeueLTPro|b0|i0|c1|p15;n}
 73
     2
 44
1.0
  0
MTEXT
  5
10113DA
330
1F
100
AcDbEntity
  8
Text
  6
Continuous
 62
     0
100
AcDbMText
 10
56.07357655146492
 20
52.15761544229616
 30
0.0
 40
3.0
 41
3.25
 46
0.0
 71
     4
 72
     5
  1
{\fHelveticaNeueLTPro|b0|i0|c1|p15;h}
 73
     2
 44
1.0
  0
MTEXT
  5
10113DB
330
1F
100
AcDbEntity
  8
Text
  6
Continuous
 62
     0
100
AcDbMText
 10
57.90690988479824
 20
52.15761544229616
 30
0.0
 40
3.0
 41
3.25
 46
0.0
 71
     4
 72
     5
  1
{\fHelveticaNeueLTPro|b0|i0|c1|p15;a}
 73
     2
 44
1.0
  0
MTEXT
  5
10113DC
330
1F
100
AcDbEntity
  8
Text
  6
Continuous
 62
     0
100
AcDbMText
 10
59.74024321813158
 20
52.15761544229616
 30
0.0
 40
3.0
 41
3.25
 46
0.0
 71
     4
 72
     5
  1
{\fHelveticaNeueLTPro|b0|i0|c1|p15;b}
 73
     2
 44
1.0
  0
MTEXT
  5
10113DD
330
1F
100
AcDbEntity
  8
Text
  6
Continuous
 62
     0
100
AcDbMText
 10
61.65690988479824
 20
52.15761544229616
 30
0.0
 40
3.0
 41
3.25
 46
0.0
 71
     4
 72
     5
  1
{\fHelveticaNeueLTPro|b0|i0|c1|p15;e}
 73
     2
 44
1.0
  0
MTEXT
  5
10113DE
330
1F
100
AcDbEntity
  8
Text
  6
Continuous
 62
     0
100
AcDbMText
 10
63.49024321813158
 20
52.15761544229616
 30
0.0
 40
3.0
 41
3.25
 46
0.0
 71
     4
 72
     5
  1
{\fHelveticaNeueLTPro|b0|i0|c1|p15;n}
 73
     2
 44
1.0
  0
MTEXT
  5
10113DF
330
1F
100
AcDbEntity
  8
Text
  6
Continuous
 62
     0
100
AcDbMText
 10
66.24024321813158
 20
52.15761544229616
 30
0.0
 40
3.0
 41
3.25
 46
0.0
 71
     4
 72
     5
  1
{\fHelveticaNeueLTPro|b0|i0|c1|p15;n}
 73
     2
 44
1.0
  0
MTEXT
  5
10113E0
330
1F
100
AcDbEntity
  8
Text
  6
Continuous
 62
     0
100
AcDbMText
 10
68.07357655146491
 20
52.15761544229616
 30
0.0
 40
3.0
 41
3.25
 46
0.0
 71
     4
 72
     5
  1
{\fHelveticaNeueLTPro|b0|i0|c1|p15;u}
 73
     2
 44
1.0
  0
MTEXT
  5
10113E1
330
1F
100
AcDbEntity
  8
Text
  6
Continuous
 62
     0
100
AcDbMText
 10
69.90690988479825
 20
52.15761544229616
 30
0.0
 40
3.0
 41
3.25
 46
0.0
 71
     4
 72
     5
  1
{\fHelveticaNeueLTPro|b0|i0|c1|p15;r}
 73
     2
 44
1.0
  0
MTEXT
  5
10113E2
330
1F
100
AcDbEntity
  8
Text
  6
Continuous
 62
     0
100
AcDbMText
 10
71.99024321813158
 20
52.15761544229616
 30
0.0
 40
3.0
 41
3.25
 46
0.0
 71
     4
 72
     5
  1
{\fHelveticaNeueLTPro|b0|i0|c1|p15;e}
 73
     2
 44
1.0
  0
MTEXT
  5
10113E3
330
1F
100
AcDbEntity
  8
Text
  6
Continuous
 62
     0
100
AcDbMText
 10
73.82357655146491
 20
52.15761544229616
 30
0.0
 40
3.0
 41
3.25
 46
0.0
 71
     4
 72
     5
  1
{\fHelveticaNeueLTPro|b0|i0|c1|p15;m}
 73
     2
 44
1.0
  0
MTEXT
  5
10113E4
330
1F
100
AcDbEntity
  8
Text
  6
Continuous
 62
     0
100
AcDbMText
 10
76.57357655146491
 20
52.15761544229616
 30
0.0
 40
3.0
 41
3.25
 46
0.0
 71
     4
 72
     5
  1
{\fHelveticaNeueLTPro|b0|i0|c1|p15;p}
 73
     2
 44
1.0
  0
MTEXT
  5
10113E5
330
1F
100
AcDbEntity
  8
Text
  6
Continuous
 62
     0
100
AcDbMText
 10
78.57357655146491
 20
52.15761544229616
 30
0.0
 40
3.0
 41
3.25
 46
0.0
 71
     4
 72
     5
  1
{\fHelveticaNeueLTPro|b0|i0|c1|p15;f}
 73
     2
 44
1.0
  0
MTEXT
  5
10113E6
330
1F
100
AcDbEntity
  8
Text
  6
Continuous
 62
     0
100
AcDbMText
 10
79.57357655146491
 20
52.15761544229616
 30
0.0
 40
3.0
 41
3.25
 46
0.0
 71
     4
 72
     5
  1
{\fHelveticaNeueLTPro|b0|i0|c1|p15;e}
 73
     2
 44
1.0
  0
MTEXT
  5
10113E7
330
1F
100
AcDbEntity
  8
Text
  6
Continuous
 62
     0
100
AcDbMText
 10
81.3235765514649
 20
52.15761544229616
 30
0.0
 40
3.0
 41
3.25
 46
0.0
 71
     4
 72
     5
  1
{\fHelveticaNeueLTPro|b0|i0|c1|p15;h}
 73
     2
 44
1.0
  0
MTEXT
  5
10113E8
330
1F
100
AcDbEntity
  8
Text
  6
Continuous
 62
     0
100
AcDbMText
 10
83.24024321813158
 20
52.15761544229616
 30
0.0
 40
3.0
 41
3.25
 46
0.0
 71
     4
 72
     5
  1
{\fHelveticaNeueLTPro|b0|i0|c1|p15;l}
 73
     2
 44
1.0
  0
MTEXT
  5
10113E9
330
1F
100
AcDbEntity
  8
Text
  6
Continuous
 62
     0
100
AcDbMText
 10
83.99024321813158
 20
52.15761544229616
 30
0.0
 40
3.0
 41
3.25
 46
0.0
 71
     4
 72
     5
  1
{\fHelveticaNeueLTPro|b0|i0|c1|p15;e}
 73
     2
 44
1.0
  0
MTEXT
  5
10113EA
330
1F
100
AcDbEntity
  8
Text
  6
Continuous
 62
     0
100
AcDbMText
 10
85.74024321813158
 20
52.15761544229616
 30
0.0
 40
3.0
 41
3.25
 46
0.0
 71
     4
 72
     5
  1
{\fHelveticaNeueLTPro|b0|i0|c1|p15;n}
 73
     2
 44
1.0
  0
MTEXT
  5
10113EB
330
1F
100
AcDbEntity
  8
Text
  6
Continuous
 62
     0
100
AcDbMText
 10
87.5735765514649
 20
52.15761544229616
 30
0.0
 40
3.0
 41
3.25
 46
0.0
 71
     4
 72
     5
  1
{\fHelveticaNeueLTPro|b0|i0|c1|p15;d}
 73
     2
 44
1.0
  0
MTEXT
  5
10113EC
330
1F
100
AcDbEntity
  8
Text
  6
Continuous
 62
     0
100
AcDbMText
 10
89.57357655146491
 20
52.15761544229616
 30
0.0
 40
3.0
 41
3.25
 46
0.0
 71
     4
 72
     5
  1
{\fHelveticaNeueLTPro|b0|i0|c1|p15;e}
 73
     2
 44
1.0
  0
MTEXT
  5
10113ED
330
1F
100
AcDbEntity
  8
Text
  6
Continuous
 62
     0
100
AcDbMText
 10
91.3235765514649
 20
52.15761544229616
 30
0.0
 40
3.0
 41
3.25
 46
0.0
 71
     4
 72
     5
  1
{\fHelveticaNeueLTPro|b0|i0|c1|p15;n}
 73
     2
 44
1.0
  0
MTEXT
  5
10113EE
330
1F
100
AcDbEntity
  8
Text
  6
Continuous
 62
     0
100
AcDbMText
 10
94.15690988479825
 20
52.15761544229616
 30
0.0
 40
3.0
 41
3.25
 46
0.0
 71
     4
 72
     5
  1
{\fHelveticaNeueLTPro|b0|i0|c1|p15;C}
 73
     2
 44
1.0
  0
MTEXT
  5
10113EF
330
1F
100
AcDbEntity
  8
Text
  6
Continuous
 62
     0
100
AcDbMText
 10
96.49024321813158
 20
52.15761544229616
 30
0.0
 40
3.0
 41
3.25
 46
0.0
 71
     4
 72
     5
  1
{\fHelveticaNeueLTPro|b0|i0|c1|p15;h}
 73
     2
 44
1.0
  0
MTEXT
  5
10113F0
330
1F
100
AcDbEntity
  8
Text
  6
Continuous
 62
     0
100
AcDbMText
 10
98.32357655146491
 20
52.15761544229616
 30
0.0
 40
3.0
 41
3.25
 46
0.0
 71
     4
 72
     5
  1
{\fHelveticaNeueLTPro|b0|i0|c1|p15;a}
 73
     2
 44
1.0
  0
MTEXT
  5
10113F1
330
1F
100
AcDbEntity
  8
Text
  6
Continuous
 62
     0
100
AcDbMText
 10
100.1569098847982
 20
52.15761544229616
 30
0.0
 40
3.0
 41
3.25
 46
0.0
 71
     4
 72
     5
  1
{\fHelveticaNeueLTPro|b0|i0|c1|p15;r}
 73
     2
 44
1.0
  0
MTEXT
  5
10113F2
330
1F
100
AcDbEntity
  8
Text
  6
Continuous
 62
     0
100
AcDbMText
 10
101.2402432181316
 20
52.15761544229616
 30
0.0
 40
3.0
 41
3.25
 46
0.0
 71
     4
 72
     5
  1
{\fHelveticaNeueLTPro|b0|i0|c1|p15;a}
 73
     2
 44
1.0
  0
MTEXT
  5
10113F3
330
1F
100
AcDbEntity
  8
Text
  6
Continuous
 62
     0
100
AcDbMText
 10
103.0735765514649
 20
52.15761544229616
 30
0.0
 40
3.0
 41
3.25
 46
0.0
 71
     4
 72
     5
  1
{\fHelveticaNeueLTPro|b0|i0|c1|p15;k}
 73
     2
 44
1.0
  0
MTEXT
  5
10113F4
330
1F
100
AcDbEntity
  8
Text
  6
Continuous
 62
     0
100
AcDbMText
 10
104.7402432181316
 20
52.15761544229616
 30
0.0
 40
3.0
 41
3.25
 46
0.0
 71
     4
 72
     5
  1
{\fHelveticaNeueLTPro|b0|i0|c1|p15;t}
 73
     2
 44
1.0
  0
MTEXT
  5
10113F5
330
1F
100
AcDbEntity
  8
Text
  6
Continuous
 62
     0
100
AcDbMText
 10
105.8235765514649
 20
52.15761544229616
 30
0.0
 40
3.0
 41
3.25
 46
0.0
 71
     4
 72
     5
  1
{\fHelveticaNeueLTPro|b0|i0|c1|p15;e}
 73
     2
 44
1.0
  0
MTEXT
  5
10113F6
330
1F
100
AcDbEntity
  8
Text
  6
Continuous
 62
     0
100
AcDbMText
 10
107.5735765514649
 20
52.15761544229616
 30
0.0
 40
3.0
 41
3.25
 46
0.0
 71
     4
 72
     5
  1
{\fHelveticaNeueLTPro|b0|i0|c1|p15;r}
 73
     2
 44
1.0
  0
MTEXT
  5
10113F7
330
1F
100
AcDbEntity
  8
Text
  6
Continuous
 62
     0
100
AcDbMText
 10
109.6569098847982
 20
52.15761544229616
 30
0.0
 40
3.0
 41
3.25
 46
0.0
 71
     4
 72
     5
  1
{\fHelveticaNeueLTPro|b0|i0|c1|p15;u}
 73
     2
 44
1.0
  0
MTEXT
  5
10113F8
330
1F
100
AcDbEntity
  8
Text
  6
Continuous
 62
     0
100
AcDbMText
 10
111.4902432181316
 20
52.15761544229616
 30
0.0
 40
3.0
 41
3.25
 46
0.0
 71
     4
 72
     5
  1
{\fHelveticaNeueLTPro|b0|i0|c1|p15;n}
 73
     2
 44
1.0
  0
MTEXT
  5
10113F9
330
1F
100
AcDbEntity
  8
Text
  6
Continuous
 62
     0
100
AcDbMText
 10
113.3235765514649
 20
52.15761544229616
 30
0.0
 40
3.0
 41
3.25
 46
0.0
 71
     4
 72
     5
  1
{\fHelveticaNeueLTPro|b0|i0|c1|p15;d}
 73
     2
 44
1.0
  0
MTEXT
  5
10113FA
330
1F
100
AcDbEntity
  8
Text
  6
Continuous
 62
     0
100
AcDbMText
 10
116.2402432181316
 20
52.15761544229616
 30
0.0
 40
3.0
 41
3.25
 46
0.0
 71
     4
 72
     5
  1
{\fHelveticaNeueLTPro|b0|i0|c1|p15;e}
 73
     2
 44
1.0
  0
MTEXT
  5
10113FB
330
1F
100
AcDbEntity
  8
Text
  6
Continuous
 62
     0
100
AcDbMText
 10
118.0735765514649
 20
52.15761544229616
 30
0.0
 40
3.0
 41
3.25
 46
0.0
 71
     4
 72
     5
  1
{\fHelveticaNeueLTPro|b0|i0|c1|p15;r}
 73
     2
 44
1.0
  0
MTEXT
  5
10113FC
330
1F
100
AcDbEntity
  8
Text
  6
Continuous
 62
     0
100
AcDbMText
 10
119.1569098847982
 20
52.15761544229616
 30
0.0
 40
3.0
 41
3.25
 46
0.0
 71
     4
 72
     5
  1
{\fHelveticaNeueLTPro|b0|i0|c1|p15;s}
 73
     2
 44
1.0
  0
MTEXT
  5
10113FD
330
1F
100
AcDbEntity
  8
Text
  6
Continuous
 62
     0
100
AcDbMText
 10
120.8235765514649
 20
52.15761544229616
 30
0.0
 40
3.0
 41
3.25
 46
0.0
 71
     4
 72
     5
  1
{\fHelveticaNeueLTPro|b0|i0|c1|p15;e}
 73
     2
 44
1.0
  0
MTEXT
  5
10113FE
330
1F
100
AcDbEntity
  8
Text
  6
Continuous
 62
     0
100
AcDbMText
 10
122.6569098847982
 20
52.15761544229616
 30
0.0
 40
3.0
 41
3.25
 46
0.0
 71
     4
 72
     5
  1
{\fHelveticaNeueLTPro|b0|i0|c1|p15;t}
 73
     2
 44
1.0
  0
MTEXT
  5
10113FF
330
1F
100
AcDbEntity
  8
Text
  6
Continuous
 62
     0
100
AcDbMText
 10
123.6569098847982
 20
52.15761544229616
 30
0.0
 40
3.0
 41
3.25
 46
0.0
 71
     4
 72
     5
  1
{\fHelveticaNeueLTPro|b0|i0|c1|p15;z}
 73
     2
 44
1.0
  0
MTEXT
  5
1011400
330
1F
100
AcDbEntity
  8
Text
  6
Continuous
 62
     0
100
AcDbMText
 10
125.2402432181316
 20
52.15761544229616
 30
0.0
 40
3.0
 41
3.25
 46
0.0
 71
     4
 72
     5
  1
{\fHelveticaNeueLTPro|b0|i0|c1|p15;e}
 73
     2
 44
1.0
  0
MTEXT
  5
1011401
330
1F
100
AcDbEntity
  8
Text
  6
Continuous
 62
     0
100
AcDbMText
 10
127.0735765514649
 20
52.15761544229616
 30
0.0
 40
3.0
 41
3.25
 46
0.0
 71
     4
 72
     5
  1
{\fHelveticaNeueLTPro|b0|i0|c1|p15;n}
 73
     2
 44
1.0
  0
MTEXT
  5
1011402
330
1F
100
AcDbEntity
  8
Text
  6
Continuous
 62
     0
100
AcDbMText
 10
129.8235765514649
 20
52.15761544229616
 30
0.0
 40
3.0
 41
3.25
 46
0.0
 71
     4
 72
     5
  1
{\fHelveticaNeueLTPro|b0|i0|c1|p15;k}
 73
     2
 44
1.0
  0
MTEXT
  5
1011403
330
1F
100
AcDbEntity
  8
Text
  6
Continuous
 62
     0
100
AcDbMText
 10
131.5735765514649
 20
52.15761544229616
 30
0.0
 40
3.0
 41
3.25
 46
0.0
 71
     4
 72
     5
  1
{\fHelveticaNeueLTPro|b0|i0|c1|p15;e}
 73
     2
 44
1.0
  0
MTEXT
  5
1011404
330
1F
100
AcDbEntity
  8
Text
  6
Continuous
 62
     0
100
AcDbMText
 10
133.3235765514649
 20
52.15761544229616
 30
0.0
 40
3.0
 41
3.25
 46
0.0
 71
     4
 72
     5
  1
{\fHelveticaNeueLTPro|b0|i0|c1|p15;i}
 73
     2
 44
1.0
  0
MTEXT
  5
1011405
330
1F
100
AcDbEntity
  8
Text
  6
Continuous
 62
     0
100
AcDbMText
 10
134.1569098847982
 20
52.15761544229616
 30
0.0
 40
3.0
 41
3.25
 46
0.0
 71
     4
 72
     5
  1
{\fHelveticaNeueLTPro|b0|i0|c1|p15;n}
 73
     2
 44
1.0
  0
MTEXT
  5
1011406
330
1F
100
AcDbEntity
  8
Text
  6
Continuous
 62
     0
100
AcDbMText
 10
135.9902432181316
 20
52.15761544229616
 30
0.0
 40
3.0
 41
3.25
 46
0.0
 71
     4
 72
     5
  1
{\fHelveticaNeueLTPro|b0|i0|c1|p15;e}
 73
     2
 44
1.0
  0
MTEXT
  5
1011407
330
1F
100
AcDbEntity
  8
Text
  6
Continuous
 62
     0
100
AcDbMText
 10
138.6569098847982
 20
52.15761544229616
 30
0.0
 40
3.0
 41
3.25
 46
0.0
 71
     4
 72
     5
  1
{\fHelveticaNeueLTPro|b0|i0|c1|p15;F}
 73
     2
 44
1.0
  0
MTEXT
  5
1011408
330
1F
100
AcDbEntity
  8
Text
  6
Continuous
 62
     0
100
AcDbMText
 10
140.5735765514649
 20
52.15761544229616
 30
0.0
 40
3.0
 41
3.25
 46
0.0
 71
     4
 72
     5
  1
{\fHelveticaNeueLTPro|b0|i0|c1|p15;a}
 73
     2
 44
1.0
  0
MTEXT
  5
1011409
330
1F
100
AcDbEntity
  8
Text
  6
Continuous
 62
     0
100
AcDbMText
 10
142.4069098847982
 20
52.15761544229616
 30
0.0
 40
3.0
 41
3.25
 46
0.0
 71
     4
 72
     5
  1
{\fHelveticaNeueLTPro|b0|i0|c1|p15;c}
 73
     2
 44
1.0
  0
MTEXT
  5
101140A
330
1F
100
AcDbEntity
  8
Text
  6
Continuous
 62
     0
100
AcDbMText
 10
144.1569098847982
 20
52.15761544229616
 30
0.0
 40
3.0
 41
3.25
 46
0.0
 71
     4
 72
     5
  1
{\fHelveticaNeueLTPro|b0|i0|c1|p15;h}
 73
     2
 44
1.0
  0
MTEXT
  5
101140B
330
1F
100
AcDbEntity
  8
Text
  6
Continuous
 62
     0
100
AcDbMText
 10
145.9902432181316
 20
52.15761544229616
 30
0.0
 40
3.0
 41
3.25
 46
0.0
 71
     4
 72
     5
  1
{\fHelveticaNeueLTPro|b0|i0|c1|p15;p}
 73
     2
 44
1.0
  0
MTEXT
  5
101140C
330
1F
100
AcDbEntity
  8
Text
  6
Continuous
 62
     0
100
AcDbMText
 10
147.9902432181316
 20
52.15761544229616
 30
0.0
 40
3.0
 41
3.25
 46
0.0
 71
     4
 72
     5
  1
{\fHelveticaNeueLTPro|b0|i0|c1|p15;l}
 73
     2
 44
1.0
  0
MTEXT
  5
101140D
330
1F
100
AcDbEntity
  8
Text
  6
Continuous
 62
     0
100
AcDbMText
 10
148.7402432181315
 20
52.15761544229616
 30
0.0
 40
3.0
 41
3.25
 46
0.0
 71
     4
 72
     5
  1
{\fHelveticaNeueLTPro|b0|i0|c1|p15;a}
 73
     2
 44
1.0
  0
MTEXT
  5
101140E
330
1F
100
AcDbEntity
  8
Text
  6
Continuous
 62
     0
100
AcDbMText
 10
150.4902432181316
 20
52.15761544229616
 30
0.0
 40
3.0
 41
3.25
 46
0.0
 71
     4
 72
     5
  1
{\fHelveticaNeueLTPro|b0|i0|c1|p15;n}
 73
     2
 44
1.0
  0
MTEXT
  5
101140F
330
1F
100
AcDbEntity
  8
Text
  6
Continuous
 62
     0
100
AcDbMText
 10
152.3235765514649
 20
52.15761544229616
 30
0.0
 40
3.0
 41
3.25
 46
0.0
 71
     4
 72
     5
  1
{\fHelveticaNeueLTPro|b0|i0|c1|p15;u}
 73
     2
 44
1.0
  0
MTEXT
  5
1011410
330
1F
100
AcDbEntity
  8
Text
  6
Continuous
 62
     0
100
AcDbMText
 10
154.2402432181316
 20
52.15761544229616
 30
0.0
 40
3.0
 41
3.25
 46
0.0
 71
     4
 72
     5
  1
{\fHelveticaNeueLTPro|b0|i0|c1|p15;n}
 73
     2
 44
1.0
  0
MTEXT
  5
1011411
330
1F
100
AcDbEntity
  8
Text
  6
Continuous
 62
     0
100
AcDbMText
 10
156.0735765514649
 20
52.15761544229616
 30
0.0
 40
3.0
 41
3.25
 46
0.0
 71
     4
 72
     5
  1
{\fHelveticaNeueLTPro|b0|i0|c1|p15;g}
 73
     2
 44
1.0
  0
MTEXT
  5
1011412
330
1F
100
AcDbEntity
  8
Text
  6
Continuous
 62
     0
100
AcDbMText
 10
157.9902432181316
 20
52.15761544229616
 30
0.0
 40
3.0
 41
3.25
 46
0.0
 71
     4
 72
     5
  1
{\fHelveticaNeueLTPro|b0|i0|c1|p15;!}
 73
     2
 44
1.0
  0
MTEXT
  5
1011413
330
1F
100
AcDbEntity
  8
Text
  6
Continuous
 62
     7
100
AcDbMText
 10
36.49024321813158
 20
29.40761544229616
 30
0.0
 40
3.0
 41
3.25
 46
0.0
 71
     4
 72
     5
  1
{\fHelveticaNeueLTPro|b0|i0|c1|p15;w}
 73
     2
 44
1.0
  0
MTEXT
  5
1011414
330
1F
100
AcDbEntity
  8
Text
  6
Continuous
 62
     7
100
AcDbMText
 10
38.99024321813158
 20
29.40761544229616
 30
0.0
 40
3.0
 41
3.25
 46
0.0
 71
     4
 72
     5
  1
{\fHelveticaNeueLTPro|b0|i0|c1|p15;w}
 73
     2
 44
1.0
  0
MTEXT
  5
1011415
330
1F
100
AcDbEntity
  8
Text
  6
Continuous
 62
     7
100
AcDbMText
 10
41.49024321813158
 20
29.40761544229616
 30
0.0
 40
3.0
 41
3.25
 46
0.0
 71
     4
 72
     5
  1
{\fHelveticaNeueLTPro|b0|i0|c1|p15;w}
 73
     2
 44
1.0
  0
MTEXT
  5
1011416
330
1F
100
AcDbEntity
  8
Text
  6
Continuous
 62
     7
100
AcDbMText
 10
43.99024321813158
 20
29.40761544229616
 30
0.0
 40
3.0
 41
3.25
 46
0.0
 71
     4
 72
     5
  1
{\fHelveticaNeueLTPro|b0|i0|c1|p15;.}
 73
     2
 44
1.0
  0
MTEXT
  5
1011417
330
1F
100
AcDbEntity
  8
Text
  6
Continuous
 62
     7
100
AcDbMText
 10
44.90690988479824
 20
29.40761544229616
 30
0.0
 40
3.0
 41
3.25
 46
0.0
 71
     4
 72
     5
  1
{\fHelveticaNeueLTPro|b0|i0|c1|p15;s}
 73
     2
 44
1.0
  0
MTEXT
  5
1011418
330
1F
100
AcDbEntity
  8
Text
  6
Continuous
 62
     7
100
AcDbMText
 10
46.57357655146491
 20
29.40761544229616
 30
0.0
 40
3.0
 41
3.25
 46
0.0
 71
     4
 72
     5
  1
{\fHelveticaNeueLTPro|b0|i0|c1|p15;t}
 73
     2
 44
1.0
  0
MTEXT
  5
1011419
330
1F
100
AcDbEntity
  8
Text
  6
Continuous
 62
     7
100
AcDbMText
 10
47.65690988479824
 20
29.40761544229616
 30
0.0
 40
3.0
 41
3.25
 46
0.0
 71
     4
 72
     5
  1
{\fHelveticaNeueLTPro|b0|i0|c1|p15;r}
 73
     2
 44
1.0
  0
MTEXT
  5
101141A
330
1F
100
AcDbEntity
  8
Text
  6
Continuous
 62
     7
100
AcDbMText
 10
48.74024321813158
 20
29.40761544229616
 30
0.0
 40
3.0
 41
3.25
 46
0.0
 71
     4
 72
     5
  1
{\fHelveticaNeueLTPro|b0|i0|c1|p15;a}
 73
     2
 44
1.0
  0
MTEXT
  5
101141B
330
1F
100
AcDbEntity
  8
Text
  6
Continuous
 62
     7
100
AcDbMText
 10
50.57357655146492
 20
29.40761544229616
 30
0.0
 40
3.0
 41
3.25
 46
0.0
 71
     4
 72
     5
  1
{\fHelveticaNeueLTPro|b0|i0|c1|p15;s}
 73
     2
 44
1.0
  0
MTEXT
  5
101141C
330
1F
100
AcDbEntity
  8
Text
  6
Continuous
 62
     7
100
AcDbMText
 10
52.24024321813158
 20
29.40761544229616
 30
0.0
 40
3.0
 41
3.25
 46
0.0
 71
     4
 72
     5
  1
{\fHelveticaNeueLTPro|b0|i0|c1|p15;s}
 73
     2
 44
1.0
  0
MTEXT
  5
101141D
330
1F
100
AcDbEntity
  8
Text
  6
Continuous
 62
     7
100
AcDbMText
 10
53.90690988479825
 20
29.40761544229616
 30
0.0
 40
3.0
 41
3.25
 46
0.0
 71
     4
 72
     5
  1
{\fHelveticaNeueLTPro|b0|i0|c1|p15;e}
 73
     2
 44
1.0
  0
MTEXT
  5
101141E
330
1F
100
AcDbEntity
  8
Text
  6
Continuous
 62
     7
100
AcDbMText
 10
55.65690988479825
 20
29.40761544229616
 30
0.0
 40
3.0
 41
3.25
 46
0.0
 71
     4
 72
     5
  1
{\fHelveticaNeueLTPro|b0|i0|c1|p15;r}
 73
     2
 44
1.0
  0
MTEXT
  5
101141F
330
1F
100
AcDbEntity
  8
Text
  6
Continuous
 62
     7
100
AcDbMText
 10
56.74024321813158
 20
29.40761544229616
 30
0.0
 40
3.0
 41
3.25
 46
0.0
 71
     4
 72
     5
  1
{\fHelveticaNeueLTPro|b0|i0|c1|p15;-}
 73
     2
 44
1.0
  0
MTEXT
  5
1011420
330
1F
100
AcDbEntity
  8
Text
  6
Continuous
 62
     7
100
AcDbMText
 10
58.07357655146492
 20
29.40761544229616
 30
0.0
 40
3.0
 41
3.25
 46
0.0
 71
     4
 72
     5
  1
{\fHelveticaNeueLTPro|b0|i0|c1|p15;s}
 73
     2
 44
1.0
  0
MTEXT
  5
1011421
330
1F
100
AcDbEntity
  8
Text
  6
Continuous
 62
     7
100
AcDbMText
 10
59.74024321813158
 20
29.40761544229616
 30
0.0
 40
3.0
 41
3.25
 46
0.0
 71
     4
 72
     5
  1
{\fHelveticaNeueLTPro|b0|i0|c1|p15;y}
 73
     2
 44
1.0
  0
MTEXT
  5
1011422
330
1F
100
AcDbEntity
  8
Text
  6
Continuous
 62
     7
100
AcDbMText
 10
61.40690988479825
 20
29.40761544229616
 30
0.0
 40
3.0
 41
3.25
 46
0.0
 71
     4
 72
     5
  1
{\fHelveticaNeueLTPro|b0|i0|c1|p15;s}
 73
     2
 44
1.0
  0
MTEXT
  5
1011423
330
1F
100
AcDbEntity
  8
Text
  6
Continuous
 62
     7
100
AcDbMText
 10
63.07357655146492
 20
29.40761544229616
 30
0.0
 40
3.0
 41
3.25
 46
0.0
 71
     4
 72
     5
  1
{\fHelveticaNeueLTPro|b0|i0|c1|p15;t}
 73
     2
 44
1.0
  0
MTEXT
  5
1011424
330
1F
100
AcDbEntity
  8
Text
  6
Continuous
 62
     7
100
AcDbMText
 10
64.15690988479825
 20
29.40761544229616
 30
0.0
 40
3.0
 41
3.25
 46
0.0
 71
     4
 72
     5
  1
{\fHelveticaNeueLTPro|b0|i0|c1|p15;e}
 73
     2
 44
1.0
  0
MTEXT
  5
1011425
330
1F
100
AcDbEntity
  8
Text
  6
Continuous
 62
     7
100
AcDbMText
 10
65.90690988479825
 20
29.40761544229616
 30
0.0
 40
3.0
 41
3.25
 46
0.0
 71
     4
 72
     5
  1
{\fHelveticaNeueLTPro|b0|i0|c1|p15;m}
 73
     2
 44
1.0
  0
MTEXT
  5
1011426
330
1F
100
AcDbEntity
  8
Text
  6
Continuous
 62
     7
100
AcDbMText
 10
68.74024321813158
 20
29.40761544229616
 30
0.0
 40
3.0
 41
3.25
 46
0.0
 71
     4
 72
     5
  1
{\fHelveticaNeueLTPro|b0|i0|c1|p15;e}
 73
     2
 44
1.0
  0
MTEXT
  5
1011427
330
1F
100
AcDbEntity
  8
Text
  6
Continuous
 62
     7
100
AcDbMText
 10
70.49024321813158
 20
29.40761544229616
 30
0.0
 40
3.0
 41
3.25
 46
0.0
 71
     4
 72
     5
  1
{\fHelveticaNeueLTPro|b0|i0|c1|p15;.}
 73
     2
 44
1.0
  0
MTEXT
  5
1011428
330
1F
100
AcDbEntity
  8
Text
  6
Continuous
 62
     7
100
AcDbMText
 10
71.49024321813158
 20
29.40761544229616
 30
0.0
 40
3.0
 41
3.25
 46
0.0
 71
     4
 72
     5
  1
{\fHelveticaNeueLTPro|b0|i0|c1|p15;d}
 73
     2
 44
1.0
  0
MTEXT
  5
1011429
330
1F
100
AcDbEntity
  8
Text
  6
Continuous
 62
     7
100
AcDbMText
 10
73.40690988479825
 20
29.40761544229616
 30
0.0
 40
3.0
 41
3.25
 46
0.0
 71
     4
 72
     5
  1
{\fHelveticaNeueLTPro|b0|i0|c1|p15;e}
 73
     2
 44
1.0
  0
MTEXT
  5
101142A
330
1F
100
AcDbEntity
  8
Text
  6
Continuous
 62
     7
100
AcDbMText
 10
36.49024321813158
 20
25.40761544229616
 30
0.0
 40
3.0
 41
3.25
 46
0.0
 71
     4
 72
     5
  1
{\fHelveticaNeueLTPro|b0|i0|c1|p15;i}
 73
     2
 44
1.0
  0
MTEXT
  5
101142B
330
1F
100
AcDbEntity
  8
Text
  6
Continuous
 62
     7
100
AcDbMText
 10
37.24024321813158
 20
25.40761544229616
 30
0.0
 40
3.0
 41
3.25
 46
0.0
 71
     4
 72
     5
  1
{\fHelveticaNeueLTPro|b0|i0|c1|p15;n}
 73
     2
 44
1.0
  0
MTEXT
  5
101142C
330
1F
100
AcDbEntity
  8
Text
  6
Continuous
 62
     7
100
AcDbMText
 10
39.07357655146492
 20
25.40761544229616
 30
0.0
 40
3.0
 41
3.25
 46
0.0
 71
     4
 72
     5
  1
{\fHelveticaNeueLTPro|b0|i0|c1|p15;f}
 73
     2
 44
1.0
  0
MTEXT
  5
101142D
330
1F
100
AcDbEntity
  8
Text
  6
Continuous
 62
     7
100
AcDbMText
 10
40.07357655146491
 20
25.40761544229616
 30
0.0
 40
3.0
 41
3.25
 46
0.0
 71
     4
 72
     5
  1
{\fHelveticaNeueLTPro|b0|i0|c1|p15;o}
 73
     2
 44
1.0
  0
MTEXT
  5
101142E
330
1F
100
AcDbEntity
  8
Text
  6
Continuous
 62
     7
100
AcDbMText
 10
41.99024321813157
 20
25.40761544229616
 30
0.0
 40
3.0
 41
3.25
 46
0.0
 71
     4
 72
     5
  1
{\fHelveticaNeueLTPro|b0|i0|c1|p15;@}
 73
     2
 44
1.0
  0
MTEXT
  5
101142F
330
1F
100
AcDbEntity
  8
Text
  6
Continuous
 62
     7
100
AcDbMText
 10
44.65690988479824
 20
25.40761544229616
 30
0.0
 40
3.0
 41
3.25
 46
0.0
 71
     4
 72
     5
  1
{\fHelveticaNeueLTPro|b0|i0|c1|p15;s}
 73
     2
 44
1.0
  0
MTEXT
  5
1011430
330
1F
100
AcDbEntity
  8
Text
  6
Continuous
 62
     7
100
AcDbMText
 10
46.32357655146491
 20
25.40761544229616
 30
0.0
 40
3.0
 41
3.25
 46
0.0
 71
     4
 72
     5
  1
{\fHelveticaNeueLTPro|b0|i0|c1|p15;t}
 73
     2
 44
1.0
  0
MTEXT
  5
1011431
330
1F
100
AcDbEntity
  8
Text
  6
Continuous
 62
     7
100
AcDbMText
 10
47.32357655146492
 20
25.40761544229616
 30
0.0
 40
3.0
 41
3.25
 46
0.0
 71
     4
 72
     5
  1
{\fHelveticaNeueLTPro|b0|i0|c1|p15;r}
 73
     2
 44
1.0
  0
MTEXT
  5
1011432
330
1F
100
AcDbEntity
  8
Text
  6
Continuous
 62
     7
100
AcDbMText
 10
48.49024321813158
 20
25.40761544229616
 30
0.0
 40
3.0
 41
3.25
 46
0.0
 71
     4
 72
     5
  1
{\fHelveticaNeueLTPro|b0|i0|c1|p15;a}
 73
     2
 44
1.0
  0
MTEXT
  5
1011433
330
1F
100
AcDbEntity
  8
Text
  6
Continuous
 62
     7
100
AcDbMText
 10
50.24024321813158
 20
25.40761544229616
 30
0.0
 40
3.0
 41
3.25
 46
0.0
 71
     4
 72
     5
  1
{\fHelveticaNeueLTPro|b0|i0|c1|p15;s}
 73
     2
 44
1.0
  0
MTEXT
  5
1011434
330
1F
100
AcDbEntity
  8
Text
  6
Continuous
 62
     7
100
AcDbMText
 10
51.90690988479825
 20
25.40761544229616
 30
0.0
 40
3.0
 41
3.25
 46
0.0
 71
     4
 72
     5
  1
{\fHelveticaNeueLTPro|b0|i0|c1|p15;s}
 73
     2
 44
1.0
  0
MTEXT
  5
1011435
330
1F
100
AcDbEntity
  8
Text
  6
Continuous
 62
     7
100
AcDbMText
 10
53.57357655146492
 20
25.40761544229616
 30
0.0
 40
3.0
 41
3.25
 46
0.0
 71
     4
 72
     5
  1
{\fHelveticaNeueLTPro|b0|i0|c1|p15;e}
 73
     2
 44
1.0
  0
MTEXT
  5
1011436
330
1F
100
AcDbEntity
  8
Text
  6
Continuous
 62
     7
100
AcDbMText
 10
55.32357655146491
 20
25.40761544229616
 30
0.0
 40
3.0
 41
3.25
 46
0.0
 71
     4
 72
     5
  1
{\fHelveticaNeueLTPro|b0|i0|c1|p15;r}
 73
     2
 44
1.0
  0
MTEXT
  5
1011437
330
1F
100
AcDbEntity
  8
Text
  6
Continuous
 62
     7
100
AcDbMText
 10
56.49024321813158
 20
25.40761544229616
 30
0.0
 40
3.0
 41
3.25
 46
0.0
 71
     4
 72
     5
  1
{\fHelveticaNeueLTPro|b0|i0|c1|p15;-}
 73
     2
 44
1.0
  0
MTEXT
  5
1011438
330
1F
100
AcDbEntity
  8
Text
  6
Continuous
 62
     7
100
AcDbMText
 10
57.82357655146491
 20
25.40761544229616
 30
0.0
 40
3.0
 41
3.25
 46
0.0
 71
     4
 72
     5
  1
{\fHelveticaNeueLTPro|b0|i0|c1|p15;s}
 73
     2
 44
1.0
  0
MTEXT
  5
1011439
330
1F
100
AcDbEntity
  8
Text
  6
Continuous
 62
     7
100
AcDbMText
 10
59.40690988479825
 20
25.40761544229616
 30
0.0
 40
3.0
 41
3.25
 46
0.0
 71
     4
 72
     5
  1
{\fHelveticaNeueLTPro|b0|i0|c1|p15;y}
 73
     2
 44
1.0
  0
MTEXT
  5
101143A
330
1F
100
AcDbEntity
  8
Text
  6
Continuous
 62
     7
100
AcDbMText
 10
61.07357655146492
 20
25.40761544229616
 30
0.0
 40
3.0
 41
3.25
 46
0.0
 71
     4
 72
     5
  1
{\fHelveticaNeueLTPro|b0|i0|c1|p15;s}
 73
     2
 44
1.0
  0
MTEXT
  5
101143B
330
1F
100
AcDbEntity
  8
Text
  6
Continuous
 62
     7
100
AcDbMText
 10
62.74024321813158
 20
25.40761544229616
 30
0.0
 40
3.0
 41
3.25
 46
0.0
 71
     4
 72
     5
  1
{\fHelveticaNeueLTPro|b0|i0|c1|p15;t}
 73
     2
 44
1.0
  0
MTEXT
  5
101143C
330
1F
100
AcDbEntity
  8
Text
  6
Continuous
 62
     7
100
AcDbMText
 10
63.82357655146492
 20
25.40761544229616
 30
0.0
 40
3.0
 41
3.25
 46
0.0
 71
     4
 72
     5
  1
{\fHelveticaNeueLTPro|b0|i0|c1|p15;e}
 73
     2
 44
1.0
  0
MTEXT
  5
101143D
330
1F
100
AcDbEntity
  8
Text
  6
Continuous
 62
     7
100
AcDbMText
 10
65.65690988479826
 20
25.40761544229616
 30
0.0
 40
3.0
 41
3.25
 46
0.0
 71
     4
 72
     5
  1
{\fHelveticaNeueLTPro|b0|i0|c1|p15;m}
 73
     2
 44
1.0
  0
MTEXT
  5
101143E
330
1F
100
AcDbEntity
  8
Text
  6
Continuous
 62
     7
100
AcDbMText
 10
68.40690988479825
 20
25.40761544229616
 30
0.0
 40
3.0
 41
3.25
 46
0.0
 71
     4
 72
     5
  1
{\fHelveticaNeueLTPro|b0|i0|c1|p15;e}
 73
     2
 44
1.0
  0
MTEXT
  5
101143F
330
1F
100
AcDbEntity
  8
Text
  6
Continuous
 62
     7
100
AcDbMText
 10
70.24024321813158
 20
25.40761544229616
 30
0.0
 40
3.0
 41
3.25
 46
0.0
 71
     4
 72
     5
  1
{\fHelveticaNeueLTPro|b0|i0|c1|p15;.}
 73
     2
 44
1.0
  0
MTEXT
  5
1011440
330
1F
100
AcDbEntity
  8
Text
  6
Continuous
 62
     7
100
AcDbMText
 10
71.15690988479825
 20
25.40761544229616
 30
0.0
 40
3.0
 41
3.25
 46
0.0
 71
     4
 72
     5
  1
{\fHelveticaNeueLTPro|b0|i0|c1|p15;d}
 73
     2
 44
1.0
  0
MTEXT
  5
1011441
330
1F
100
AcDbEntity
  8
Text
  6
Continuous
 62
     7
100
AcDbMText
 10
73.15690988479826
 20
25.40761544229616
 30
0.0
 40
3.0
 41
3.25
 46
0.0
 71
     4
 72
     5
  1
{\fHelveticaNeueLTPro|b0|i0|c1|p15;e}
 73
     2
 44
1.0
  0
MTEXT
  5
1011442
330
1F
100
AcDbEntity
  8
Text
  6
Continuous
 62
     7
100
AcDbMText
 10
36.15690988479825
 20
36.40761544229616
 30
0.0
 40
3.75
 41
4.0
 46
0.0
 71
     4
 72
     5
  1
{\fHelveticaNeueLTPro|b0|i0|c1|p15;S}
 73
     2
 44
1.0
  0
MTEXT
  5
1011443
330
1F
100
AcDbEntity
  8
Text
  6
Continuous
 62
     7
100
AcDbMText
 10
38.82357655146492
 20
36.40761544229616
 30
0.0
 40
3.75
 41
4.0
 46
0.0
 71
     4
 72
     5
  1
{\fHelveticaNeueLTPro|b0|i0|c1|p15;e}
 73
     2
 44
1.0
  0
MTEXT
  5
1011444
330
1F
100
AcDbEntity
  8
Text
  6
Continuous
 62
     7
100
AcDbMText
 10
41.15690988479824
 20
36.40761544229616
 30
0.0
 40
3.75
 41
4.0
 46
0.0
 71
     4
 72
     5
  1
{\fHelveticaNeueLTPro|b0|i0|c1|p15;r}
 73
     2
 44
1.0
  0
MTEXT
  5
1011445
330
1F
100
AcDbEntity
  8
Text
  6
Continuous
 62
     7
100
AcDbMText
 10
42.74024321813158
 20
36.40761544229616
 30
0.0
 40
3.75
 41
4.0
 46
0.0
 71
     4
 72
     5
  1
{\fHelveticaNeueLTPro|b0|i0|c1|p15;v}
 73
     2
 44
1.0
  0
MTEXT
  5
1011446
330
1F
100
AcDbEntity
  8
Text
  6
Continuous
 62
     7
100
AcDbMText
 10
44.90690988479824
 20
36.40761544229616
 30
0.0
 40
3.75
 41
4.0
 46
0.0
 71
     4
 72
     5
  1
{\fHelveticaNeueLTPro|b0|i0|c1|p15;i}
 73
     2
 44
1.0
  0
MTEXT
  5
1011447
330
1F
100
AcDbEntity
  8
Text
  6
Continuous
 62
     7
100
AcDbMText
 10
45.99024321813158
 20
36.40761544229616
 30
0.0
 40
3.75
 41
4.0
 46
0.0
 71
     4
 72
     5
  1
{\fHelveticaNeueLTPro|b0|i0|c1|p15;c}
 73
     2
 44
1.0
  0
MTEXT
  5
1011448
330
1F
100
AcDbEntity
  8
Text
  6
Continuous
 62
     7
100
AcDbMText
 10
48.32357655146491
 20
36.40761544229616
 30
0.0
 40
3.75
 41
4.0
 46
0.0
 71
     4
 72
     5
  1
{\fHelveticaNeueLTPro|b0|i0|c1|p15;e}
 73
     2
 44
1.0
  0
MTEXT
  5
1011449
330
1F
100
AcDbEntity
  8
Text
  6
Continuous
 62
     7
100
AcDbMText
 10
50.65690988479825
 20
36.40761544229616
 30
0.0
 40
3.75
 41
4.0
 46
0.0
 71
     4
 72
     5
  1
{\fHelveticaNeueLTPro|b0|i0|c1|p15;-}
 73
     2
 44
1.0
  0
MTEXT
  5
101144A
330
1F
100
AcDbEntity
  8
Text
  6
Continuous
 62
     7
100
AcDbMText
 10
52.32357655146492
 20
36.40761544229616
 30
0.0
 40
3.75
 41
4.0
 46
0.0
 71
     4
 72
     5
  1
{\fHelveticaNeueLTPro|b0|i0|c1|p15;H}
 73
     2
 44
1.0
  0
MTEXT
  5
101144B
330
1F
100
AcDbEntity
  8
Text
  6
Continuous
 62
     7
100
AcDbMText
 10
55.32357655146491
 20
36.40761544229616
 30
0.0
 40
3.75
 41
4.0
 46
0.0
 71
     4
 72
     5
  1
{\fHelveticaNeueLTPro|b0|i0|c1|p15;o}
 73
     2
 44
1.0
  0
MTEXT
  5
101144C
330
1F
100
AcDbEntity
  8
Text
  6
Continuous
 62
     7
100
AcDbMText
 10
57.82357655146491
 20
36.40761544229616
 30
0.0
 40
3.75
 41
4.0
 46
0.0
 71
     4
 72
     5
  1
{\fHelveticaNeueLTPro|b0|i0|c1|p15;t}
 73
     2
 44
1.0
  0
MTEXT
  5
101144D
330
1F
100
AcDbEntity
  8
Text
  6
Continuous
 62
     7
100
AcDbMText
 10
59.24024321813158
 20
36.40761544229616
 30
0.0
 40
3.75
 41
4.0
 46
0.0
 71
     4
 72
     5
  1
{\fHelveticaNeueLTPro|b0|i0|c1|p15;l}
 73
     2
 44
1.0
  0
MTEXT
  5
101144E
330
1F
100
AcDbEntity
  8
Text
  6
Continuous
 62
     7
100
AcDbMText
 10
60.32357655146491
 20
36.40761544229616
 30
0.0
 40
3.75
 41
4.0
 46
0.0
 71
     4
 72
     5
  1
{\fHelveticaNeueLTPro|b0|i0|c1|p15;i}
 73
     2
 44
1.0
  0
MTEXT
  5
101144F
330
1F
100
AcDbEntity
  8
Text
  6
Continuous
 62
     7
100
AcDbMText
 10
61.40690988479825
 20
36.40761544229616
 30
0.0
 40
3.75
 41
4.0
 46
0.0
 71
     4
 72
     5
  1
{\fHelveticaNeueLTPro|b0|i0|c1|p15;n}
 73
     2
 44
1.0
  0
MTEXT
  5
1011450
330
1F
100
AcDbEntity
  8
Text
  6
Continuous
 62
     7
100
AcDbMText
 10
63.82357655146492
 20
36.40761544229616
 30
0.0
 40
3.75
 41
4.0
 46
0.0
 71
     4
 72
     5
  1
{\fHelveticaNeueLTPro|b0|i0|c1|p15;e}
 73
     2
 44
1.0
  0
MTEXT
  5
1011451
330
1F
100
AcDbEntity
  8
Text
  6
Continuous
 62
     7
100
AcDbMText
 10
67.32357655146491
 20
36.40761544229616
 30
0.0
 40
3.75
 41
4.0
 46
0.0
 71
     4
 72
     5
  1
{\fHelveticaNeueLTPro|b0|i0|c1|p15;+}
 73
     2
 44
1.0
  0
MTEXT
  5
1011452
330
1F
100
AcDbEntity
  8
Text
  6
Continuous
 62
     7
100
AcDbMText
 10
69.82357655146491
 20
36.40761544229616
 30
0.0
 40
3.75
 41
4.0
 46
0.0
 71
     4
 72
     5
  1
{\fHelveticaNeueLTPro|b0|i0|c1|p15;4}
 73
     2
 44
1.0
  0
MTEXT
  5
1011453
330
1F
100
AcDbEntity
  8
Text
  6
Continuous
 62
     7
100
AcDbMText
 10
72.07357655146491
 20
36.40761544229616
 30
0.0
 40
3.75
 41
4.0
 46
0.0
 71
     4
 72
     5
  1
{\fHelveticaNeueLTPro|b0|i0|c1|p15;9}
 73
     2
 44
1.0
  0
MTEXT
  5
1011454
330
1F
100
AcDbEntity
  8
Text
  6
Continuous
 62
     7
100
AcDbMText
 10
75.49024321813158
 20
36.40761544229616
 30
0.0
 40
3.75
 41
4.0
 46
0.0
 71
     4
 72
     5
  1
{\fHelveticaNeueLTPro|b0|i0|c1|p15;5}
 73
     2
 44
1.0
  0
MTEXT
  5
1011455
330
1F
100
AcDbEntity
  8
Text
  6
Continuous
 62
     7
100
AcDbMText
 10
77.74024321813158
 20
36.40761544229616
 30
0.0
 40
3.75
 41
4.0
 46
0.0
 71
     4
 72
     5
  1
{\fHelveticaNeueLTPro|b0|i0|c1|p15;4}
 73
     2
 44
1.0
  0
MTEXT
  5
1011456
330
1F
100
AcDbEntity
  8
Text
  6
Continuous
 62
     7
100
AcDbMText
 10
80.0735765514649
 20
36.40761544229616
 30
0.0
 40
3.75
 41
4.0
 46
0.0
 71
     4
 72
     5
  1
{\fHelveticaNeueLTPro|b0|i0|c1|p15;1}
 73
     2
 44
1.0
  0
MTEXT
  5
1011457
330
1F
100
AcDbEntity
  8
Text
  6
Continuous
 62
     7
100
AcDbMText
 10
83.49024321813159
 20
36.40761544229616
 30
0.0
 40
3.75
 41
4.0
 46
0.0
 71
     4
 72
     5
  1
{\fHelveticaNeueLTPro|b0|i0|c1|p15;6}
 73
     2
 44
1.0
  0
MTEXT
  5
1011458
330
1F
100
AcDbEntity
  8
Text
  6
Continuous
 62
     7
100
AcDbMText
 10
85.74024321813158
 20
36.40761544229616
 30
0.0
 40
3.75
 41
4.0
 46
0.0
 71
     4
 72
     5
  1
{\fHelveticaNeueLTPro|b0|i0|c1|p15;0}
 73
     2
 44
1.0
  0
MTEXT
  5
1011459
330
1F
100
AcDbEntity
  8
Text
  6
Continuous
 62
     7
100
AcDbMText
 10
87.99024321813158
 20
36.40761544229616
 30
0.0
 40
3.75
 41
4.0
 46
0.0
 71
     4
 72
     5
  1
{\fHelveticaNeueLTPro|b0|i0|c1|p15;1}
 73
     2
 44
1.0
  0
MTEXT
  5
101145A
330
1F
100
AcDbEntity
  8
Text
  6
Continuous
 62
     7
100
AcDbMText
 10
90.24024321813158
 20
36.40761544229616
 30
0.0
 40
3.75
 41
4.0
 46
0.0
 71
     4
 72
     5
  1
{\fHelveticaNeueLTPro|b0|i0|c1|p15;-}
 73
     2
 44
1.0
  0
MTEXT
  5
101145B
330
1F
100
AcDbEntity
  8
Text
  6
Continuous
 62
     7
100
AcDbMText
 10
91.90690988479826
 20
36.40761544229616
 30
0.0
 40
3.75
 41
4.0
 46
0.0
 71
     4
 72
     5
  1
{\fHelveticaNeueLTPro|b0|i0|c1|p15;2}
 73
     2
 44
1.0
  0
MTEXT
  5
101145C
330
1F
100
AcDbEntity
  8
Text
  6
Continuous
 62
     7
100
AcDbMText
 10
94.24024321813158
 20
36.40761544229616
 30
0.0
 40
3.75
 41
4.0
 46
0.0
 71
     4
 72
     5
  1
{\fHelveticaNeueLTPro|b0|i0|c1|p15;3}
 73
     2
 44
1.0
  0
MTEXT
  5
101145D
330
1F
100
AcDbEntity
  8
Text
  6
Continuous
 62
     7
100
AcDbMText
 10
96.49024321813158
 20
36.40761544229616
 30
0.0
 40
3.75
 41
4.0
 46
0.0
 71
     4
 72
     5
  1
{\fHelveticaNeueLTPro|b0|i0|c1|p15;5}
 73
     2
 44
1.0
  0
LWPOLYLINE
  5
101145E
330
1F
100
AcDbEntity
  8
P
  6
Continuous
 62
     0
100
AcDbPolyline
 90
        2
 70
     0
 43
0.0
 10
28.32357655146492
 20
43.40761544229616
 10
280.5735765514649
 20
43.40761544229616
  0
LWPOLYLINE
  5
101145F
330
1F
100
AcDbEntity
  8
P
  6
Continuous
 62
     0
100
AcDbPolyline
 90
        2
 70
     0
 43
0.0
 10
102.4902432181316
 20
380.3242821089628
 10
243.7402432181316
 20
380.3242821089628
  0
MTEXT
  5
1011460
330
1F
100
AcDbEntity
  8
Text
  6
Continuous
 62
     0
100
AcDbMText
 10
102.3235765514649
 20
394.4076154422962
 30
0.0
 40
3.75
 41
32.0
 46
0.0
 71
     4
 72
     5
  1
{\fHelveticaNeueLTPro|b0|i0|c1|p15;Variante}
 73
     2
 44
1.0
  0
MTEXT
  5
1011461
330
1F
100
AcDbEntity
  8
Text
  6
Continuous
 62
     0
100
AcDbMText
 10
102.3235765514649
 20
389.1576154422962
 30
0.0
 40
3.75
 41
24.0
 46
0.0
 71
     4
 72
     5
  1
{\fHelveticaNeueLTPro|b0|i0|c1|p15;Fliese}
 73
     2
 44
1.0
  0
LWPOLYLINE
  5
1011462
330
1F
100
AcDbEntity
  8
P
  6
Continuous
 62
     0
100
AcDbPolyline
 90
        2
 70
     0
 43
0.0
 10
245.4902432181316
 20
380.3242821089628
 10
280.6569098847983
 20
380.3242821089628
  0
MTEXT
  5
1011463
330
1F
100
AcDbEntity
  8
Text
  6
Continuous
 62
     0
100
AcDbMText
 10
245.4902432181316
 20
389.1576154422962
 30
0.0
 40
3.75
 41
56.0
 46
0.0
 71
     4
 72
     5
  1
{\fHelveticaNeueLTPro|b0|i0|c1|p15;Stand 12.2018 }
 73
     2
 44
1.0
  0
LWPOLYLINE
  5
1011464
330
1F
100
AcDbEntity
  8
P
  6
Continuous
 62
     0
100
AcDbPolyline
 90
        2
 70
     0
 43
0.0
 10
28.32357655146492
 20
380.3242821089628
 10
100.4069098847982
 20
380.3242821089628
  0
MTEXT
  5
1011465
330
1F
100
AcDbEntity
  8
Text
  6
Continuous
 62
     0
100
AcDbMText
 10
28.15690988479825
 20
394.4076154422962
 30
0.0
 40
3.75
 41
40.0
 46
0.0
 71
     4
 72
     5
  1
{\fHelveticaNeueLTPro|b0|i0|c1|p15;System 5  }
 73
     2
 44
1.0
  0
MTEXT
  5
1011466
330
1F
100
AcDbEntity
  8
Text
  6
Continuous
 62
     0
100
AcDbMText
 10
28.15690988479825
 20
389.1576154422962
 30
0.0
 40
3.75
 41
84.0
 46
0.0
 71
     4
 72
     5
  1
{\fHelveticaNeueLTPro|b0|i0|c1|p15;Industrie und Gewerbe}
 73
     2
 44
1.0
  0
MTEXT
  5
1011467
330
1F
100
AcDbEntity
  8
Text
  6
Continuous
 62
     0
100
AcDbMText
 10
37.15690988479825
 20
121.9076154422961
 30
0.0
 40
3.75
 41
44.0
 46
0.0
 71
     4
 72
     5
  1
{\fHelveticaNeueLTPro|b0|i0|c1|p15;Abdichtung }
 73
     2
 44
1.0
  0
MTEXT
  5
1011468
330
1F
100
AcDbEntity
  8
Text
  6
Continuous
 62
     0
100
AcDbMText
 10
37.15690988479825
 20
116.6576154422961
 30
0.0
 40
3.0
 41
71.5
 46
0.0
 71
     4
 72
     5
  1
{\fHelveticaNeueLTPro|b0|i0|c1|p15;DICHT PA PU-Abdichtung}
 73
     2
 44
1.0
  0
MTEXT
  5
1011469
330
1F
100
AcDbEntity
  8
Text
  6
Continuous
 62
     7
100
AcDbMText
 10
30.15690988479825
 20
121.8242821089628
 30
0.0
 40
3.25
 41
3.5
 46
0.0
 71
     4
 72
     5
  1
{\fHelveticaNeueLTPro|b0|i0|c1|p15;3}
 73
     2
 44
1.0
  0
MTEXT
  5
101146A
330
1F
100
AcDbEntity
  8
Text
  6
Continuous
 62
     0
100
AcDbMText
 10
37.15690988479825
 20
105.7409487756294
 30
0.0
 40
3.75
 41
28.0
 46
0.0
 71
     4
 72
     5
  1
{\fHelveticaNeueLTPro|b0|i0|c1|p15;Kleber }
 73
     2
 44
1.0
  0
MTEXT
  5
101146B
330
1F
100
AcDbEntity
  8
Text
  6
Continuous
 62
     0
100
AcDbMText
 10
37.15690988479825
 20
100.4909487756294
 30
0.0
 40
3.0
 41
117.0
 46
0.0
 71
     4
 72
     5
  1
{\fHelveticaNeueLTPro|b0|i0|c1|p15;FLEX MEKF Multi Epoxid Kleber + Fuge}
 73
     2
 44
1.0
  0
MTEXT
  5
101146C
330
1F
100
AcDbEntity
  8
Text
  6
Continuous
 62
     7
100
AcDbMText
 10
30.15690988479825
 20
105.8242821089628
 30
0.0
 40
3.25
 41
3.5
 46
0.0
 71
     4
 72
     5
  1
{\fHelveticaNeueLTPro|b0|i0|c1|p15;4}
 73
     2
 44
1.0
  0
MTEXT
  5
101146D
330
1F
100
AcDbEntity
  8
Text
  6
Continuous
 62
     0
100
AcDbMText
 10
37.15690988479825
 20
155.9076154422961
 30
0.0
 40
3.75
 41
124.0
 46
0.0
 71
     4
 72
     5
  1
{\fHelveticaNeueLTPro|b0|i0|c0|p15;Untergrund (fest und tragfähig)}
 73
     2
 44
1.0
  0
MTEXT
  5
101146E
330
1F
100
AcDbEntity
  8
Text
  6
Continuous
 62
     0
100
AcDbMText
 10
37.07357655146492
 20
150.1576154422961
 30
0.0
 40
3.0
 41
22.75
 46
0.0
 71
     4
 72
     5
  1
{\fHelveticaNeueLTPro|b0|i0|c1|p15;Wand:  }
 73
     2
 44
1.0
  0
MTEXT
  5
101146F
330
1F
100
AcDbEntity
  8
Text
  6
Continuous
 62
     0
100
AcDbMText
 10
49.82357655146492
 20
150.1576154422961
 30
0.0
 40
3.0
 41
78.0
 46
0.0
 71
     4
 72
     5
  1
{\fHelveticaNeueLTPro|b0|i0|c1|p15;Beton/ Mauerwerk m. Putz}
 73
     2
 44
1.0
  0
MTEXT
  5
1011470
330
1F
100
AcDbEntity
  8
Text
  6
Continuous
 62
     0
100
AcDbMText
 10
37.07357655146492
 20
146.2409487756294
 30
0.0
 40
3.0
 41
22.75
 46
0.0
 71
     4
 72
     5
  1
{\fHelveticaNeueLTPro|b0|i0|c1|p15;Boden: }
 73
     2
 44
1.0
  0
MTEXT
  5
1011471
330
1F
100
AcDbEntity
  8
Text
  6
Continuous
 62
     0
100
AcDbMText
 10
49.82357655146492
 20
146.2409487756294
 30
0.0
 40
3.0
 41
45.49999999999999
 46
0.0
 71
     4
 72
     5
  1
{\fHelveticaNeueLTPro|b0|i0|c1|p15;Beton/ Estrich}
 73
     2
 44
1.0
  0
MTEXT
  5
1011472
330
1F
100
AcDbEntity
  8
Text
  6
Continuous
 62
     7
100
AcDbMText
 10
30.15690988479825
 20
155.9076154422961
 30
0.0
 40
3.25
 41
3.5
 46
0.0
 71
     4
 72
     5
  1
{\fHelveticaNeueLTPro|b0|i0|c1|p15;1}
 73
     2
 44
1.0
  0
MTEXT
  5
1011473
330
1F
100
AcDbEntity
  8
Text
  6
Continuous
 62
     0
100
AcDbMText
 10
37.15690988479825
 20
137.4076154422961
 30
0.0
 40
3.75
 41
88.0
 46
0.0
 71
     4
 72
     5
  1
{\fHelveticaNeueLTPro|b0|i0|c1|p15;Grundierung Abdichtung}
 73
     2
 44
1.0
  0
MTEXT
  5
1011474
330
1F
100
AcDbEntity
  8
Text
  6
Continuous
 62
     7
100
AcDbMText
 10
30.15690988479825
 20
137.4076154422961
 30
0.0
 40
3.25
 41
3.5
 46
0.0
 71
     4
 72
     5
  1
{\fHelveticaNeueLTPro|b0|i0|c1|p15;2}
 73
     2
 44
1.0
  0
MTEXT
  5
1011475
330
1F
100
AcDbEntity
  8
Text
  6
Continuous
 62
     0
100
AcDbMText
 10
131.6569098847982
 20
156.7409487756294
 30
0.0
 40
3.75
 41
64.0
 46
0.0
 71
     4
 72
     5
  1
{\fHelveticaNeueLTPro|b0|i0|c1|p15;Fliesenbelag neu}
 73
     2
 44
1.0
  0
MTEXT
  5
1011476
330
1F
100
AcDbEntity
  8
Text
  6
Continuous
 62
     7
100
AcDbMText
 10
124.6569098847982
 20
156.0742821089628
 30
0.0
 40
3.25
 41
3.5
 46
0.0
 71
     4
 72
     5
  1
{\fHelveticaNeueLTPro|b0|i0|c1|p15;5}
 73
     2
 44
1.0
  0
LWPOLYLINE
  5
1011477
330
1F
100
AcDbEntity
  8
P
  6
Continuous
 62
     0
100
AcDbPolyline
 90
        2
 70
     0
 43
0.0
 10
81.24024321813157
 20
329.5742821089628
 10
81.24024321813157
 20
259.4076154422961
  0
LWPOLYLINE
  5
1011478
330
1F
100
AcDbEntity
  8
P
  6
Continuous
 62
     0
100
AcDbPolyline
 90
        2
 70
     0
 43
0.0
 10
81.24024321813157
 20
329.5742821089628
 10
81.24024321813157
 20
259.4076154422961
  0
LWPOLYLINE
  5
1011479
330
1F
100
AcDbEntity
  8
P
  6
Continuous
 62
     0
100
AcDbPolyline
 90
        2
 70
     0
 43
0.0
 10
81.24024321813157
 20
329.5742821089628
 10
81.24024321813157
 20
329.5742821089628
  0
LWPOLYLINE
  5
101147A
330
1F
100
AcDbEntity
  8
P
  6
Continuous
 62
     0
100
AcDbPolyline
 90
        2
 70
     0
 43
0.0
 10
81.24024321813157
 20
259.4076154422961
 10
81.24024321813157
 20
259.4076154422961
  0
LWPOLYLINE
  5
101147B
330
1F
100
AcDbEntity
  8
P
  6
Continuous
 62
     0
100
AcDbPolyline
 90
        2
 70
     0
 43
0.0
 10
29.82357655146492
 20
230.9909487756295
 10
191.8235765514649
 20
230.9909487756295
  0
LWPOLYLINE
  5
101147C
330
1F
100
AcDbEntity
  8
P
  6
Continuous
 62
     0
100
AcDbPolyline
 90
        2
 70
     0
 43
0.0
 10
29.82357655146492
 20
230.9909487756295
 10
191.8235765514649
 20
230.9909487756295
  0
LWPOLYLINE
  5
101147D
330
1F
100
AcDbEntity
  8
P
  6
Continuous
 62
     0
100
AcDbPolyline
 90
        2
 70
     0
 43
0.0
 10
29.82357655146492
 20
230.9909487756295
 10
29.82357655146492
 20
230.9909487756295
  0
LWPOLYLINE
  5
101147E
330
1F
100
AcDbEntity
  8
P
  6
Continuous
 62
     0
100
AcDbPolyline
 90
        2
 70
     0
 43
0.0
 10
191.8235765514649
 20
230.9909487756295
 10
191.8235765514649
 20
230.9909487756295
  0
LWPOLYLINE
  5
101147F
330
1F
100
AcDbEntity
  8
P
  6
DASHDOT
 62
     0
100
AcDbPolyline
 90
        2
 70
     0
 43
0.0
 10
29.82357655146492
 20
329.5742821089628
 10
29.82357655146492
 20
173.5742821089628
  0
LWPOLYLINE
  5
1011480
330
1F
100
AcDbEntity
  8
P
  6
DASHDOT
 62
     0
100
AcDbPolyline
 90
        2
 70
     0
 43
0.0
 10
29.82357655146492
 20
329.5742821089628
 10
29.82357655146492
 20
173.5742821089628
  0
LWPOLYLINE
  5
1011481
330
1F
100
AcDbEntity
  8
P
  6
DASHDOT
 62
     0
100
AcDbPolyline
 90
        2
 70
     0
 43
0.0
 10
29.82357655146492
 20
329.5742821089628
 10
29.82357655146492
 20
329.5742821089628
  0
LWPOLYLINE
  5
1011482
330
1F
100
AcDbEntity
  8
P
  6
DASHDOT
 62
     0
100
AcDbPolyline
 90
        2
 70
     0
 43
0.0
 10
29.82357655146492
 20
173.5742821089628
 10
29.82357655146492
 20
173.5742821089628
  0
LWPOLYLINE
  5
1011483
330
1F
100
AcDbEntity
  8
P
  6
DASHDOT
 62
     0
100
AcDbPolyline
 90
        2
 70
     0
 43
0.0
 10
29.82357655146492
 20
173.5742821089628
 10
191.8235765514649
 20
173.5742821089628
  0
LWPOLYLINE
  5
1011484
330
1F
100
AcDbEntity
  8
P
  6
DASHDOT
 62
     0
100
AcDbPolyline
 90
        2
 70
     0
 43
0.0
 10
29.82357655146492
 20
173.5742821089628
 10
191.8235765514649
 20
173.5742821089628
  0
LWPOLYLINE
  5
1011485
330
1F
100
AcDbEntity
  8
P
  6
DASHDOT
 62
     0
100
AcDbPolyline
 90
        2
 70
     0
 43
0.0
 10
29.82357655146492
 20
173.5742821089628
 10
29.82357655146492
 20
173.5742821089628
  0
LWPOLYLINE
  5
1011486
330
1F
100
AcDbEntity
  8
P
  6
DASHDOT
 62
     0
100
AcDbPolyline
 90
        2
 70
     0
 43
0.0
 10
191.8235765514649
 20
173.5742821089628
 10
191.8235765514649
 20
173.5742821089628
  0
LWPOLYLINE
  5
1011487
330
1F
100
AcDbEntity
  8
P
  6
Continuous
 62
     0
100
AcDbPolyline
 90
        2
 70
     0
 43
0.0
 10
80.57357655146491
 20
241.8242821089628
 10
191.8235765514649
 20
241.8242821089628
  0
LWPOLYLINE
  5
1011488
330
1F
100
AcDbEntity
  8
P
  6
Continuous
 62
     0
100
AcDbPolyline
 90
        2
 70
     0
 43
0.0
 10
80.57357655146491
 20
241.8242821089628
 10
191.8235765514649
 20
241.8242821089628
  0
LWPOLYLINE
  5
1011489
330
1F
100
AcDbEntity
  8
P
  6
Continuous
 62
     0
100
AcDbPolyline
 90
        2
 70
     0
 43
0.0
 10
80.57357655146491
 20
241.8242821089628
 10
80.57357655146491
 20
241.8242821089628
  0
LWPOLYLINE
  5
101148A
330
1F
100
AcDbEntity
  8
P
  6
Continuous
 62
     0
100
AcDbPolyline
 90
        2
 70
     0
 43
0.0
 10
191.8235765514649
 20
241.8242821089628
 10
191.8235765514649
 20
241.8242821089628
  0
LWPOLYLINE
  5
101148B
330
1F
100
AcDbEntity
  8
P
  6
Continuous
 62
     0
100
AcDbPolyline
 90
        2
 70
     0
 43
0.0
 10
80.57357655146491
 20
242.4909487756295
 10
191.8235765514649
 20
242.4909487756295
  0
LWPOLYLINE
  5
101148C
330
1F
100
AcDbEntity
  8
P
  6
Continuous
 62
     0
100
AcDbPolyline
 90
        2
 70
     0
 43
0.0
 10
80.57357655146491
 20
242.4909487756295
 10
191.8235765514649
 20
242.4909487756295
  0
LWPOLYLINE
  5
101148D
330
1F
100
AcDbEntity
  8
P
  6
Continuous
 62
     0
100
AcDbPolyline
 90
        2
 70
     0
 43
0.0
 10
80.57357655146491
 20
242.4909487756295
 10
80.57357655146491
 20
242.4909487756295
  0
LWPOLYLINE
  5
101148E
330
1F
100
AcDbEntity
  8
P
  6
Continuous
 62
     0
100
AcDbPolyline
 90
        2
 70
     0
 43
0.0
 10
191.8235765514649
 20
242.4909487756295
 10
191.8235765514649
 20
242.4909487756295
  0
LWPOLYLINE
  5
101148F
330
1F
100
AcDbEntity
  8
P
  6
Continuous
 62
     0
100
AcDbPolyline
 90
        2
 70
     0
 43
0.0
 10
81.24024321813157
 20
259.4076154422961
 10
191.8235765514649
 20
259.4076154422961
  0
LWPOLYLINE
  5
1011490
330
1F
100
AcDbEntity
  8
P
  6
Continuous
 62
     0
100
AcDbPolyline
 90
        2
 70
     0
 43
0.0
 10
81.24024321813157
 20
259.4076154422961
 10
191.8235765514649
 20
259.4076154422961
  0
LWPOLYLINE
  5
1011491
330
1F
100
AcDbEntity
  8
P
  6
Continuous
 62
     0
100
AcDbPolyline
 90
        2
 70
     0
 43
0.0
 10
81.24024321813157
 20
259.4076154422961
 10
81.24024321813157
 20
259.4076154422961
  0
LWPOLYLINE
  5
1011492
330
1F
100
AcDbEntity
  8
P
  6
Continuous
 62
     0
100
AcDbPolyline
 90
        2
 70
     0
 43
0.0
 10
191.8235765514649
 20
259.4076154422961
 10
191.8235765514649
 20
259.4076154422961
  0
LWPOLYLINE
  5
1011493
330
1F
100
AcDbEntity
  8
P
  6
Continuous
 62
     0
100
AcDbPolyline
 90
        2
 70
     0
 43
0.0
 10
86.57357655146491
 20
259.4076154422961
 10
86.57357655146491
 20
242.4909487756295
  0
LWPOLYLINE
  5
1011494
330
1F
100
AcDbEntity
  8
P
  6
Continuous
 62
     0
100
AcDbPolyline
 90
        2
 70
     0
 43
0.0
 10
86.57357655146491
 20
259.4076154422961
 10
86.57357655146491
 20
242.4909487756295
  0
LWPOLYLINE
  5
1011495
330
1F
100
AcDbEntity
  8
P
  6
Continuous
 62
     0
100
AcDbPolyline
 90
        2
 70
     0
 43
0.0
 10
86.57357655146491
 20
259.4076154422961
 10
86.57357655146491
 20
259.4076154422961
  0
LWPOLYLINE
  5
1011496
330
1F
100
AcDbEntity
  8
P
  6
Continuous
 62
     0
100
AcDbPolyline
 90
        2
 70
     0
 43
0.0
 10
86.57357655146491
 20
242.4909487756295
 10
86.57357655146491
 20
242.4909487756295
  0
LWPOLYLINE
  5
1011497
330
1F
100
AcDbEntity
  8
P
  6
Continuous
 62
     0
100
AcDbPolyline
 90
        2
 70
     0
 43
0.0
 10
86.57357655146491
 20
259.4076154422961
 10
80.49024321813158
 20
257.7409487756295
  0
LWPOLYLINE
  5
1011498
330
1F
100
AcDbEntity
  8
P
  6
Continuous
 62
     0
100
AcDbPolyline
 90
        2
 70
     0
 43
0.0
 10
86.57357655146491
 20
259.4076154422961
 10
80.49024321813158
 20
257.7409487756295
  0
LWPOLYLINE
  5
1011499
330
1F
100
AcDbEntity
  8
P
  6
Continuous
 62
     0
100
AcDbPolyline
 90
        2
 70
     0
 43
0.0
 10
86.57357655146491
 20
259.4076154422961
 10
86.57357655146491
 20
259.4076154422961
  0
LWPOLYLINE
  5
101149A
330
1F
100
AcDbEntity
  8
P
  6
Continuous
 62
     0
100
AcDbPolyline
 90
        2
 70
     0
 43
0.0
 10
80.49024321813158
 20
257.7409487756295
 10
80.49024321813158
 20
257.7409487756295
  0
LWPOLYLINE
  5
101149B
330
1F
100
AcDbEntity
  8
P
  6
Continuous
 62
     0
100
AcDbPolyline
 90
        2
 70
     0
 43
0.0
 10
80.49024321813158
 20
257.7409487756295
 10
86.57357655146491
 20
256.1576154422961
  0
LWPOLYLINE
  5
101149C
330
1F
100
AcDbEntity
  8
P
  6
Continuous
 62
     0
100
AcDbPolyline
 90
        2
 70
     0
 43
0.0
 10
80.49024321813158
 20
257.7409487756295
 10
86.57357655146491
 20
256.1576154422961
  0
LWPOLYLINE
  5
101149D
330
1F
100
AcDbEntity
  8
P
  6
Continuous
 62
     0
100
AcDbPolyline
 90
        2
 70
     0
 43
0.0
 10
80.49024321813158
 20
257.7409487756295
 10
80.49024321813158
 20
257.7409487756295
  0
LWPOLYLINE
  5
101149E
330
1F
100
AcDbEntity
  8
P
  6
Continuous
 62
     0
100
AcDbPolyline
 90
        2
 70
     0
 43
0.0
 10
86.57357655146491
 20
256.1576154422961
 10
86.57357655146491
 20
256.1576154422961
  0
LWPOLYLINE
  5
101149F
330
1F
100
AcDbEntity
  8
P
  6
Continuous
 62
     0
100
AcDbPolyline
 90
        2
 70
     0
 43
0.0
 10
86.57357655146491
 20
256.1576154422961
 10
80.49024321813158
 20
254.5742821089628
  0
LWPOLYLINE
  5
10114A0
330
1F
100
AcDbEntity
  8
P
  6
Continuous
 62
     0
100
AcDbPolyline
 90
        2
 70
     0
 43
0.0
 10
86.57357655146491
 20
256.1576154422961
 10
80.49024321813158
 20
254.5742821089628
  0
LWPOLYLINE
  5
10114A1
330
1F
100
AcDbEntity
  8
P
  6
Continuous
 62
     0
100
AcDbPolyline
 90
        2
 70
     0
 43
0.0
 10
86.57357655146491
 20
256.1576154422961
 10
86.57357655146491
 20
256.1576154422961
  0
LWPOLYLINE
  5
10114A2
330
1F
100
AcDbEntity
  8
P
  6
Continuous
 62
     0
100
AcDbPolyline
 90
        2
 70
     0
 43
0.0
 10
80.49024321813158
 20
254.5742821089628
 10
80.49024321813158
 20
254.5742821089628
  0
LWPOLYLINE
  5
10114A3
330
1F
100
AcDbEntity
  8
P
  6
Continuous
 62
     0
100
AcDbPolyline
 90
        2
 70
     0
 43
0.0
 10
80.49024321813158
 20
254.5742821089628
 10
86.49024321813158
 20
252.9076154422961
  0
LWPOLYLINE
  5
10114A4
330
1F
100
AcDbEntity
  8
P
  6
Continuous
 62
     0
100
AcDbPolyline
 90
        2
 70
     0
 43
0.0
 10
80.49024321813158
 20
254.5742821089628
 10
86.49024321813158
 20
252.9076154422961
  0
LWPOLYLINE
  5
10114A5
330
1F
100
AcDbEntity
  8
P
  6
Continuous
 62
     0
100
AcDbPolyline
 90
        2
 70
     0
 43
0.0
 10
80.49024321813158
 20
254.5742821089628
 10
80.49024321813158
 20
254.5742821089628
  0
LWPOLYLINE
  5
10114A6
330
1F
100
AcDbEntity
  8
P
  6
Continuous
 62
     0
100
AcDbPolyline
 90
        2
 70
     0
 43
0.0
 10
86.49024321813158
 20
252.9076154422961
 10
86.49024321813158
 20
252.9076154422961
  0
LWPOLYLINE
  5
10114A7
330
1F
100
AcDbEntity
  8
P
  6
Continuous
 62
     0
100
AcDbPolyline
 90
        2
 70
     0
 43
0.0
 10
86.57357655146491
 20
253.5742821089628
 10
91.74024321813158
 20
258.5742821089628
  0
LWPOLYLINE
  5
10114A8
330
1F
100
AcDbEntity
  8
P
  6
Continuous
 62
     0
100
AcDbPolyline
 90
        2
 70
     0
 43
0.0
 10
86.49024321813158
 20
246.6576154422961
 10
98.40690988479826
 20
258.5742821089628
  0
LWPOLYLINE
  5
10114A9
330
1F
100
AcDbEntity
  8
P
  6
Continuous
 62
     0
100
AcDbPolyline
 90
        2
 70
     0
 43
0.0
 10
89.15690988479825
 20
242.5742821089628
 10
105.2402432181316
 20
258.5742821089628
  0
LWPOLYLINE
  5
10114AA
330
1F
100
AcDbEntity
  8
P
  6
Continuous
 62
     0
100
AcDbPolyline
 90
        2
 70
     0
 43
0.0
 10
95.82357655146491
 20
242.5742821089628
 10
111.9902432181316
 20
258.5742821089628
  0
LWPOLYLINE
  5
10114AB
330
1F
100
AcDbEntity
  8
P
  6
Continuous
 62
     0
100
AcDbPolyline
 90
        2
 70
     0
 43
0.0
 10
102.6569098847982
 20
242.5742821089628
 10
118.6569098847982
 20
258.5742821089628
  0
LWPOLYLINE
  5
10114AC
330
1F
100
AcDbEntity
  8
P
  6
Continuous
 62
     0
100
AcDbPolyline
 90
        2
 70
     0
 43
0.0
 10
109.3235765514649
 20
242.5742821089628
 10
125.4069098847982
 20
258.5742821089628
  0
LWPOLYLINE
  5
10114AD
330
1F
100
AcDbEntity
  8
P
  6
Continuous
 62
     0
100
AcDbPolyline
 90
        2
 70
     0
 43
0.0
 10
116.1569098847982
 20
242.5742821089628
 10
132.1569098847982
 20
258.5742821089628
  0
LWPOLYLINE
  5
10114AE
330
1F
100
AcDbEntity
  8
P
  6
Continuous
 62
     0
100
AcDbPolyline
 90
        2
 70
     0
 43
0.0
 10
122.8235765514649
 20
242.5742821089628
 10
138.9902432181316
 20
258.5742821089628
  0
LWPOLYLINE
  5
10114AF
330
1F
100
AcDbEntity
  8
P
  6
Continuous
 62
     0
100
AcDbPolyline
 90
        2
 70
     0
 43
0.0
 10
129.6569098847982
 20
242.5742821089628
 10
145.6569098847982
 20
258.5742821089628
  0
LWPOLYLINE
  5
10114B0
330
1F
100
AcDbEntity
  8
P
  6
Continuous
 62
     0
100
AcDbPolyline
 90
        2
 70
     0
 43
0.0
 10
136.4069098847982
 20
242.5742821089628
 10
152.5735765514649
 20
258.6576154422961
  0
LWPOLYLINE
  5
10114B1
330
1F
100
AcDbEntity
  8
P
  6
Continuous
 62
     0
100
AcDbPolyline
 90
        2
 70
     0
 43
0.0
 10
143.0735765514649
 20
242.5742821089628
 10
159.2402432181316
 20
258.5742821089628
  0
LWPOLYLINE
  5
10114B2
330
1F
100
AcDbEntity
  8
P
  6
Continuous
 62
     0
100
AcDbPolyline
 90
        2
 70
     0
 43
0.0
 10
149.9069098847982
 20
242.5742821089628
 10
166.0735765514649
 20
258.6576154422961
  0
LWPOLYLINE
  5
10114B3
330
1F
100
AcDbEntity
  8
P
  6
Continuous
 62
     0
100
AcDbPolyline
 90
        2
 70
     0
 43
0.0
 10
156.5735765514649
 20
242.5742821089628
 10
172.7402432181316
 20
258.5742821089628
  0
LWPOLYLINE
  5
10114B4
330
1F
100
AcDbEntity
  8
P
  6
Continuous
 62
     0
100
AcDbPolyline
 90
        2
 70
     0
 43
0.0
 10
163.4069098847982
 20
242.5742821089628
 10
179.4902432181316
 20
258.6576154422961
  0
LWPOLYLINE
  5
10114B5
330
1F
100
AcDbEntity
  8
P
  6
Continuous
 62
     0
100
AcDbPolyline
 90
        2
 70
     0
 43
0.0
 10
170.0735765514649
 20
242.5742821089628
 10
186.2402432181316
 20
258.6576154422961
  0
LWPOLYLINE
  5
10114B6
330
1F
100
AcDbEntity
  8
P
  6
Continuous
 62
     0
100
AcDbPolyline
 90
        2
 70
     0
 43
0.0
 10
176.9069098847982
 20
242.5742821089628
 10
191.8235765514649
 20
257.4909487756295
  0
LWPOLYLINE
  5
10114B7
330
1F
100
AcDbEntity
  8
P
  6
Continuous
 62
     0
100
AcDbPolyline
 90
        2
 70
     0
 43
0.0
 10
183.6569098847982
 20
242.5742821089628
 10
191.8235765514649
 20
250.6576154422961
  0
LWPOLYLINE
  5
10114B8
330
1F
100
AcDbEntity
  8
P
  6
Continuous
 62
     0
100
AcDbPolyline
 90
        2
 70
     0
 43
0.0
 10
190.4902432181316
 20
242.5742821089628
 10
191.8235765514649
 20
243.8242821089628
  0
LWPOLYLINE
  5
10114B9
330
1F
100
AcDbEntity
  8
P
  6
DASHDOT
 62
     0
100
AcDbPolyline
 90
        2
 70
     0
 43
0.0
 10
191.8235765514649
 20
173.5742821089628
 10
191.8235765514649
 20
277.5742821089628
  0
LWPOLYLINE
  5
10114BA
330
1F
100
AcDbEntity
  8
P
  6
Continuous
 62
     0
100
AcDbPolyline
 90
        2
 70
     0
 43
0.0
 10
187.1569098847982
 20
173.5742821089628
 10
191.8235765514649
 20
178.2409487756295
  0
LWPOLYLINE
  5
10114BB
330
1F
100
AcDbEntity
  8
P
  6
Continuous
 62
     0
100
AcDbPolyline
 90
        2
 70
     0
 43
0.0
 10
186.7402432181316
 20
198.4909487756294
 10
191.8235765514649
 20
203.4076154422961
  0
LWPOLYLINE
  5
10114BC
330
1F
100
AcDbEntity
  8
P
  6
Continuous
 62
     0
100
AcDbPolyline
 90
        2
 70
     0
 43
0.0
 10
174.1569098847982
 20
185.7409487756294
 10
183.6569098847982
 20
195.3242821089628
  0
LWPOLYLINE
  5
10114BD
330
1F
100
AcDbEntity
  8
P
  6
Continuous
 62
     0
100
AcDbPolyline
 90
        2
 70
     0
 43
0.0
 10
161.9902432181316
 20
173.5742821089628
 10
171.0735765514649
 20
182.5742821089628
  0
LWPOLYLINE
  5
10114BE
330
1F
100
AcDbEntity
  8
P
  6
Continuous
 62
     0
100
AcDbPolyline
 90
        2
 70
     0
 43
0.0
 10
186.7402432181316
 20
223.6576154422961
 10
191.8235765514649
 20
228.6576154422961
  0
LWPOLYLINE
  5
10114BF
330
1F
100
AcDbEntity
  8
P
  6
Continuous
 62
     0
100
AcDbPolyline
 90
        2
 70
     0
 43
0.0
 10
174.1569098847982
 20
210.9076154422961
 10
183.6569098847982
 20
220.5742821089628
  0
LWPOLYLINE
  5
10114C0
330
1F
100
AcDbEntity
  8
P
  6
Continuous
 62
     0
100
AcDbPolyline
 90
        2
 70
     0
 43
0.0
 10
161.5735765514649
 20
198.4909487756294
 10
171.0735765514649
 20
207.8242821089628
  0
LWPOLYLINE
  5
10114C1
330
1F
100
AcDbEntity
  8
P
  6
Continuous
 62
     0
100
AcDbPolyline
 90
        2
 70
     0
 43
0.0
 10
148.9902432181316
 20
185.7409487756294
 10
158.4069098847982
 20
195.3242821089628
  0
LWPOLYLINE
  5
10114C2
330
1F
100
AcDbEntity
  8
P
  6
Continuous
 62
     0
100
AcDbPolyline
 90
        2
 70
     0
 43
0.0
 10
136.8235765514649
 20
173.5742821089628
 10
145.8235765514649
 20
182.5742821089628
  0
LWPOLYLINE
  5
10114C3
330
1F
100
AcDbEntity
  8
P
  6
Continuous
 62
     0
100
AcDbPolyline
 90
        2
 70
     0
 43
0.0
 10
161.5735765514649
 20
223.6576154422961
 10
168.9902432181316
 20
231.0742821089628
  0
LWPOLYLINE
  5
10114C4
330
1F
100
AcDbEntity
  8
P
  6
Continuous
 62
     0
100
AcDbPolyline
 90
        2
 70
     0
 43
0.0
 10
148.9902432181316
 20
210.9076154422961
 10
158.4069098847982
 20
220.5742821089628
  0
LWPOLYLINE
  5
10114C5
330
1F
100
AcDbEntity
  8
P
  6
Continuous
 62
     0
100
AcDbPolyline
 90
        2
 70
     0
 43
0.0
 10
136.4069098847982
 20
198.4909487756294
 10
145.8235765514649
 20
207.8242821089628
  0
LWPOLYLINE
  5
10114C6
330
1F
100
AcDbEntity
  8
P
  6
Continuous
 62
     0
100
AcDbPolyline
 90
        2
 70
     0
 43
0.0
 10
123.8235765514649
 20
185.7409487756294
 10
133.2402432181316
 20
195.3242821089628
  0
LWPOLYLINE
  5
10114C7
330
1F
100
AcDbEntity
  8
P
  6
Continuous
 62
     0
100
AcDbPolyline
 90
        2
 70
     0
 43
0.0
 10
111.6569098847982
 20
173.5742821089628
 10
120.6569098847982
 20
182.5742821089628
  0
LWPOLYLINE
  5
10114C8
330
1F
100
AcDbEntity
  8
P
  6
Continuous
 62
     0
100
AcDbPolyline
 90
        2
 70
     0
 43
0.0
 10
136.4069098847982
 20
223.6576154422961
 10
143.8235765514649
 20
231.0742821089628
  0
LWPOLYLINE
  5
10114C9
330
1F
100
AcDbEntity
  8
P
  6
Continuous
 62
     0
100
AcDbPolyline
 90
        2
 70
     0
 43
0.0
 10
123.8235765514649
 20
210.9076154422961
 10
133.2402432181316
 20
220.5742821089628
  0
LWPOLYLINE
  5
10114CA
330
1F
100
AcDbEntity
  8
P
  6
Continuous
 62
     0
100
AcDbPolyline
 90
        2
 70
     0
 43
0.0
 10
111.1569098847982
 20
198.4909487756294
 10
120.6569098847982
 20
207.8242821089628
  0
LWPOLYLINE
  5
10114CB
330
1F
100
AcDbEntity
  8
P
  6
Continuous
 62
     0
100
AcDbPolyline
 90
        2
 70
     0
 43
0.0
 10
98.57357655146492
 20
185.7409487756294
 10
108.0735765514649
 20
195.3242821089628
  0
LWPOLYLINE
  5
10114CC
330
1F
100
AcDbEntity
  8
P
  6
Continuous
 62
     0
100
AcDbPolyline
 90
        2
 70
     0
 43
0.0
 10
86.3235765514649
 20
173.5742821089628
 10
95.32357655146491
 20
182.5742821089628
  0
LWPOLYLINE
  5
10114CD
330
1F
100
AcDbEntity
  8
P
  6
Continuous
 62
     0
100
AcDbPolyline
 90
        2
 70
     0
 43
0.0
 10
111.1569098847982
 20
223.6576154422961
 10
118.6569098847982
 20
231.0742821089628
  0
LWPOLYLINE
  5
10114CE
330
1F
100
AcDbEntity
  8
P
  6
Continuous
 62
     0
100
AcDbPolyline
 90
        2
 70
     0
 43
0.0
 10
98.57357655146492
 20
210.9076154422961
 10
108.0735765514649
 20
220.5742821089628
  0
LWPOLYLINE
  5
10114CF
330
1F
100
AcDbEntity
  8
P
  6
Continuous
 62
     0
100
AcDbPolyline
 90
        2
 70
     0
 43
0.0
 10
85.99024321813159
 20
198.4909487756294
 10
95.32357655146491
 20
207.8242821089628
  0
LWPOLYLINE
  5
10114D0
330
1F
100
AcDbEntity
  8
P
  6
Continuous
 62
     0
100
AcDbPolyline
 90
        2
 70
     0
 43
0.0
 10
73.40690988479825
 20
185.7409487756294
 10
82.74024321813158
 20
195.3242821089628
  0
LWPOLYLINE
  5
10114D1
330
1F
100
AcDbEntity
  8
P
  6
Continuous
 62
     0
100
AcDbPolyline
 90
        2
 70
     0
 43
0.0
 10
61.15690988479824
 20
173.5742821089628
 10
70.15690988479825
 20
182.5742821089628
  0
LWPOLYLINE
  5
10114D2
330
1F
100
AcDbEntity
  8
P
  6
Continuous
 62
     0
100
AcDbPolyline
 90
        2
 70
     0
 43
0.0
 10
85.99024321813159
 20
223.6576154422961
 10
93.32357655146491
 20
231.0742821089628
  0
LWPOLYLINE
  5
10114D3
330
1F
100
AcDbEntity
  8
P
  6
Continuous
 62
     0
100
AcDbPolyline
 90
        2
 70
     0
 43
0.0
 10
73.40690988479825
 20
210.9076154422961
 10
82.74024321813158
 20
220.5742821089628
  0
LWPOLYLINE
  5
10114D4
330
1F
100
AcDbEntity
  8
P
  6
Continuous
 62
     0
100
AcDbPolyline
 90
        2
 70
     0
 43
0.0
 10
60.65690988479825
 20
198.4909487756294
 10
70.15690988479825
 20
207.8242821089628
  0
LWPOLYLINE
  5
10114D5
330
1F
100
AcDbEntity
  8
P
  6
Continuous
 62
     0
100
AcDbPolyline
 90
        2
 70
     0
 43
0.0
 10
48.07357655146492
 20
185.7409487756294
 10
57.57357655146492
 20
195.3242821089628
  0
LWPOLYLINE
  5
10114D6
330
1F
100
AcDbEntity
  8
P
  6
Continuous
 62
     0
100
AcDbPolyline
 90
        2
 70
     0
 43
0.0
 10
35.99024321813158
 20
173.5742821089628
 10
44.99024321813158
 20
182.5742821089628
  0
LWPOLYLINE
  5
10114D7
330
1F
100
AcDbEntity
  8
P
  6
Continuous
 62
     0
100
AcDbPolyline
 90
        2
 70
     0
 43
0.0
 10
60.65690988479825
 20
223.6576154422961
 10
68.15690988479826
 20
231.0742821089628
  0
LWPOLYLINE
  5
10114D8
330
1F
100
AcDbEntity
  8
P
  6
Continuous
 62
     0
100
AcDbPolyline
 90
        2
 70
     0
 43
0.0
 10
48.07357655146492
 20
210.9076154422961
 10
57.57357655146492
 20
220.5742821089628
  0
LWPOLYLINE
  5
10114D9
330
1F
100
AcDbEntity
  8
P
  6
Continuous
 62
     0
100
AcDbPolyline
 90
        2
 70
     0
 43
0.0
 10
35.49024321813158
 20
198.4909487756294
 10
44.99024321813158
 20
207.8242821089628
  0
LWPOLYLINE
  5
10114DA
330
1F
100
AcDbEntity
  8
P
  6
Continuous
 62
     0
100
AcDbPolyline
 90
        2
 70
     0
 43
0.0
 10
29.90690988479825
 20
192.5742821089628
 10
32.40690988479825
 20
195.3242821089628
  0
LWPOLYLINE
  5
10114DB
330
1F
100
AcDbEntity
  8
P
  6
Continuous
 62
     0
100
AcDbPolyline
 90
        2
 70
     0
 43
0.0
 10
35.49024321813158
 20
223.6576154422961
 10
42.99024321813158
 20
231.0742821089628
  0
LWPOLYLINE
  5
10114DC
330
1F
100
AcDbEntity
  8
P
  6
Continuous
 62
     0
100
AcDbPolyline
 90
        2
 70
     0
 43
0.0
 10
29.90690988479825
 20
218.0742821089628
 10
32.40690988479825
 20
220.5742821089628
  0
LWPOLYLINE
  5
10114DD
330
1F
100
AcDbEntity
  8
P
  6
Continuous
 62
     0
100
AcDbPolyline
 90
        2
 70
     0
 43
0.0
 10
174.5735765514649
 20
173.5742821089628
 10
191.8235765514649
 20
190.6576154422961
  0
LWPOLYLINE
  5
10114DE
330
1F
100
AcDbEntity
  8
P
  6
Continuous
 62
     0
100
AcDbPolyline
 90
        2
 70
     0
 43
0.0
 10
149.4069098847982
 20
173.5742821089628
 10
191.8235765514649
 20
215.9076154422961
  0
LWPOLYLINE
  5
10114DF
330
1F
100
AcDbEntity
  8
P
  6
Continuous
 62
     0
100
AcDbPolyline
 90
        2
 70
     0
 43
0.0
 10
124.2402432181316
 20
173.5742821089628
 10
181.5735765514649
 20
231.0742821089628
  0
LWPOLYLINE
  5
10114E0
330
1F
100
AcDbEntity
  8
P
  6
Continuous
 62
     0
100
AcDbPolyline
 90
        2
 70
     0
 43
0.0
 10
99.07357655146491
 20
173.5742821089628
 10
156.4069098847982
 20
231.0742821089628
  0
LWPOLYLINE
  5
10114E1
330
1F
100
AcDbEntity
  8
P
  6
Continuous
 62
     0
100
AcDbPolyline
 90
        2
 70
     0
 43
0.0
 10
73.74024321813158
 20
173.5742821089628
 10
131.2402432181316
 20
231.0742821089628
  0
LWPOLYLINE
  5
10114E2
330
1F
100
AcDbEntity
  8
P
  6
Continuous
 62
     0
100
AcDbPolyline
 90
        2
 70
     0
 43
0.0
 10
48.57357655146492
 20
173.5742821089628
 10
106.0735765514649
 20
231.0742821089628
  0
LWPOLYLINE
  5
10114E3
330
1F
100
AcDbEntity
  8
P
  6
Continuous
 62
     0
100
AcDbPolyline
 90
        2
 70
     0
 43
0.0
 10
29.90690988479825
 20
180.1576154422961
 10
80.65690988479826
 20
230.9909487756295
  0
LWPOLYLINE
  5
10114E4
330
1F
100
AcDbEntity
  8
P
  6
Continuous
 62
     0
100
AcDbPolyline
 90
        2
 70
     0
 43
0.0
 10
29.90690988479825
 20
205.3242821089628
 10
55.57357655146492
 20
231.0742821089628
  0
LWPOLYLINE
  5
10114E5
330
1F
100
AcDbEntity
  8
P
  6
Continuous
 62
     0
100
AcDbPolyline
 90
        2
 70
     0
 43
0.0
 10
29.90690988479825
 20
230.4909487756295
 10
30.40690988479825
 20
231.0742821089628
  0
LWPOLYLINE
  5
10114E6
330
1F
100
AcDbEntity
  8
P
  6
Continuous
 62
     0
100
AcDbPolyline
 90
        2
 70
     0
 43
0.0
 10
75.40690988479825
 20
231.0742821089628
 10
80.57357655146491
 20
236.2409487756295
  0
LWPOLYLINE
  5
10114E7
330
1F
100
AcDbEntity
  8
P
  6
Continuous
 62
     0
100
AcDbPolyline
 90
        2
 70
     0
 43
0.0
 10
66.40690988479825
 20
231.0742821089628
 10
80.57357655146491
 20
245.2409487756295
  0
LWPOLYLINE
  5
10114E8
330
1F
100
AcDbEntity
  8
P
  6
Continuous
 62
     0
100
AcDbPolyline
 90
        2
 70
     0
 43
0.0
 10
57.40690988479824
 20
231.0742821089628
 10
80.57357655146491
 20
254.2409487756295
  0
LWPOLYLINE
  5
10114E9
330
1F
100
AcDbEntity
  8
P
  6
Continuous
 62
     0
100
AcDbPolyline
 90
        2
 70
     0
 43
0.0
 10
48.40690988479824
 20
231.0742821089628
 10
80.57357655146491
 20
263.2409487756295
  0
LWPOLYLINE
  5
10114EA
330
1F
100
AcDbEntity
  8
P
  6
Continuous
 62
     0
100
AcDbPolyline
 90
        2
 70
     0
 43
0.0
 10
39.40690988479825
 20
231.0742821089628
 10
80.40690988479825
 20
272.1576154422961
  0
LWPOLYLINE
  5
10114EB
330
1F
100
AcDbEntity
  8
P
  6
Continuous
 62
     0
100
AcDbPolyline
 90
        2
 70
     0
 43
0.0
 10
30.40690988479825
 20
231.0742821089628
 10
80.49024321813158
 20
281.2409487756294
  0
LWPOLYLINE
  5
10114EC
330
1F
100
AcDbEntity
  8
P
  6
Continuous
 62
     0
100
AcDbPolyline
 90
        2
 70
     0
 43
0.0
 10
29.90690988479825
 20
239.4909487756295
 10
80.49024321813158
 20
289.9076154422961
  0
LWPOLYLINE
  5
10114ED
330
1F
100
AcDbEntity
  8
P
  6
Continuous
 62
     0
100
AcDbPolyline
 90
        2
 70
     0
 43
0.0
 10
29.90690988479825
 20
248.4909487756295
 10
80.40690988479825
 20
298.9076154422962
  0
LWPOLYLINE
  5
10114EE
330
1F
100
AcDbEntity
  8
P
  6
Continuous
 62
     0
100
AcDbPolyline
 90
        2
 70
     0
 43
0.0
 10
29.90690988479825
 20
257.4909487756295
 10
80.57357655146491
 20
307.9909487756295
  0
LWPOLYLINE
  5
10114EF
330
1F
100
AcDbEntity
  8
P
  6
Continuous
 62
     0
100
AcDbPolyline
 90
        2
 70
     0
 43
0.0
 10
29.90690988479825
 20
266.5742821089629
 10
80.57357655146491
 20
316.9909487756295
  0
LWPOLYLINE
  5
10114F0
330
1F
100
AcDbEntity
  8
P
  6
Continuous
 62
     0
100
AcDbPolyline
 90
        2
 70
     0
 43
0.0
 10
29.90690988479825
 20
275.5742821089628
 10
80.40690988479825
 20
325.9076154422962
  0
LWPOLYLINE
  5
10114F1
330
1F
100
AcDbEntity
  8
P
  6
Continuous
 62
     0
100
AcDbPolyline
 90
        2
 70
     0
 43
0.0
 10
29.90690988479825
 20
284.5742821089629
 10
74.99024321813158
 20
329.6576154422961
  0
LWPOLYLINE
  5
10114F2
330
1F
100
AcDbEntity
  8
P
  6
Continuous
 62
     0
100
AcDbPolyline
 90
        2
 70
     0
 43
0.0
 10
29.90690988479825
 20
293.5742821089628
 10
65.99024321813158
 20
329.6576154422961
  0
LWPOLYLINE
  5
10114F3
330
1F
100
AcDbEntity
  8
P
  6
Continuous
 62
     0
100
AcDbPolyline
 90
        2
 70
     0
 43
0.0
 10
29.90690988479825
 20
302.5742821089628
 10
56.90690988479825
 20
329.6576154422961
  0
LWPOLYLINE
  5
10114F4
330
1F
100
AcDbEntity
  8
P
  6
Continuous
 62
     0
100
AcDbPolyline
 90
        2
 70
     0
 43
0.0
 10
29.90690988479825
 20
311.5742821089628
 10
47.90690988479824
 20
329.6576154422961
  0
LWPOLYLINE
  5
10114F5
330
1F
100
AcDbEntity
  8
P
  6
Continuous
 62
     0
100
AcDbPolyline
 90
        2
 70
     0
 43
0.0
 10
29.90690988479825
 20
320.6576154422962
 10
38.90690988479825
 20
329.6576154422961
  0
LWPOLYLINE
  5
10114F6
330
1F
100
AcDbEntity
  8
P
  6
Continuous
 62
     0
100
AcDbPolyline
 90
        2
 70
     0
 43
0.0
 10
29.90690988479825
 20
329.6576154422961
 10
29.90690988479825
 20
329.6576154422961
  0
LWPOLYLINE
  5
10114F7
330
1F
100
AcDbEntity
  8
P
  6
DASHDOT
 62
     0
100
AcDbPolyline
 90
        2
 70
     0
 43
0.0
 10
90.0735765514649
 20
262.9909487756295
 10
91.15690988479824
 20
264.0742821089629
  0
LWPOLYLINE
  5
10114F8
330
1F
100
AcDbEntity
  8
P
  6
DASHDOT
 62
     0
100
AcDbPolyline
 90
        2
 70
     0
 43
0.0
 10
93.40690988479826
 20
262.7409487756295
 10
94.74024321813159
 20
264.0742821089629
  0
LWPOLYLINE
  5
10114F9
330
1F
100
AcDbEntity
  8
P
  6
DASHDOT
 62
     0
100
AcDbPolyline
 90
        2
 70
     0
 43
0.0
 10
97.15690988479826
 20
262.7409487756295
 10
98.32357655146491
 20
264.0742821089629
  0
LWPOLYLINE
  5
10114FA
330
1F
100
AcDbEntity
  8
P
  6
DASHDOT
 62
     0
100
AcDbPolyline
 90
        2
 70
     0
 43
0.0
 10
100.7402432181315
 20
262.6576154422961
 10
101.9069098847982
 20
264.0742821089629
  0
LWPOLYLINE
  5
10114FB
330
1F
100
AcDbEntity
  8
P
  6
DASHDOT
 62
     0
100
AcDbPolyline
 90
        2
 70
     0
 43
0.0
 10
104.3235765514649
 20
262.7409487756295
 10
105.4069098847982
 20
264.0742821089629
  0
LWPOLYLINE
  5
10114FC
330
1F
100
AcDbEntity
  8
P
  6
DASHDOT
 62
     0
100
AcDbPolyline
 90
        2
 70
     0
 43
0.0
 10
107.7402432181316
 20
262.5742821089628
 10
108.9902432181315
 20
264.0742821089629
  0
LWPOLYLINE
  5
10114FD
330
1F
100
AcDbEntity
  8
P
  6
DASHDOT
 62
     0
100
AcDbPolyline
 90
        2
 70
     0
 43
0.0
 10
110.3235765514649
 20
261.6576154422961
 10
112.7402432181316
 20
264.0742821089629
  0
LWPOLYLINE
  5
10114FE
330
1F
100
AcDbEntity
  8
P
  6
DASHDOT
 62
     0
100
AcDbPolyline
 90
        2
 70
     0
 43
0.0
 10
112.9069098847982
 20
260.6576154422961
 10
116.3235765514649
 20
264.0742821089629
  0
LWPOLYLINE
  5
10114FF
330
1F
100
AcDbEntity
  8
P
  6
DASHDOT
 62
     0
100
AcDbPolyline
 90
        2
 70
     0
 43
0.0
 10
116.4902432181316
 20
260.4909487756295
 10
119.9069098847982
 20
264.0742821089629
  0
LWPOLYLINE
  5
1011500
330
1F
100
AcDbEntity
  8
P
  6
DASHDOT
 62
     0
100
AcDbPolyline
 90
        2
 70
     0
 43
0.0
 10
120.0735765514649
 20
260.4909487756295
 10
123.4902432181316
 20
264.0742821089629
  0
LWPOLYLINE
  5
1011501
330
1F
100
AcDbEntity
  8
P
  6
DASHDOT
 62
     0
100
AcDbPolyline
 90
        2
 70
     0
 43
0.0
 10
123.6569098847982
 20
260.4909487756295
 10
127.0735765514649
 20
264.0742821089629
  0
LWPOLYLINE
  5
1011502
330
1F
100
AcDbEntity
  8
P
  6
DASHDOT
 62
     0
100
AcDbPolyline
 90
        2
 70
     0
 43
0.0
 10
127.2402432181316
 20
260.4909487756295
 10
130.6569098847982
 20
264.0742821089629
  0
LWPOLYLINE
  5
1011503
330
1F
100
AcDbEntity
  8
P
  6
DASHDOT
 62
     0
100
AcDbPolyline
 90
        2
 70
     0
 43
0.0
 10
130.9069098847982
 20
260.4909487756295
 10
134.3235765514649
 20
264.0742821089629
  0
LWPOLYLINE
  5
1011504
330
1F
100
AcDbEntity
  8
P
  6
DASHDOT
 62
     0
100
AcDbPolyline
 90
        2
 70
     0
 43
0.0
 10
134.4902432181316
 20
260.4909487756295
 10
137.9069098847982
 20
264.0742821089629
  0
LWPOLYLINE
  5
1011505
330
1F
100
AcDbEntity
  8
P
  6
DASHDOT
 62
     0
100
AcDbPolyline
 90
        2
 70
     0
 43
0.0
 10
138.1569098847982
 20
260.4909487756295
 10
141.4902432181316
 20
264.0742821089629
  0
LWPOLYLINE
  5
1011506
330
1F
100
AcDbEntity
  8
P
  6
DASHDOT
 62
     0
100
AcDbPolyline
 90
        2
 70
     0
 43
0.0
 10
141.6569098847982
 20
260.4076154422961
 10
145.0735765514649
 20
264.0742821089629
  0
LWPOLYLINE
  5
1011507
330
1F
100
AcDbEntity
  8
P
  6
DASHDOT
 62
     0
100
AcDbPolyline
 90
        2
 70
     0
 43
0.0
 10
145.2402432181315
 20
260.4909487756295
 10
148.6569098847982
 20
264.0742821089629
  0
LWPOLYLINE
  5
1011508
330
1F
100
AcDbEntity
  8
P
  6
DASHDOT
 62
     0
100
AcDbPolyline
 90
        2
 70
     0
 43
0.0
 10
148.8235765514649
 20
260.4076154422961
 10
152.2402432181316
 20
264.0742821089629
  0
LWPOLYLINE
  5
1011509
330
1F
100
AcDbEntity
  8
P
  6
DASHDOT
 62
     0
100
AcDbPolyline
 90
        2
 70
     0
 43
0.0
 10
152.6569098847982
 20
260.6576154422961
 10
155.9902432181315
 20
264.0742821089629
  0
LWPOLYLINE
  5
101150A
330
1F
100
AcDbEntity
  8
P
  6
DASHDOT
 62
     0
100
AcDbPolyline
 90
        2
 70
     0
 43
0.0
 10
156.1569098847982
 20
260.4909487756295
 10
159.4902432181316
 20
264.0742821089629
  0
LWPOLYLINE
  5
101150B
330
1F
100
AcDbEntity
  8
P
  6
DASHDOT
 62
     0
100
AcDbPolyline
 90
        2
 70
     0
 43
0.0
 10
159.6569098847982
 20
260.4909487756295
 10
163.0735765514649
 20
264.0742821089629
  0
LWPOLYLINE
  5
101150C
330
1F
100
AcDbEntity
  8
P
  6
DASHDOT
 62
     0
100
AcDbPolyline
 90
        2
 70
     0
 43
0.0
 10
163.2402432181315
 20
260.4909487756295
 10
166.6569098847982
 20
264.0742821089629
  0
LWPOLYLINE
  5
101150D
330
1F
100
AcDbEntity
  8
P
  6
DASHDOT
 62
     0
100
AcDbPolyline
 90
        2
 70
     0
 43
0.0
 10
166.8235765514649
 20
260.4909487756295
 10
170.2402432181315
 20
264.0742821089629
  0
LWPOLYLINE
  5
101150E
330
1F
100
AcDbEntity
  8
P
  6
DASHDOT
 62
     0
100
AcDbPolyline
 90
        2
 70
     0
 43
0.0
 10
170.4069098847982
 20
260.4909487756295
 10
173.9902432181316
 20
264.0742821089629
  0
LWPOLYLINE
  5
101150F
330
1F
100
AcDbEntity
  8
P
  6
DASHDOT
 62
     0
100
AcDbPolyline
 90
        2
 70
     0
 43
0.0
 10
174.1569098847982
 20
260.4909487756295
 10
177.5735765514649
 20
264.0742821089629
  0
LWPOLYLINE
  5
1011510
330
1F
100
AcDbEntity
  8
P
  6
DASHDOT
 62
     0
100
AcDbPolyline
 90
        2
 70
     0
 43
0.0
 10
177.7402432181315
 20
260.4909487756295
 10
181.1569098847982
 20
264.0742821089629
  0
LWPOLYLINE
  5
1011511
330
1F
100
AcDbEntity
  8
P
  6
DASHDOT
 62
     0
100
AcDbPolyline
 90
        2
 70
     0
 43
0.0
 10
181.2402432181316
 20
260.4909487756295
 10
184.7402432181316
 20
264.0742821089629
  0
LWPOLYLINE
  5
1011512
330
1F
100
AcDbEntity
  8
P
  6
DASHDOT
 62
     0
100
AcDbPolyline
 90
        2
 70
     0
 43
0.0
 10
184.9069098847982
 20
260.4909487756295
 10
188.3235765514649
 20
264.0742821089629
  0
LWPOLYLINE
  5
1011513
330
1F
100
AcDbEntity
  8
P
  6
DASHDOT
 62
     0
100
AcDbPolyline
 90
        2
 70
     0
 43
0.0
 10
188.8235765514649
 20
260.4909487756295
 10
191.8235765514649
 20
263.7409487756295
  0
LWPOLYLINE
  5
1011514
330
1F
100
AcDbEntity
  8
P
  6
DASHDOT
 62
     0
100
AcDbPolyline
 90
        2
 70
     0
 43
0.0
 10
82.24024321813159
 20
327.1576154422962
 10
84.57357655146491
 20
329.6576154422961
  0
LWPOLYLINE
  5
1011515
330
1F
100
AcDbEntity
  8
P
  6
DASHDOT
 62
     0
100
AcDbPolyline
 90
        2
 70
     0
 43
0.0
 10
82.32357655146492
 20
323.4909487756295
 10
86.15690988479824
 20
327.4909487756295
  0
LWPOLYLINE
  5
1011516
330
1F
100
AcDbEntity
  8
P
  6
DASHDOT
 62
     0
100
AcDbPolyline
 90
        2
 70
     0
 43
0.0
 10
82.24024321813159
 20
319.9909487756295
 10
86.15690988479824
 20
324.0742821089628
  0
LWPOLYLINE
  5
1011517
330
1F
100
AcDbEntity
  8
P
  6
DASHDOT
 62
     0
100
AcDbPolyline
 90
        2
 70
     0
 43
0.0
 10
82.32357655146492
 20
316.2409487756295
 10
86.15690988479824
 20
320.3242821089628
  0
LWPOLYLINE
  5
1011518
330
1F
100
AcDbEntity
  8
P
  6
DASHDOT
 62
     0
100
AcDbPolyline
 90
        2
 70
     0
 43
0.0
 10
82.32357655146492
 20
312.6576154422961
 10
86.15690988479824
 20
316.5742821089628
  0
LWPOLYLINE
  5
1011519
330
1F
100
AcDbEntity
  8
P
  6
DASHDOT
 62
     0
100
AcDbPolyline
 90
        2
 70
     0
 43
0.0
 10
82.24024321813159
 20
309.0742821089628
 10
86.15690988479824
 20
313.1576154422962
  0
LWPOLYLINE
  5
101151A
330
1F
100
AcDbEntity
  8
P
  6
DASHDOT
 62
     0
100
AcDbPolyline
 90
        2
 70
     0
 43
0.0
 10
82.32357655146492
 20
305.4076154422962
 10
86.15690988479824
 20
309.4076154422962
  0
LWPOLYLINE
  5
101151B
330
1F
100
AcDbEntity
  8
P
  6
DASHDOT
 62
     0
100
AcDbPolyline
 90
        2
 70
     0
 43
0.0
 10
82.32357655146492
 20
301.9909487756295
 10
86.15690988479824
 20
305.9909487756295
  0
LWPOLYLINE
  5
101151C
330
1F
100
AcDbEntity
  8
P
  6
DASHDOT
 62
     0
100
AcDbPolyline
 90
        2
 70
     0
 43
0.0
 10
82.32357655146492
 20
298.2409487756295
 10
86.15690988479824
 20
302.3242821089628
  0
LWPOLYLINE
  5
101151D
330
1F
100
AcDbEntity
  8
P
  6
DASHDOT
 62
     0
100
AcDbPolyline
 90
        2
 70
     0
 43
0.0
 10
82.32357655146492
 20
294.8242821089628
 10
86.15690988479824
 20
298.9076154422962
  0
LWPOLYLINE
  5
101151E
330
1F
100
AcDbEntity
  8
P
  6
DASHDOT
 62
     0
100
AcDbPolyline
 90
        2
 70
     0
 43
0.0
 10
82.90690988479825
 20
291.7409487756295
 10
86.15690988479824
 20
295.1576154422962
  0
LWPOLYLINE
  5
101151F
330
1F
100
AcDbEntity
  8
P
  6
DASHDOT
 62
     0
100
AcDbPolyline
 90
        2
 70
     0
 43
0.0
 10
84.15690988479825
 20
289.2409487756295
 10
86.15690988479824
 20
291.4076154422961
  0
LWPOLYLINE
  5
1011520
330
1F
100
AcDbEntity
  8
P
  6
DASHDOT
 62
     0
100
AcDbPolyline
 90
        2
 70
     0
 43
0.0
 10
84.49024321813158
 20
286.3242821089628
 10
86.15690988479824
 20
287.9909487756295
  0
LWPOLYLINE
  5
1011521
330
1F
100
AcDbEntity
  8
P
  6
DASHDOT
 62
     0
100
AcDbPolyline
 90
        2
 70
     0
 43
0.0
 10
84.74024321813159
 20
282.9909487756295
 10
86.15690988479824
 20
284.2409487756295
  0
LWPOLYLINE
  5
1011522
330
1F
100
AcDbEntity
  8
P
  6
DASHDOT
 62
     0
100
AcDbPolyline
 90
        2
 70
     0
 43
0.0
 10
84.74024321813159
 20
279.3242821089628
 10
86.15690988479824
 20
280.8242821089629
  0
LWPOLYLINE
  5
1011523
330
1F
100
AcDbEntity
  8
P
  6
DASHDOT
 62
     0
100
AcDbPolyline
 90
        2
 70
     0
 43
0.0
 10
84.74024321813159
 20
275.5742821089628
 10
86.15690988479824
 20
277.0742821089628
  0
LWPOLYLINE
  5
1011524
330
1F
100
AcDbEntity
  8
P
  6
DASHDOT
 62
     0
100
AcDbPolyline
 90
        2
 70
     0
 43
0.0
 10
84.90690988479824
 20
272.1576154422961
 10
86.15690988479824
 20
273.4076154422961
  0
LWPOLYLINE
  5
1011525
330
1F
100
AcDbEntity
  8
P
  6
DASHED2
 62
     0
100
AcDbPolyline
 90
        4
 70
     0
 43
0.0
 10
191.8235765514649
 20
259.9076154422961
 10
113.3235765514649
 20
259.9076154422961
 10
107.0735765514649
 20
262.2409487756295
 10
87.74024321813158
 20
262.2409487756295
  0
LWPOLYLINE
  5
1011526
330
1F
100
AcDbEntity
  8
P
  6
DASHDOT
 62
     0
100
AcDbPolyline
 90
        2
 70
     0
 43
0.0
 10
83.90690988479825
 20
263.9909487756295
 10
83.99024321813158
 20
263.5742821089628
  0
LWPOLYLINE
  5
1011527
330
1F
100
AcDbEntity
  8
P
  6
DASHDOT
 62
     0
100
AcDbPolyline
 90
        2
 70
     0
 43
0.0
 10
83.90690988479825
 20
263.9909487756295
 10
83.99024321813158
 20
263.5742821089628
  0
LWPOLYLINE
  5
1011528
330
1F
100
AcDbEntity
  8
P
  6
DASHDOT
 62
     0
100
AcDbPolyline
 90
        2
 70
     0
 43
0.0
 10
83.90690988479825
 20
263.9909487756295
 10
83.90690988479825
 20
263.9909487756295
  0
LWPOLYLINE
  5
1011529
330
1F
100
AcDbEntity
  8
P
  6
DASHDOT
 62
     0
100
AcDbPolyline
 90
        2
 70
     0
 43
0.0
 10
83.99024321813158
 20
263.5742821089628
 10
84.15690988479825
 20
263.1576154422961
  0
LWPOLYLINE
  5
101152A
330
1F
100
AcDbEntity
  8
P
  6
DASHDOT
 62
     0
100
AcDbPolyline
 90
        2
 70
     0
 43
0.0
 10
83.99024321813158
 20
263.5742821089628
 10
84.15690988479825
 20
263.1576154422961
  0
LWPOLYLINE
  5
101152B
330
1F
100
AcDbEntity
  8
P
  6
DASHDOT
 62
     0
100
AcDbPolyline
 90
        2
 70
     0
 43
0.0
 10
83.99024321813158
 20
263.5742821089628
 10
83.99024321813158
 20
263.5742821089628
  0
LWPOLYLINE
  5
101152C
330
1F
100
AcDbEntity
  8
P
  6
DASHDOT
 62
     0
100
AcDbPolyline
 90
        2
 70
     0
 43
0.0
 10
84.15690988479825
 20
263.1576154422961
 10
84.40690988479826
 20
262.8242821089628
  0
LWPOLYLINE
  5
101152D
330
1F
100
AcDbEntity
  8
P
  6
DASHDOT
 62
     0
100
AcDbPolyline
 90
        2
 70
     0
 43
0.0
 10
84.15690988479825
 20
263.1576154422961
 10
84.40690988479826
 20
262.8242821089628
  0
LWPOLYLINE
  5
101152E
330
1F
100
AcDbEntity
  8
P
  6
DASHDOT
 62
     0
100
AcDbPolyline
 90
        2
 70
     0
 43
0.0
 10
84.15690988479825
 20
263.1576154422961
 10
84.15690988479825
 20
263.1576154422961
  0
LWPOLYLINE
  5
101152F
330
1F
100
AcDbEntity
  8
P
  6
DASHDOT
 62
     0
100
AcDbPolyline
 90
        2
 70
     0
 43
0.0
 10
84.40690988479826
 20
262.8242821089628
 10
84.65690988479826
 20
262.5742821089628
  0
LWPOLYLINE
  5
1011530
330
1F
100
AcDbEntity
  8
P
  6
DASHDOT
 62
     0
100
AcDbPolyline
 90
        2
 70
     0
 43
0.0
 10
84.40690988479826
 20
262.8242821089628
 10
84.65690988479826
 20
262.5742821089628
  0
LWPOLYLINE
  5
1011531
330
1F
100
AcDbEntity
  8
P
  6
DASHDOT
 62
     0
100
AcDbPolyline
 90
        2
 70
     0
 43
0.0
 10
84.40690988479826
 20
262.8242821089628
 10
84.40690988479826
 20
262.8242821089628
  0
LWPOLYLINE
  5
1011532
330
1F
100
AcDbEntity
  8
P
  6
DASHDOT
 62
     0
100
AcDbPolyline
 90
        2
 70
     0
 43
0.0
 10
84.65690988479826
 20
262.5742821089628
 10
84.99024321813157
 20
262.3242821089629
  0
LWPOLYLINE
  5
1011533
330
1F
100
AcDbEntity
  8
P
  6
DASHDOT
 62
     0
100
AcDbPolyline
 90
        2
 70
     0
 43
0.0
 10
84.65690988479826
 20
262.5742821089628
 10
84.99024321813157
 20
262.3242821089629
  0
LWPOLYLINE
  5
1011534
330
1F
100
AcDbEntity
  8
P
  6
DASHDOT
 62
     0
100
AcDbPolyline
 90
        2
 70
     0
 43
0.0
 10
84.65690988479826
 20
262.5742821089628
 10
84.65690988479826
 20
262.5742821089628
  0
LWPOLYLINE
  5
1011535
330
1F
100
AcDbEntity
  8
P
  6
DASHDOT
 62
     0
100
AcDbPolyline
 90
        2
 70
     0
 43
0.0
 10
84.99024321813157
 20
262.3242821089629
 10
85.32357655146491
 20
262.1576154422961
  0
LWPOLYLINE
  5
1011536
330
1F
100
AcDbEntity
  8
P
  6
DASHDOT
 62
     0
100
AcDbPolyline
 90
        2
 70
     0
 43
0.0
 10
84.99024321813157
 20
262.3242821089629
 10
85.32357655146491
 20
262.1576154422961
  0
LWPOLYLINE
  5
1011537
330
1F
100
AcDbEntity
  8
P
  6
DASHDOT
 62
     0
100
AcDbPolyline
 90
        2
 70
     0
 43
0.0
 10
84.99024321813157
 20
262.3242821089629
 10
84.99024321813157
 20
262.3242821089629
  0
LWPOLYLINE
  5
1011538
330
1F
100
AcDbEntity
  8
P
  6
DASHDOT
 62
     0
100
AcDbPolyline
 90
        2
 70
     0
 43
0.0
 10
85.32357655146491
 20
262.1576154422961
 10
85.74024321813158
 20
262.0742821089629
  0
LWPOLYLINE
  5
1011539
330
1F
100
AcDbEntity
  8
P
  6
DASHDOT
 62
     0
100
AcDbPolyline
 90
        2
 70
     0
 43
0.0
 10
85.32357655146491
 20
262.1576154422961
 10
85.74024321813158
 20
262.0742821089629
  0
LWPOLYLINE
  5
101153A
330
1F
100
AcDbEntity
  8
P
  6
DASHDOT
 62
     0
100
AcDbPolyline
 90
        2
 70
     0
 43
0.0
 10
85.32357655146491
 20
262.1576154422961
 10
85.32357655146491
 20
262.1576154422961
  0
LWPOLYLINE
  5
101153B
330
1F
100
AcDbEntity
  8
P
  6
DASHDOT
 62
     0
100
AcDbPolyline
 90
        2
 70
     0
 43
0.0
 10
85.74024321813158
 20
262.0742821089629
 10
85.74024321813158
 20
262.0742821089629
  0
LWPOLYLINE
  5
101153C
330
1F
100
AcDbEntity
  8
P
  6
DASHDOT
 62
     0
100
AcDbPolyline
 90
        2
 70
     0
 43
0.0
 10
81.82357655146491
 20
264.1576154422961
 10
81.90690988479826
 20
263.4076154422961
  0
LWPOLYLINE
  5
101153D
330
1F
100
AcDbEntity
  8
P
  6
DASHDOT
 62
     0
100
AcDbPolyline
 90
        2
 70
     0
 43
0.0
 10
81.82357655146491
 20
264.1576154422961
 10
81.90690988479826
 20
263.4076154422961
  0
LWPOLYLINE
  5
101153E
330
1F
100
AcDbEntity
  8
P
  6
DASHDOT
 62
     0
100
AcDbPolyline
 90
        2
 70
     0
 43
0.0
 10
81.82357655146491
 20
264.1576154422961
 10
81.82357655146491
 20
264.1576154422961
  0
LWPOLYLINE
  5
101153F
330
1F
100
AcDbEntity
  8
P
  6
DASHDOT
 62
     0
100
AcDbPolyline
 90
        2
 70
     0
 43
0.0
 10
81.90690988479826
 20
263.4076154422961
 10
82.07357655146491
 20
262.5742821089628
  0
LWPOLYLINE
  5
1011540
330
1F
100
AcDbEntity
  8
P
  6
DASHDOT
 62
     0
100
AcDbPolyline
 90
        2
 70
     0
 43
0.0
 10
81.90690988479826
 20
263.4076154422961
 10
82.07357655146491
 20
262.5742821089628
  0
LWPOLYLINE
  5
1011541
330
1F
100
AcDbEntity
  8
P
  6
DASHDOT
 62
     0
100
AcDbPolyline
 90
        2
 70
     0
 43
0.0
 10
81.90690988479826
 20
263.4076154422961
 10
81.90690988479826
 20
263.4076154422961
  0
LWPOLYLINE
  5
1011542
330
1F
100
AcDbEntity
  8
P
  6
DASHDOT
 62
     0
100
AcDbPolyline
 90
        2
 70
     0
 43
0.0
 10
82.07357655146491
 20
262.5742821089628
 10
82.40690988479824
 20
261.9076154422961
  0
LWPOLYLINE
  5
1011543
330
1F
100
AcDbEntity
  8
P
  6
DASHDOT
 62
     0
100
AcDbPolyline
 90
        2
 70
     0
 43
0.0
 10
82.07357655146491
 20
262.5742821089628
 10
82.40690988479824
 20
261.9076154422961
  0
LWPOLYLINE
  5
1011544
330
1F
100
AcDbEntity
  8
P
  6
DASHDOT
 62
     0
100
AcDbPolyline
 90
        2
 70
     0
 43
0.0
 10
82.07357655146491
 20
262.5742821089628
 10
82.07357655146491
 20
262.5742821089628
  0
LWPOLYLINE
  5
1011545
330
1F
100
AcDbEntity
  8
P
  6
DASHDOT
 62
     0
100
AcDbPolyline
 90
        2
 70
     0
 43
0.0
 10
82.40690988479824
 20
261.9076154422961
 10
82.90690988479825
 20
261.2409487756295
  0
LWPOLYLINE
  5
1011546
330
1F
100
AcDbEntity
  8
P
  6
DASHDOT
 62
     0
100
AcDbPolyline
 90
        2
 70
     0
 43
0.0
 10
82.40690988479824
 20
261.9076154422961
 10
82.90690988479825
 20
261.2409487756295
  0
LWPOLYLINE
  5
1011547
330
1F
100
AcDbEntity
  8
P
  6
DASHDOT
 62
     0
100
AcDbPolyline
 90
        2
 70
     0
 43
0.0
 10
82.40690988479824
 20
261.9076154422961
 10
82.40690988479824
 20
261.9076154422961
  0
LWPOLYLINE
  5
1011548
330
1F
100
AcDbEntity
  8
P
  6
DASHDOT
 62
     0
100
AcDbPolyline
 90
        2
 70
     0
 43
0.0
 10
82.90690988479825
 20
261.2409487756295
 10
83.49024321813159
 20
260.7409487756295
  0
LWPOLYLINE
  5
1011549
330
1F
100
AcDbEntity
  8
P
  6
DASHDOT
 62
     0
100
AcDbPolyline
 90
        2
 70
     0
 43
0.0
 10
82.90690988479825
 20
261.2409487756295
 10
83.49024321813159
 20
260.7409487756295
  0
LWPOLYLINE
  5
101154A
330
1F
100
AcDbEntity
  8
P
  6
DASHDOT
 62
     0
100
AcDbPolyline
 90
        2
 70
     0
 43
0.0
 10
82.90690988479825
 20
261.2409487756295
 10
82.90690988479825
 20
261.2409487756295
  0
LWPOLYLINE
  5
101154B
330
1F
100
AcDbEntity
  8
P
  6
DASHDOT
 62
     0
100
AcDbPolyline
 90
        2
 70
     0
 43
0.0
 10
83.49024321813159
 20
260.7409487756295
 10
84.15690988479825
 20
260.3242821089629
  0
LWPOLYLINE
  5
101154C
330
1F
100
AcDbEntity
  8
P
  6
DASHDOT
 62
     0
100
AcDbPolyline
 90
        2
 70
     0
 43
0.0
 10
83.49024321813159
 20
260.7409487756295
 10
84.15690988479825
 20
260.3242821089629
  0
LWPOLYLINE
  5
101154D
330
1F
100
AcDbEntity
  8
P
  6
DASHDOT
 62
     0
100
AcDbPolyline
 90
        2
 70
     0
 43
0.0
 10
83.49024321813159
 20
260.7409487756295
 10
83.49024321813159
 20
260.7409487756295
  0
LWPOLYLINE
  5
101154E
330
1F
100
AcDbEntity
  8
P
  6
DASHDOT
 62
     0
100
AcDbPolyline
 90
        2
 70
     0
 43
0.0
 10
84.15690988479825
 20
260.3242821089629
 10
84.90690988479824
 20
259.9909487756295
  0
LWPOLYLINE
  5
101154F
330
1F
100
AcDbEntity
  8
P
  6
DASHDOT
 62
     0
100
AcDbPolyline
 90
        2
 70
     0
 43
0.0
 10
84.15690988479825
 20
260.3242821089629
 10
84.90690988479824
 20
259.9909487756295
  0
LWPOLYLINE
  5
1011550
330
1F
100
AcDbEntity
  8
P
  6
DASHDOT
 62
     0
100
AcDbPolyline
 90
        2
 70
     0
 43
0.0
 10
84.15690988479825
 20
260.3242821089629
 10
84.15690988479825
 20
260.3242821089629
  0
LWPOLYLINE
  5
1011551
330
1F
100
AcDbEntity
  8
P
  6
DASHDOT
 62
     0
100
AcDbPolyline
 90
        2
 70
     0
 43
0.0
 10
84.90690988479824
 20
259.9909487756295
 10
85.74024321813158
 20
259.9076154422961
  0
LWPOLYLINE
  5
1011552
330
1F
100
AcDbEntity
  8
P
  6
DASHDOT
 62
     0
100
AcDbPolyline
 90
        2
 70
     0
 43
0.0
 10
84.90690988479824
 20
259.9909487756295
 10
85.74024321813158
 20
259.9076154422961
  0
LWPOLYLINE
  5
1011553
330
1F
100
AcDbEntity
  8
P
  6
DASHDOT
 62
     0
100
AcDbPolyline
 90
        2
 70
     0
 43
0.0
 10
84.90690988479824
 20
259.9909487756295
 10
84.90690988479824
 20
259.9909487756295
  0
LWPOLYLINE
  5
1011554
330
1F
100
AcDbEntity
  8
P
  6
DASHDOT
 62
     0
100
AcDbPolyline
 90
        2
 70
     0
 43
0.0
 10
85.74024321813158
 20
259.9076154422961
 10
85.74024321813158
 20
259.9076154422961
  0
LWPOLYLINE
  5
1011555
330
1F
100
AcDbEntity
  8
P
  6
DASHED2
 62
     0
100
AcDbPolyline
 90
        2
 70
     0
 43
0.0
 10
81.82357655146491
 20
268.1576154422961
 10
81.82357655146491
 20
290.9076154422961
  0
LWPOLYLINE
  5
1011556
330
1F
100
AcDbEntity
  8
P
  6
DASHED2
 62
     0
100
AcDbPolyline
 90
        4
 70
     0
 43
0.0
 10
83.99024321813158
 20
268.0742821089629
 10
83.99024321813158
 20
288.5742821089628
 10
81.82357655146491
 20
292.9909487756295
 10
81.82357655146491
 20
329.5742821089628
  0
LWPOLYLINE
  5
1011557
330
1F
100
AcDbEntity
  8
P
  6
Continuous
 62
     0
100
AcDbPolyline
 90
        2
 70
     0
 43
0.0
 10
84.57357655146491
 20
270.0742821089629
 10
86.65690988479825
 20
272.1576154422961
  0
LWPOLYLINE
  5
1011558
330
1F
100
AcDbEntity
  8
P
  6
Continuous
 62
     0
100
AcDbPolyline
 90
        2
 70
     0
 43
0.0
 10
84.57357655146491
 20
267.9076154422961
 10
87.5735765514649
 20
270.9076154422961
  0
LWPOLYLINE
  5
1011559
330
1F
100
AcDbEntity
  8
P
  6
Continuous
 62
     0
100
AcDbPolyline
 90
        2
 70
     0
 43
0.0
 10
84.57357655146491
 20
265.7409487756295
 10
88.32357655146491
 20
269.3242821089628
  0
LWPOLYLINE
  5
101155A
330
1F
100
AcDbEntity
  8
P
  6
Continuous
 62
     0
100
AcDbPolyline
 90
        2
 70
     0
 43
0.0
 10
84.65690988479826
 20
263.4076154422961
 10
89.40690988479826
 20
268.4076154422961
  0
LWPOLYLINE
  5
101155B
330
1F
100
AcDbEntity
  8
P
  6
Continuous
 62
     0
100
AcDbPolyline
 90
        2
 70
     0
 43
0.0
 10
86.07357655146492
 20
262.7409487756295
 10
90.0735765514649
 20
266.8242821089628
  0
LWPOLYLINE
  5
101155C
330
1F
100
AcDbEntity
  8
P
  6
Continuous
 62
     0
100
AcDbPolyline
 90
        2
 70
     0
 43
0.0
 10
88.40690988479826
 20
262.7409487756295
 10
90.0735765514649
 20
264.3242821089629
  0
LWPOLYLINE
  5
101155D
330
1F
100
AcDbEntity
  8
P
  6
Continuous
 62
     0
100
AcDbPolyline
 90
        2
 70
     0
 43
0.0
 10
85.74024321813158
 20
272.1576154422961
 10
87.99024321813158
 20
270.0742821089629
  0
LWPOLYLINE
  5
101155E
330
1F
100
AcDbEntity
  8
P
  6
Continuous
 62
     0
100
AcDbPolyline
 90
        2
 70
     0
 43
0.0
 10
89.65690988479826
 20
268.2409487756295
 10
90.0735765514649
 20
267.8242821089629
  0
LWPOLYLINE
  5
101155F
330
1F
100
AcDbEntity
  8
P
  6
Continuous
 62
     0
100
AcDbPolyline
 90
        2
 70
     0
 43
0.0
 10
84.57357655146491
 20
271.0742821089628
 10
90.0735765514649
 20
265.5742821089628
  0
LWPOLYLINE
  5
1011560
330
1F
100
AcDbEntity
  8
P
  6
Continuous
 62
     0
100
AcDbPolyline
 90
        2
 70
     0
 43
0.0
 10
84.57357655146491
 20
268.9076154422961
 10
90.0735765514649
 20
263.4076154422961
  0
LWPOLYLINE
  5
1011561
330
1F
100
AcDbEntity
  8
P
  6
Continuous
 62
     0
100
AcDbPolyline
 90
        2
 70
     0
 43
0.0
 10
84.49024321813158
 20
266.8242821089628
 10
88.40690988479826
 20
262.7409487756295
  0
LWPOLYLINE
  5
1011562
330
1F
100
AcDbEntity
  8
P
  6
Continuous
 62
     0
100
AcDbPolyline
 90
        2
 70
     0
 43
0.0
 10
84.49024321813158
 20
264.4909487756295
 10
86.3235765514649
 20
262.6576154422961
  0
LWPOLYLINE
  5
1011563
330
1F
100
AcDbEntity
  8
P
  6
Continuous
 62
     0
100
AcDbPolyline
 90
        2
 70
     0
 43
0.0
 10
90.0735765514649
 20
329.5742821089628
 10
90.0735765514649
 20
272.1576154422961
  0
LWPOLYLINE
  5
1011564
330
1F
100
AcDbEntity
  8
P
  6
Continuous
 62
     0
100
AcDbPolyline
 90
        2
 70
     0
 43
0.0
 10
90.0735765514649
 20
329.5742821089628
 10
90.0735765514649
 20
272.1576154422961
  0
LWPOLYLINE
  5
1011565
330
1F
100
AcDbEntity
  8
P
  6
Continuous
 62
     0
100
AcDbPolyline
 90
        2
 70
     0
 43
0.0
 10
90.0735765514649
 20
329.5742821089628
 10
90.0735765514649
 20
329.5742821089628
  0
LWPOLYLINE
  5
1011566
330
1F
100
AcDbEntity
  8
P
  6
Continuous
 62
     0
100
AcDbPolyline
 90
        2
 70
     0
 43
0.0
 10
90.0735765514649
 20
272.1576154422961
 10
90.0735765514649
 20
272.1576154422961
  0
LWPOLYLINE
  5
1011567
330
1F
100
AcDbEntity
  8
P
  6
Continuous
 62
     0
100
AcDbPolyline
 90
        2
 70
     0
 43
0.0
 10
90.0735765514649
 20
272.1576154422961
 10
86.24024321813157
 20
272.1576154422961
  0
LWPOLYLINE
  5
1011568
330
1F
100
AcDbEntity
  8
P
  6
Continuous
 62
     0
100
AcDbPolyline
 90
        2
 70
     0
 43
0.0
 10
90.0735765514649
 20
272.1576154422961
 10
86.24024321813157
 20
272.1576154422961
  0
LWPOLYLINE
  5
1011569
330
1F
100
AcDbEntity
  8
P
  6
Continuous
 62
     0
100
AcDbPolyline
 90
        2
 70
     0
 43
0.0
 10
90.0735765514649
 20
272.1576154422961
 10
90.0735765514649
 20
272.1576154422961
  0
LWPOLYLINE
  5
101156A
330
1F
100
AcDbEntity
  8
P
  6
Continuous
 62
     0
100
AcDbPolyline
 90
        2
 70
     0
 43
0.0
 10
86.24024321813157
 20
272.1576154422961
 10
86.24024321813157
 20
272.1576154422961
  0
LWPOLYLINE
  5
101156B
330
1F
100
AcDbEntity
  8
P
  6
Continuous
 62
     0
100
AcDbPolyline
 90
        2
 70
     0
 43
0.0
 10
86.24024321813157
 20
272.1576154422961
 10
86.24024321813157
 20
329.5742821089628
  0
LWPOLYLINE
  5
101156C
330
1F
100
AcDbEntity
  8
P
  6
Continuous
 62
     0
100
AcDbPolyline
 90
        2
 70
     0
 43
0.0
 10
86.24024321813157
 20
272.1576154422961
 10
86.24024321813157
 20
329.5742821089628
  0
LWPOLYLINE
  5
101156D
330
1F
100
AcDbEntity
  8
P
  6
Continuous
 62
     0
100
AcDbPolyline
 90
        2
 70
     0
 43
0.0
 10
86.24024321813157
 20
272.1576154422961
 10
86.24024321813157
 20
272.1576154422961
  0
LWPOLYLINE
  5
101156E
330
1F
100
AcDbEntity
  8
P
  6
Continuous
 62
     0
100
AcDbPolyline
 90
        2
 70
     0
 43
0.0
 10
86.24024321813157
 20
329.5742821089628
 10
86.24024321813157
 20
329.5742821089628
  0
LWPOLYLINE
  5
101156F
330
1F
100
AcDbEntity
  8
P
  6
Continuous
 62
     0
100
AcDbPolyline
 90
        2
 70
     0
 43
0.0
 10
82.24024321813159
 20
329.5742821089628
 10
82.24024321813159
 20
293.1576154422962
  0
LWPOLYLINE
  5
1011570
330
1F
100
AcDbEntity
  8
P
  6
Continuous
 62
     0
100
AcDbPolyline
 90
        2
 70
     0
 43
0.0
 10
82.24024321813159
 20
329.5742821089628
 10
82.24024321813159
 20
293.1576154422962
  0
LWPOLYLINE
  5
1011571
330
1F
100
AcDbEntity
  8
P
  6
Continuous
 62
     0
100
AcDbPolyline
 90
        2
 70
     0
 43
0.0
 10
82.24024321813159
 20
329.5742821089628
 10
82.24024321813159
 20
329.5742821089628
  0
LWPOLYLINE
  5
1011572
330
1F
100
AcDbEntity
  8
P
  6
Continuous
 62
     0
100
AcDbPolyline
 90
        2
 70
     0
 43
0.0
 10
82.24024321813159
 20
293.1576154422962
 10
82.24024321813159
 20
293.1576154422962
  0
LWPOLYLINE
  5
1011573
330
1F
100
AcDbEntity
  8
P
  6
Continuous
 62
     0
100
AcDbPolyline
 90
        2
 70
     0
 43
0.0
 10
84.49024321813158
 20
288.5742821089628
 10
84.49024321813158
 20
263.8242821089629
  0
LWPOLYLINE
  5
1011574
330
1F
100
AcDbEntity
  8
P
  6
Continuous
 62
     0
100
AcDbPolyline
 90
        2
 70
     0
 43
0.0
 10
84.49024321813158
 20
288.5742821089628
 10
84.49024321813158
 20
263.8242821089629
  0
LWPOLYLINE
  5
1011575
330
1F
100
AcDbEntity
  8
P
  6
Continuous
 62
     0
100
AcDbPolyline
 90
        2
 70
     0
 43
0.0
 10
84.49024321813158
 20
288.5742821089628
 10
84.49024321813158
 20
288.5742821089628
  0
LWPOLYLINE
  5
1011576
330
1F
100
AcDbEntity
  8
P
  6
Continuous
 62
     0
100
AcDbPolyline
 90
        2
 70
     0
 43
0.0
 10
84.49024321813158
 20
263.8242821089629
 10
84.49024321813158
 20
263.8242821089629
  0
LWPOLYLINE
  5
1011577
330
1F
100
AcDbEntity
  8
P
  6
Continuous
 62
     0
100
AcDbPolyline
 90
        2
 70
     0
 43
0.0
 10
81.24024321813157
 20
292.9909487756295
 10
83.49024321813159
 20
288.4909487756295
  0
LWPOLYLINE
  5
1011578
330
1F
100
AcDbEntity
  8
P
  6
Continuous
 62
     0
100
AcDbPolyline
 90
        2
 70
     0
 43
0.0
 10
81.24024321813157
 20
292.9909487756295
 10
83.49024321813159
 20
288.4909487756295
  0
LWPOLYLINE
  5
1011579
330
1F
100
AcDbEntity
  8
P
  6
Continuous
 62
     0
100
AcDbPolyline
 90
        2
 70
     0
 43
0.0
 10
81.24024321813157
 20
292.9909487756295
 10
81.24024321813157
 20
292.9909487756295
  0
LWPOLYLINE
  5
101157A
330
1F
100
AcDbEntity
  8
P
  6
Continuous
 62
     0
100
AcDbPolyline
 90
        2
 70
     0
 43
0.0
 10
83.49024321813159
 20
288.4909487756295
 10
83.49024321813159
 20
288.4909487756295
  0
LWPOLYLINE
  5
101157B
330
1F
100
AcDbEntity
  8
P
  6
Continuous
 62
     0
100
AcDbPolyline
 90
        2
 70
     0
 43
0.0
 10
83.49024321813159
 20
288.4909487756295
 10
83.49024321813159
 20
264.0742821089629
  0
LWPOLYLINE
  5
101157C
330
1F
100
AcDbEntity
  8
P
  6
Continuous
 62
     0
100
AcDbPolyline
 90
        2
 70
     0
 43
0.0
 10
83.49024321813159
 20
288.4909487756295
 10
83.49024321813159
 20
264.0742821089629
  0
LWPOLYLINE
  5
101157D
330
1F
100
AcDbEntity
  8
P
  6
Continuous
 62
     0
100
AcDbPolyline
 90
        2
 70
     0
 43
0.0
 10
83.49024321813159
 20
288.4909487756295
 10
83.49024321813159
 20
288.4909487756295
  0
LWPOLYLINE
  5
101157E
330
1F
100
AcDbEntity
  8
P
  6
Continuous
 62
     0
100
AcDbPolyline
 90
        2
 70
     0
 43
0.0
 10
83.49024321813159
 20
264.0742821089629
 10
83.49024321813159
 20
264.0742821089629
  0
LWPOLYLINE
  5
101157F
330
1F
100
AcDbEntity
  8
P
  6
Continuous
 62
     0
100
AcDbPolyline
 90
        2
 70
     0
 43
0.0
 10
82.24024321813159
 20
290.9076154422961
 10
82.24024321813159
 20
264.3242821089629
  0
LWPOLYLINE
  5
1011580
330
1F
100
AcDbEntity
  8
P
  6
Continuous
 62
     0
100
AcDbPolyline
 90
        2
 70
     0
 43
0.0
 10
82.24024321813159
 20
290.9076154422961
 10
82.24024321813159
 20
264.3242821089629
  0
LWPOLYLINE
  5
1011581
330
1F
100
AcDbEntity
  8
P
  6
Continuous
 62
     0
100
AcDbPolyline
 90
        2
 70
     0
 43
0.0
 10
82.24024321813159
 20
290.9076154422961
 10
82.24024321813159
 20
290.9076154422961
  0
LWPOLYLINE
  5
1011582
330
1F
100
AcDbEntity
  8
P
  6
Continuous
 62
     0
100
AcDbPolyline
 90
        2
 70
     0
 43
0.0
 10
82.24024321813159
 20
264.3242821089629
 10
82.24024321813159
 20
264.3242821089629
  0
LWPOLYLINE
  5
1011583
330
1F
100
AcDbEntity
  8
P
  6
Continuous
 62
     0
100
AcDbPolyline
 90
        2
 70
     0
 43
0.0
 10
113.3235765514649
 20
260.4909487756295
 10
191.7402432181316
 20
260.4076154422961
  0
LWPOLYLINE
  5
1011584
330
1F
100
AcDbEntity
  8
P
  6
Continuous
 62
     0
100
AcDbPolyline
 90
        2
 70
     0
 43
0.0
 10
113.3235765514649
 20
260.4909487756295
 10
191.7402432181316
 20
260.4076154422961
  0
LWPOLYLINE
  5
1011585
330
1F
100
AcDbEntity
  8
P
  6
Continuous
 62
     0
100
AcDbPolyline
 90
        2
 70
     0
 43
0.0
 10
113.3235765514649
 20
260.4909487756295
 10
113.3235765514649
 20
260.4909487756295
  0
LWPOLYLINE
  5
1011586
330
1F
100
AcDbEntity
  8
P
  6
Continuous
 62
     0
100
AcDbPolyline
 90
        2
 70
     0
 43
0.0
 10
191.7402432181316
 20
260.4076154422961
 10
191.7402432181316
 20
260.4076154422961
  0
LWPOLYLINE
  5
1011587
330
1F
100
AcDbEntity
  8
P
  6
Continuous
 62
     0
100
AcDbPolyline
 90
        2
 70
     0
 43
0.0
 10
85.82357655146491
 20
261.6576154422961
 10
106.9902432181315
 20
261.6576154422961
  0
LWPOLYLINE
  5
1011588
330
1F
100
AcDbEntity
  8
P
  6
Continuous
 62
     0
100
AcDbPolyline
 90
        2
 70
     0
 43
0.0
 10
85.82357655146491
 20
261.6576154422961
 10
106.9902432181315
 20
261.6576154422961
  0
LWPOLYLINE
  5
1011589
330
1F
100
AcDbEntity
  8
P
  6
Continuous
 62
     0
100
AcDbPolyline
 90
        2
 70
     0
 43
0.0
 10
85.82357655146491
 20
261.6576154422961
 10
85.82357655146491
 20
261.6576154422961
  0
LWPOLYLINE
  5
101158A
330
1F
100
AcDbEntity
  8
P
  6
Continuous
 62
     0
100
AcDbPolyline
 90
        2
 70
     0
 43
0.0
 10
106.9902432181315
 20
261.6576154422961
 10
106.9902432181315
 20
261.6576154422961
  0
LWPOLYLINE
  5
101158B
330
1F
100
AcDbEntity
  8
P
  6
Continuous
 62
     0
100
AcDbPolyline
 90
        2
 70
     0
 43
0.0
 10
85.65690988479826
 20
262.6576154422961
 10
107.3235765514649
 20
262.7409487756295
  0
LWPOLYLINE
  5
101158C
330
1F
100
AcDbEntity
  8
P
  6
Continuous
 62
     0
100
AcDbPolyline
 90
        2
 70
     0
 43
0.0
 10
106.9902432181315
 20
261.6576154422961
 10
113.1569098847982
 20
259.4076154422961
  0
LWPOLYLINE
  5
101158D
330
1F
100
AcDbEntity
  8
P
  6
Continuous
 62
     0
100
AcDbPolyline
 90
        2
 70
     0
 43
0.0
 10
106.9902432181315
 20
261.6576154422961
 10
113.1569098847982
 20
259.4076154422961
  0
LWPOLYLINE
  5
101158E
330
1F
100
AcDbEntity
  8
P
  6
Continuous
 62
     0
100
AcDbPolyline
 90
        2
 70
     0
 43
0.0
 10
106.9902432181315
 20
261.6576154422961
 10
106.9902432181315
 20
261.6576154422961
  0
LWPOLYLINE
  5
101158F
330
1F
100
AcDbEntity
  8
P
  6
Continuous
 62
     0
100
AcDbPolyline
 90
        2
 70
     0
 43
0.0
 10
113.1569098847982
 20
259.4076154422961
 10
113.1569098847982
 20
259.4076154422961
  0
LWPOLYLINE
  5
1011590
330
1F
100
AcDbEntity
  8
P
  6
Continuous
 62
     0
100
AcDbPolyline
 90
        2
 70
     0
 43
0.0
 10
90.0735765514649
 20
268.0742821089629
 10
155.4069098847982
 20
268.0742821089629
  0
LWPOLYLINE
  5
1011591
330
1F
100
AcDbEntity
  8
P
  6
Continuous
 62
     0
100
AcDbPolyline
 90
        2
 70
     0
 43
0.0
 10
90.0735765514649
 20
268.0742821089629
 10
155.4069098847982
 20
268.0742821089629
  0
LWPOLYLINE
  5
1011592
330
1F
100
AcDbEntity
  8
P
  6
Continuous
 62
     0
100
AcDbPolyline
 90
        2
 70
     0
 43
0.0
 10
90.0735765514649
 20
268.0742821089629
 10
90.0735765514649
 20
268.0742821089629
  0
LWPOLYLINE
  5
1011593
330
1F
100
AcDbEntity
  8
P
  6
Continuous
 62
     0
100
AcDbPolyline
 90
        2
 70
     0
 43
0.0
 10
155.4069098847982
 20
268.0742821089629
 10
155.4069098847982
 20
268.0742821089629
  0
LWPOLYLINE
  5
1011594
330
1F
100
AcDbEntity
  8
P
  6
Continuous
 62
     0
100
AcDbPolyline
 90
        2
 70
     0
 43
0.0
 10
158.4902432181316
 20
268.0742821089629
 10
191.8235765514649
 20
268.0742821089629
  0
LWPOLYLINE
  5
1011595
330
1F
100
AcDbEntity
  8
P
  6
Continuous
 62
     0
100
AcDbPolyline
 90
        2
 70
     0
 43
0.0
 10
158.4902432181316
 20
268.0742821089629
 10
191.8235765514649
 20
268.0742821089629
  0
LWPOLYLINE
  5
1011596
330
1F
100
AcDbEntity
  8
P
  6
Continuous
 62
     0
100
AcDbPolyline
 90
        2
 70
     0
 43
0.0
 10
158.4902432181316
 20
268.0742821089629
 10
158.4902432181316
 20
268.0742821089629
  0
LWPOLYLINE
  5
1011597
330
1F
100
AcDbEntity
  8
P
  6
Continuous
 62
     0
100
AcDbPolyline
 90
        2
 70
     0
 43
0.0
 10
191.8235765514649
 20
268.0742821089629
 10
191.8235765514649
 20
268.0742821089629
  0
LWPOLYLINE
  5
1011598
330
1F
100
AcDbEntity
  8
P
  6
Continuous
 62
     0
100
AcDbPolyline
 90
        2
 70
     0
 43
0.0
 10
90.0735765514649
 20
268.0742821089629
 10
90.0735765514649
 20
262.7409487756295
  0
LWPOLYLINE
  5
1011599
330
1F
100
AcDbEntity
  8
P
  6
Continuous
 62
     0
100
AcDbPolyline
 90
        2
 70
     0
 43
0.0
 10
90.0735765514649
 20
268.0742821089629
 10
90.0735765514649
 20
262.7409487756295
  0
LWPOLYLINE
  5
101159A
330
1F
100
AcDbEntity
  8
P
  6
Continuous
 62
     0
100
AcDbPolyline
 90
        2
 70
     0
 43
0.0
 10
90.0735765514649
 20
268.0742821089629
 10
90.0735765514649
 20
268.0742821089629
  0
LWPOLYLINE
  5
101159B
330
1F
100
AcDbEntity
  8
P
  6
Continuous
 62
     0
100
AcDbPolyline
 90
        2
 70
     0
 43
0.0
 10
90.0735765514649
 20
262.7409487756295
 10
90.0735765514649
 20
262.7409487756295
  0
LWPOLYLINE
  5
101159C
330
1F
100
AcDbEntity
  8
P
  6
Continuous
 62
     0
100
AcDbPolyline
 90
        2
 70
     0
 43
0.0
 10
82.24024321813159
 20
264.4076154422961
 10
82.32357655146492
 20
263.7409487756295
  0
LWPOLYLINE
  5
101159D
330
1F
100
AcDbEntity
  8
P
  6
Continuous
 62
     0
100
AcDbPolyline
 90
        2
 70
     0
 43
0.0
 10
82.24024321813159
 20
264.4076154422961
 10
82.32357655146492
 20
263.7409487756295
  0
LWPOLYLINE
  5
101159E
330
1F
100
AcDbEntity
  8
P
  6
Continuous
 62
     0
100
AcDbPolyline
 90
        2
 70
     0
 43
0.0
 10
82.24024321813159
 20
264.4076154422961
 10
82.24024321813159
 20
264.4076154422961
  0
LWPOLYLINE
  5
101159F
330
1F
100
AcDbEntity
  8
P
  6
Continuous
 62
     0
100
AcDbPolyline
 90
        2
 70
     0
 43
0.0
 10
82.32357655146492
 20
263.7409487756295
 10
82.40690988479824
 20
262.9909487756295
  0
LWPOLYLINE
  5
10115A0
330
1F
100
AcDbEntity
  8
P
  6
Continuous
 62
     0
100
AcDbPolyline
 90
        2
 70
     0
 43
0.0
 10
82.32357655146492
 20
263.7409487756295
 10
82.40690988479824
 20
262.9909487756295
  0
LWPOLYLINE
  5
10115A1
330
1F
100
AcDbEntity
  8
P
  6
Continuous
 62
     0
100
AcDbPolyline
 90
        2
 70
     0
 43
0.0
 10
82.32357655146492
 20
263.7409487756295
 10
82.32357655146492
 20
263.7409487756295
  0
LWPOLYLINE
  5
10115A2
330
1F
100
AcDbEntity
  8
P
  6
Continuous
 62
     0
100
AcDbPolyline
 90
        2
 70
     0
 43
0.0
 10
82.40690988479824
 20
262.9909487756295
 10
82.74024321813158
 20
262.4076154422961
  0
LWPOLYLINE
  5
10115A3
330
1F
100
AcDbEntity
  8
P
  6
Continuous
 62
     0
100
AcDbPolyline
 90
        2
 70
     0
 43
0.0
 10
82.40690988479824
 20
262.9909487756295
 10
82.74024321813158
 20
262.4076154422961
  0
LWPOLYLINE
  5
10115A4
330
1F
100
AcDbEntity
  8
P
  6
Continuous
 62
     0
100
AcDbPolyline
 90
        2
 70
     0
 43
0.0
 10
82.40690988479824
 20
262.9909487756295
 10
82.40690988479824
 20
262.9909487756295
  0
LWPOLYLINE
  5
10115A5
330
1F
100
AcDbEntity
  8
P
  6
Continuous
 62
     0
100
AcDbPolyline
 90
        2
 70
     0
 43
0.0
 10
82.74024321813158
 20
262.4076154422961
 10
83.07357655146491
 20
261.8242821089629
  0
LWPOLYLINE
  5
10115A6
330
1F
100
AcDbEntity
  8
P
  6
Continuous
 62
     0
100
AcDbPolyline
 90
        2
 70
     0
 43
0.0
 10
82.74024321813158
 20
262.4076154422961
 10
83.07357655146491
 20
261.8242821089629
  0
LWPOLYLINE
  5
10115A7
330
1F
100
AcDbEntity
  8
P
  6
Continuous
 62
     0
100
AcDbPolyline
 90
        2
 70
     0
 43
0.0
 10
82.74024321813158
 20
262.4076154422961
 10
82.74024321813158
 20
262.4076154422961
  0
LWPOLYLINE
  5
10115A8
330
1F
100
AcDbEntity
  8
P
  6
Continuous
 62
     0
100
AcDbPolyline
 90
        2
 70
     0
 43
0.0
 10
83.07357655146491
 20
261.8242821089629
 10
83.57357655146492
 20
261.3242821089628
  0
LWPOLYLINE
  5
10115A9
330
1F
100
AcDbEntity
  8
P
  6
Continuous
 62
     0
100
AcDbPolyline
 90
        2
 70
     0
 43
0.0
 10
83.07357655146491
 20
261.8242821089629
 10
83.57357655146492
 20
261.3242821089628
  0
LWPOLYLINE
  5
10115AA
330
1F
100
AcDbEntity
  8
P
  6
Continuous
 62
     0
100
AcDbPolyline
 90
        2
 70
     0
 43
0.0
 10
83.07357655146491
 20
261.8242821089629
 10
83.07357655146491
 20
261.8242821089629
  0
LWPOLYLINE
  5
10115AB
330
1F
100
AcDbEntity
  8
P
  6
Continuous
 62
     0
100
AcDbPolyline
 90
        2
 70
     0
 43
0.0
 10
83.57357655146492
 20
261.3242821089628
 10
84.15690988479825
 20
260.9076154422961
  0
LWPOLYLINE
  5
10115AC
330
1F
100
AcDbEntity
  8
P
  6
Continuous
 62
     0
100
AcDbPolyline
 90
        2
 70
     0
 43
0.0
 10
83.57357655146492
 20
261.3242821089628
 10
84.15690988479825
 20
260.9076154422961
  0
LWPOLYLINE
  5
10115AD
330
1F
100
AcDbEntity
  8
P
  6
Continuous
 62
     0
100
AcDbPolyline
 90
        2
 70
     0
 43
0.0
 10
83.57357655146492
 20
261.3242821089628
 10
83.57357655146492
 20
261.3242821089628
  0
LWPOLYLINE
  5
10115AE
330
1F
100
AcDbEntity
  8
P
  6
Continuous
 62
     0
100
AcDbPolyline
 90
        2
 70
     0
 43
0.0
 10
84.15690988479825
 20
260.9076154422961
 10
84.82357655146492
 20
260.6576154422961
  0
LWPOLYLINE
  5
10115AF
330
1F
100
AcDbEntity
  8
P
  6
Continuous
 62
     0
100
AcDbPolyline
 90
        2
 70
     0
 43
0.0
 10
84.15690988479825
 20
260.9076154422961
 10
84.82357655146492
 20
260.6576154422961
  0
LWPOLYLINE
  5
10115B0
330
1F
100
AcDbEntity
  8
P
  6
Continuous
 62
     0
100
AcDbPolyline
 90
        2
 70
     0
 43
0.0
 10
84.15690988479825
 20
260.9076154422961
 10
84.15690988479825
 20
260.9076154422961
  0
LWPOLYLINE
  5
10115B1
330
1F
100
AcDbEntity
  8
P
  6
Continuous
 62
     0
100
AcDbPolyline
 90
        2
 70
     0
 43
0.0
 10
84.82357655146492
 20
260.6576154422961
 10
85.49024321813158
 20
260.4909487756295
  0
LWPOLYLINE
  5
10115B2
330
1F
100
AcDbEntity
  8
P
  6
Continuous
 62
     0
100
AcDbPolyline
 90
        2
 70
     0
 43
0.0
 10
84.82357655146492
 20
260.6576154422961
 10
85.49024321813158
 20
260.4909487756295
  0
LWPOLYLINE
  5
10115B3
330
1F
100
AcDbEntity
  8
P
  6
Continuous
 62
     0
100
AcDbPolyline
 90
        2
 70
     0
 43
0.0
 10
84.82357655146492
 20
260.6576154422961
 10
84.82357655146492
 20
260.6576154422961
  0
LWPOLYLINE
  5
10115B4
330
1F
100
AcDbEntity
  8
P
  6
Continuous
 62
     0
100
AcDbPolyline
 90
        2
 70
     0
 43
0.0
 10
85.49024321813158
 20
260.4909487756295
 10
86.24024321813157
 20
260.4909487756295
  0
LWPOLYLINE
  5
10115B5
330
1F
100
AcDbEntity
  8
P
  6
Continuous
 62
     0
100
AcDbPolyline
 90
        2
 70
     0
 43
0.0
 10
85.49024321813158
 20
260.4909487756295
 10
86.24024321813157
 20
260.4909487756295
  0
LWPOLYLINE
  5
10115B6
330
1F
100
AcDbEntity
  8
P
  6
Continuous
 62
     0
100
AcDbPolyline
 90
        2
 70
     0
 43
0.0
 10
85.49024321813158
 20
260.4909487756295
 10
85.49024321813158
 20
260.4909487756295
  0
LWPOLYLINE
  5
10115B7
330
1F
100
AcDbEntity
  8
P
  6
Continuous
 62
     0
100
AcDbPolyline
 90
        2
 70
     0
 43
0.0
 10
86.24024321813157
 20
260.4909487756295
 10
86.24024321813157
 20
260.4909487756295
  0
LWPOLYLINE
  5
10115B8
330
1F
100
AcDbEntity
  8
P
  6
Continuous
 62
     0
100
AcDbPolyline
 90
        2
 70
     0
 43
0.0
 10
83.49024321813159
 20
264.0742821089629
 10
83.49024321813159
 20
263.6576154422961
  0
LWPOLYLINE
  5
10115B9
330
1F
100
AcDbEntity
  8
P
  6
Continuous
 62
     0
100
AcDbPolyline
 90
        2
 70
     0
 43
0.0
 10
83.49024321813159
 20
264.0742821089629
 10
83.49024321813159
 20
263.6576154422961
  0
LWPOLYLINE
  5
10115BA
330
1F
100
AcDbEntity
  8
P
  6
Continuous
 62
     0
100
AcDbPolyline
 90
        2
 70
     0
 43
0.0
 10
83.49024321813159
 20
264.0742821089629
 10
83.49024321813159
 20
264.0742821089629
  0
LWPOLYLINE
  5
10115BB
330
1F
100
AcDbEntity
  8
P
  6
Continuous
 62
     0
100
AcDbPolyline
 90
        2
 70
     0
 43
0.0
 10
83.49024321813159
 20
263.6576154422961
 10
83.65690988479824
 20
263.2409487756295
  0
LWPOLYLINE
  5
10115BC
330
1F
100
AcDbEntity
  8
P
  6
Continuous
 62
     0
100
AcDbPolyline
 90
        2
 70
     0
 43
0.0
 10
83.49024321813159
 20
263.6576154422961
 10
83.65690988479824
 20
263.2409487756295
  0
LWPOLYLINE
  5
10115BD
330
1F
100
AcDbEntity
  8
P
  6
Continuous
 62
     0
100
AcDbPolyline
 90
        2
 70
     0
 43
0.0
 10
83.49024321813159
 20
263.6576154422961
 10
83.49024321813159
 20
263.6576154422961
  0
LWPOLYLINE
  5
10115BE
330
1F
100
AcDbEntity
  8
P
  6
Continuous
 62
     0
100
AcDbPolyline
 90
        2
 70
     0
 43
0.0
 10
83.65690988479824
 20
263.2409487756295
 10
83.8235765514649
 20
262.8242821089628
  0
LWPOLYLINE
  5
10115BF
330
1F
100
AcDbEntity
  8
P
  6
Continuous
 62
     0
100
AcDbPolyline
 90
        2
 70
     0
 43
0.0
 10
83.65690988479824
 20
263.2409487756295
 10
83.8235765514649
 20
262.8242821089628
  0
LWPOLYLINE
  5
10115C0
330
1F
100
AcDbEntity
  8
P
  6
Continuous
 62
     0
100
AcDbPolyline
 90
        2
 70
     0
 43
0.0
 10
83.65690988479824
 20
263.2409487756295
 10
83.65690988479824
 20
263.2409487756295
  0
LWPOLYLINE
  5
10115C1
330
1F
100
AcDbEntity
  8
P
  6
Continuous
 62
     0
100
AcDbPolyline
 90
        2
 70
     0
 43
0.0
 10
83.8235765514649
 20
262.8242821089628
 10
84.15690988479825
 20
262.4076154422961
  0
LWPOLYLINE
  5
10115C2
330
1F
100
AcDbEntity
  8
P
  6
Continuous
 62
     0
100
AcDbPolyline
 90
        2
 70
     0
 43
0.0
 10
83.8235765514649
 20
262.8242821089628
 10
84.15690988479825
 20
262.4076154422961
  0
LWPOLYLINE
  5
10115C3
330
1F
100
AcDbEntity
  8
P
  6
Continuous
 62
     0
100
AcDbPolyline
 90
        2
 70
     0
 43
0.0
 10
83.8235765514649
 20
262.8242821089628
 10
83.8235765514649
 20
262.8242821089628
  0
LWPOLYLINE
  5
10115C4
330
1F
100
AcDbEntity
  8
P
  6
Continuous
 62
     0
100
AcDbPolyline
 90
        2
 70
     0
 43
0.0
 10
84.15690988479825
 20
262.4076154422961
 10
84.49024321813158
 20
262.0742821089629
  0
LWPOLYLINE
  5
10115C5
330
1F
100
AcDbEntity
  8
P
  6
Continuous
 62
     0
100
AcDbPolyline
 90
        2
 70
     0
 43
0.0
 10
84.15690988479825
 20
262.4076154422961
 10
84.49024321813158
 20
262.0742821089629
  0
LWPOLYLINE
  5
10115C6
330
1F
100
AcDbEntity
  8
P
  6
Continuous
 62
     0
100
AcDbPolyline
 90
        2
 70
     0
 43
0.0
 10
84.15690988479825
 20
262.4076154422961
 10
84.15690988479825
 20
262.4076154422961
  0
LWPOLYLINE
  5
10115C7
330
1F
100
AcDbEntity
  8
P
  6
Continuous
 62
     0
100
AcDbPolyline
 90
        2
 70
     0
 43
0.0
 10
84.49024321813158
 20
262.0742821089629
 10
84.90690988479824
 20
261.9076154422961
  0
LWPOLYLINE
  5
10115C8
330
1F
100
AcDbEntity
  8
P
  6
Continuous
 62
     0
100
AcDbPolyline
 90
        2
 70
     0
 43
0.0
 10
84.49024321813158
 20
262.0742821089629
 10
84.90690988479824
 20
261.9076154422961
  0
LWPOLYLINE
  5
10115C9
330
1F
100
AcDbEntity
  8
P
  6
Continuous
 62
     0
100
AcDbPolyline
 90
        2
 70
     0
 43
0.0
 10
84.49024321813158
 20
262.0742821089629
 10
84.49024321813158
 20
262.0742821089629
  0
LWPOLYLINE
  5
10115CA
330
1F
100
AcDbEntity
  8
P
  6
Continuous
 62
     0
100
AcDbPolyline
 90
        2
 70
     0
 43
0.0
 10
84.90690988479824
 20
261.9076154422961
 10
85.32357655146491
 20
261.7409487756295
  0
LWPOLYLINE
  5
10115CB
330
1F
100
AcDbEntity
  8
P
  6
Continuous
 62
     0
100
AcDbPolyline
 90
        2
 70
     0
 43
0.0
 10
84.90690988479824
 20
261.9076154422961
 10
85.32357655146491
 20
261.7409487756295
  0
LWPOLYLINE
  5
10115CC
330
1F
100
AcDbEntity
  8
P
  6
Continuous
 62
     0
100
AcDbPolyline
 90
        2
 70
     0
 43
0.0
 10
84.90690988479824
 20
261.9076154422961
 10
84.90690988479824
 20
261.9076154422961
  0
LWPOLYLINE
  5
10115CD
330
1F
100
AcDbEntity
  8
P
  6
Continuous
 62
     0
100
AcDbPolyline
 90
        2
 70
     0
 43
0.0
 10
85.32357655146491
 20
261.7409487756295
 10
85.74024321813158
 20
261.6576154422961
  0
LWPOLYLINE
  5
10115CE
330
1F
100
AcDbEntity
  8
P
  6
Continuous
 62
     0
100
AcDbPolyline
 90
        2
 70
     0
 43
0.0
 10
85.32357655146491
 20
261.7409487756295
 10
85.74024321813158
 20
261.6576154422961
  0
LWPOLYLINE
  5
10115CF
330
1F
100
AcDbEntity
  8
P
  6
Continuous
 62
     0
100
AcDbPolyline
 90
        2
 70
     0
 43
0.0
 10
85.32357655146491
 20
261.7409487756295
 10
85.32357655146491
 20
261.7409487756295
  0
LWPOLYLINE
  5
10115D0
330
1F
100
AcDbEntity
  8
P
  6
Continuous
 62
     0
100
AcDbPolyline
 90
        2
 70
     0
 43
0.0
 10
85.74024321813158
 20
261.6576154422961
 10
85.74024321813158
 20
261.6576154422961
  0
LWPOLYLINE
  5
10115D1
330
1F
100
AcDbEntity
  8
P
  6
Continuous
 62
     0
100
AcDbPolyline
 90
        2
 70
     0
 43
0.0
 10
84.49024321813158
 20
263.8242821089629
 10
84.57357655146491
 20
263.5742821089628
  0
LWPOLYLINE
  5
10115D2
330
1F
100
AcDbEntity
  8
P
  6
Continuous
 62
     0
100
AcDbPolyline
 90
        2
 70
     0
 43
0.0
 10
84.49024321813158
 20
263.8242821089629
 10
84.57357655146491
 20
263.5742821089628
  0
LWPOLYLINE
  5
10115D3
330
1F
100
AcDbEntity
  8
P
  6
Continuous
 62
     0
100
AcDbPolyline
 90
        2
 70
     0
 43
0.0
 10
84.49024321813158
 20
263.8242821089629
 10
84.49024321813158
 20
263.8242821089629
  0
LWPOLYLINE
  5
10115D4
330
1F
100
AcDbEntity
  8
P
  6
Continuous
 62
     0
100
AcDbPolyline
 90
        2
 70
     0
 43
0.0
 10
84.57357655146491
 20
263.5742821089628
 10
84.65690988479826
 20
263.4076154422961
  0
LWPOLYLINE
  5
10115D5
330
1F
100
AcDbEntity
  8
P
  6
Continuous
 62
     0
100
AcDbPolyline
 90
        2
 70
     0
 43
0.0
 10
84.57357655146491
 20
263.5742821089628
 10
84.65690988479826
 20
263.4076154422961
  0
LWPOLYLINE
  5
10115D6
330
1F
100
AcDbEntity
  8
P
  6
Continuous
 62
     0
100
AcDbPolyline
 90
        2
 70
     0
 43
0.0
 10
84.57357655146491
 20
263.5742821089628
 10
84.57357655146491
 20
263.5742821089628
  0
LWPOLYLINE
  5
10115D7
330
1F
100
AcDbEntity
  8
P
  6
Continuous
 62
     0
100
AcDbPolyline
 90
        2
 70
     0
 43
0.0
 10
84.65690988479826
 20
263.4076154422961
 10
84.74024321813159
 20
263.2409487756295
  0
LWPOLYLINE
  5
10115D8
330
1F
100
AcDbEntity
  8
P
  6
Continuous
 62
     0
100
AcDbPolyline
 90
        2
 70
     0
 43
0.0
 10
84.65690988479826
 20
263.4076154422961
 10
84.74024321813159
 20
263.2409487756295
  0
LWPOLYLINE
  5
10115D9
330
1F
100
AcDbEntity
  8
P
  6
Continuous
 62
     0
100
AcDbPolyline
 90
        2
 70
     0
 43
0.0
 10
84.65690988479826
 20
263.4076154422961
 10
84.65690988479826
 20
263.4076154422961
  0
LWPOLYLINE
  5
10115DA
330
1F
100
AcDbEntity
  8
P
  6
Continuous
 62
     0
100
AcDbPolyline
 90
        2
 70
     0
 43
0.0
 10
84.74024321813159
 20
263.2409487756295
 10
84.90690988479824
 20
263.0742821089628
  0
LWPOLYLINE
  5
10115DB
330
1F
100
AcDbEntity
  8
P
  6
Continuous
 62
     0
100
AcDbPolyline
 90
        2
 70
     0
 43
0.0
 10
84.74024321813159
 20
263.2409487756295
 10
84.90690988479824
 20
263.0742821089628
  0
LWPOLYLINE
  5
10115DC
330
1F
100
AcDbEntity
  8
P
  6
Continuous
 62
     0
100
AcDbPolyline
 90
        2
 70
     0
 43
0.0
 10
84.74024321813159
 20
263.2409487756295
 10
84.74024321813159
 20
263.2409487756295
  0
LWPOLYLINE
  5
10115DD
330
1F
100
AcDbEntity
  8
P
  6
Continuous
 62
     0
100
AcDbPolyline
 90
        2
 70
     0
 43
0.0
 10
84.90690988479824
 20
263.0742821089628
 10
85.0735765514649
 20
262.9076154422961
  0
LWPOLYLINE
  5
10115DE
330
1F
100
AcDbEntity
  8
P
  6
Continuous
 62
     0
100
AcDbPolyline
 90
        2
 70
     0
 43
0.0
 10
84.90690988479824
 20
263.0742821089628
 10
85.0735765514649
 20
262.9076154422961
  0
LWPOLYLINE
  5
10115DF
330
1F
100
AcDbEntity
  8
P
  6
Continuous
 62
     0
100
AcDbPolyline
 90
        2
 70
     0
 43
0.0
 10
84.90690988479824
 20
263.0742821089628
 10
84.90690988479824
 20
263.0742821089628
  0
LWPOLYLINE
  5
10115E0
330
1F
100
AcDbEntity
  8
P
  6
Continuous
 62
     0
100
AcDbPolyline
 90
        2
 70
     0
 43
0.0
 10
85.0735765514649
 20
262.9076154422961
 10
85.24024321813158
 20
262.8242821089628
  0
LWPOLYLINE
  5
10115E1
330
1F
100
AcDbEntity
  8
P
  6
Continuous
 62
     0
100
AcDbPolyline
 90
        2
 70
     0
 43
0.0
 10
85.0735765514649
 20
262.9076154422961
 10
85.24024321813158
 20
262.8242821089628
  0
LWPOLYLINE
  5
10115E2
330
1F
100
AcDbEntity
  8
P
  6
Continuous
 62
     0
100
AcDbPolyline
 90
        2
 70
     0
 43
0.0
 10
85.0735765514649
 20
262.9076154422961
 10
85.0735765514649
 20
262.9076154422961
  0
LWPOLYLINE
  5
10115E3
330
1F
100
AcDbEntity
  8
P
  6
Continuous
 62
     0
100
AcDbPolyline
 90
        2
 70
     0
 43
0.0
 10
85.24024321813158
 20
262.8242821089628
 10
85.49024321813158
 20
262.7409487756295
  0
LWPOLYLINE
  5
10115E4
330
1F
100
AcDbEntity
  8
P
  6
Continuous
 62
     0
100
AcDbPolyline
 90
        2
 70
     0
 43
0.0
 10
85.24024321813158
 20
262.8242821089628
 10
85.49024321813158
 20
262.7409487756295
  0
LWPOLYLINE
  5
10115E5
330
1F
100
AcDbEntity
  8
P
  6
Continuous
 62
     0
100
AcDbPolyline
 90
        2
 70
     0
 43
0.0
 10
85.24024321813158
 20
262.8242821089628
 10
85.24024321813158
 20
262.8242821089628
  0
LWPOLYLINE
  5
10115E6
330
1F
100
AcDbEntity
  8
P
  6
Continuous
 62
     0
100
AcDbPolyline
 90
        2
 70
     0
 43
0.0
 10
85.49024321813158
 20
262.7409487756295
 10
85.65690988479826
 20
262.6576154422961
  0
LWPOLYLINE
  5
10115E7
330
1F
100
AcDbEntity
  8
P
  6
Continuous
 62
     0
100
AcDbPolyline
 90
        2
 70
     0
 43
0.0
 10
85.49024321813158
 20
262.7409487756295
 10
85.65690988479826
 20
262.6576154422961
  0
LWPOLYLINE
  5
10115E8
330
1F
100
AcDbEntity
  8
P
  6
Continuous
 62
     0
100
AcDbPolyline
 90
        2
 70
     0
 43
0.0
 10
85.49024321813158
 20
262.7409487756295
 10
85.49024321813158
 20
262.7409487756295
  0
LWPOLYLINE
  5
10115E9
330
1F
100
AcDbEntity
  8
P
  6
Continuous
 62
     0
100
AcDbPolyline
 90
        2
 70
     0
 43
0.0
 10
85.65690988479826
 20
262.6576154422961
 10
85.65690988479826
 20
262.6576154422961
  0
LWPOLYLINE
  5
10115EA
330
1F
100
AcDbEntity
  8
P
  6
Continuous
 62
     0
100
AcDbPolyline
 90
        2
 70
     0
 43
0.0
 10
86.24024321813157
 20
272.1576154422961
 10
84.49024321813158
 20
272.1576154422961
  0
LWPOLYLINE
  5
10115EB
330
1F
100
AcDbEntity
  8
P
  6
Continuous
 62
     0
100
AcDbPolyline
 90
        2
 70
     0
 43
0.0
 10
86.24024321813157
 20
272.1576154422961
 10
84.49024321813158
 20
272.1576154422961
  0
LWPOLYLINE
  5
10115EC
330
1F
100
AcDbEntity
  8
P
  6
Continuous
 62
     0
100
AcDbPolyline
 90
        2
 70
     0
 43
0.0
 10
86.24024321813157
 20
272.1576154422961
 10
86.24024321813157
 20
272.1576154422961
  0
LWPOLYLINE
  5
10115ED
330
1F
100
AcDbEntity
  8
P
  6
Continuous
 62
     0
100
AcDbPolyline
 90
        2
 70
     0
 43
0.0
 10
84.49024321813158
 20
272.1576154422961
 10
84.49024321813158
 20
272.1576154422961
  0
LWPOLYLINE
  5
10115EE
330
1F
100
AcDbEntity
  8
P
  6
Continuous
 62
     0
100
AcDbPolyline
 90
        2
 70
     0
 43
0.0
 10
87.40690988479824
 20
272.1576154422961
 10
87.49024321813157
 20
271.3242821089628
  0
LWPOLYLINE
  5
10115EF
330
1F
100
AcDbEntity
  8
P
  6
Continuous
 62
     0
100
AcDbPolyline
 90
        2
 70
     0
 43
0.0
 10
87.40690988479824
 20
272.1576154422961
 10
87.49024321813157
 20
271.3242821089628
  0
LWPOLYLINE
  5
10115F0
330
1F
100
AcDbEntity
  8
P
  6
Continuous
 62
     0
100
AcDbPolyline
 90
        2
 70
     0
 43
0.0
 10
87.40690988479824
 20
272.1576154422961
 10
87.40690988479824
 20
272.1576154422961
  0
LWPOLYLINE
  5
10115F1
330
1F
100
AcDbEntity
  8
P
  6
Continuous
 62
     0
100
AcDbPolyline
 90
        2
 70
     0
 43
0.0
 10
87.49024321813157
 20
271.3242821089628
 10
87.74024321813158
 20
270.4909487756295
  0
LWPOLYLINE
  5
10115F2
330
1F
100
AcDbEntity
  8
P
  6
Continuous
 62
     0
100
AcDbPolyline
 90
        2
 70
     0
 43
0.0
 10
87.49024321813157
 20
271.3242821089628
 10
87.74024321813158
 20
270.4909487756295
  0
LWPOLYLINE
  5
10115F3
330
1F
100
AcDbEntity
  8
P
  6
Continuous
 62
     0
100
AcDbPolyline
 90
        2
 70
     0
 43
0.0
 10
87.49024321813157
 20
271.3242821089628
 10
87.49024321813157
 20
271.3242821089628
  0
LWPOLYLINE
  5
10115F4
330
1F
100
AcDbEntity
  8
P
  6
Continuous
 62
     0
100
AcDbPolyline
 90
        2
 70
     0
 43
0.0
 10
87.74024321813158
 20
270.4909487756295
 10
88.15690988479826
 20
269.7409487756295
  0
LWPOLYLINE
  5
10115F5
330
1F
100
AcDbEntity
  8
P
  6
Continuous
 62
     0
100
AcDbPolyline
 90
        2
 70
     0
 43
0.0
 10
87.74024321813158
 20
270.4909487756295
 10
88.15690988479826
 20
269.7409487756295
  0
LWPOLYLINE
  5
10115F6
330
1F
100
AcDbEntity
  8
P
  6
Continuous
 62
     0
100
AcDbPolyline
 90
        2
 70
     0
 43
0.0
 10
87.74024321813158
 20
270.4909487756295
 10
87.74024321813158
 20
270.4909487756295
  0
LWPOLYLINE
  5
10115F7
330
1F
100
AcDbEntity
  8
P
  6
Continuous
 62
     0
100
AcDbPolyline
 90
        2
 70
     0
 43
0.0
 10
88.15690988479826
 20
269.7409487756295
 10
88.74024321813157
 20
269.0742821089628
  0
LWPOLYLINE
  5
10115F8
330
1F
100
AcDbEntity
  8
P
  6
Continuous
 62
     0
100
AcDbPolyline
 90
        2
 70
     0
 43
0.0
 10
88.15690988479826
 20
269.7409487756295
 10
88.74024321813157
 20
269.0742821089628
  0
LWPOLYLINE
  5
10115F9
330
1F
100
AcDbEntity
  8
P
  6
Continuous
 62
     0
100
AcDbPolyline
 90
        2
 70
     0
 43
0.0
 10
88.15690988479826
 20
269.7409487756295
 10
88.15690988479826
 20
269.7409487756295
  0
LWPOLYLINE
  5
10115FA
330
1F
100
AcDbEntity
  8
P
  6
Continuous
 62
     0
100
AcDbPolyline
 90
        2
 70
     0
 43
0.0
 10
88.74024321813157
 20
269.0742821089628
 10
89.32357655146491
 20
268.4909487756295
  0
LWPOLYLINE
  5
10115FB
330
1F
100
AcDbEntity
  8
P
  6
Continuous
 62
     0
100
AcDbPolyline
 90
        2
 70
     0
 43
0.0
 10
88.74024321813157
 20
269.0742821089628
 10
89.32357655146491
 20
268.4909487756295
  0
LWPOLYLINE
  5
10115FC
330
1F
100
AcDbEntity
  8
P
  6
Continuous
 62
     0
100
AcDbPolyline
 90
        2
 70
     0
 43
0.0
 10
88.74024321813157
 20
269.0742821089628
 10
88.74024321813157
 20
269.0742821089628
  0
LWPOLYLINE
  5
10115FD
330
1F
100
AcDbEntity
  8
P
  6
Continuous
 62
     0
100
AcDbPolyline
 90
        2
 70
     0
 43
0.0
 10
89.32357655146491
 20
268.4909487756295
 10
90.0735765514649
 20
268.0742821089629
  0
LWPOLYLINE
  5
10115FE
330
1F
100
AcDbEntity
  8
P
  6
Continuous
 62
     0
100
AcDbPolyline
 90
        2
 70
     0
 43
0.0
 10
89.32357655146491
 20
268.4909487756295
 10
90.0735765514649
 20
268.0742821089629
  0
LWPOLYLINE
  5
10115FF
330
1F
100
AcDbEntity
  8
P
  6
Continuous
 62
     0
100
AcDbPolyline
 90
        2
 70
     0
 43
0.0
 10
89.32357655146491
 20
268.4909487756295
 10
89.32357655146491
 20
268.4909487756295
  0
LWPOLYLINE
  5
1011600
330
1F
100
AcDbEntity
  8
P
  6
Continuous
 62
     0
100
AcDbPolyline
 90
        2
 70
     0
 43
0.0
 10
90.0735765514649
 20
268.0742821089629
 10
90.0735765514649
 20
268.0742821089629
  0
LWPOLYLINE
  5
1011601
330
1F
100
AcDbEntity
  8
P
  6
Continuous
 62
     0
100
AcDbPolyline
 90
        2
 70
     0
 43
0.0
 10
90.0735765514649
 20
272.9076154422961
 10
93.32357655146491
 20
267.9909487756295
  0
LWPOLYLINE
  5
1011602
330
1F
100
AcDbEntity
  8
P
  6
Continuous
 62
     0
100
AcDbPolyline
 90
        2
 70
     0
 43
0.0
 10
90.0735765514649
 20
272.9076154422961
 10
93.32357655146491
 20
267.9909487756295
  0
LWPOLYLINE
  5
1011603
330
1F
100
AcDbEntity
  8
P
  6
Continuous
 62
     0
100
AcDbPolyline
 90
        2
 70
     0
 43
0.0
 10
90.0735765514649
 20
272.9076154422961
 10
90.0735765514649
 20
272.9076154422961
  0
LWPOLYLINE
  5
1011604
330
1F
100
AcDbEntity
  8
P
  6
Continuous
 62
     0
100
AcDbPolyline
 90
        2
 70
     0
 43
0.0
 10
93.32357655146491
 20
267.9909487756295
 10
93.32357655146491
 20
267.9909487756295
  0
LWPOLYLINE
  5
1011605
330
1F
100
AcDbEntity
  8
P
  6
Continuous
 62
     0
100
AcDbPolyline
 90
        2
 70
     0
 43
0.0
 10
81.24024321813157
 20
264.0742821089629
 10
81.3235765514649
 20
263.2409487756295
  0
LWPOLYLINE
  5
1011606
330
1F
100
AcDbEntity
  8
P
  6
Continuous
 62
     0
100
AcDbPolyline
 90
        2
 70
     0
 43
0.0
 10
81.24024321813157
 20
264.0742821089629
 10
81.3235765514649
 20
263.2409487756295
  0
LWPOLYLINE
  5
1011607
330
1F
100
AcDbEntity
  8
P
  6
Continuous
 62
     0
100
AcDbPolyline
 90
        2
 70
     0
 43
0.0
 10
81.24024321813157
 20
264.0742821089629
 10
81.24024321813157
 20
264.0742821089629
  0
LWPOLYLINE
  5
1011608
330
1F
100
AcDbEntity
  8
P
  6
Continuous
 62
     0
100
AcDbPolyline
 90
        2
 70
     0
 43
0.0
 10
81.3235765514649
 20
263.2409487756295
 10
81.57357655146491
 20
262.4076154422961
  0
LWPOLYLINE
  5
1011609
330
1F
100
AcDbEntity
  8
P
  6
Continuous
 62
     0
100
AcDbPolyline
 90
        2
 70
     0
 43
0.0
 10
81.3235765514649
 20
263.2409487756295
 10
81.57357655146491
 20
262.4076154422961
  0
LWPOLYLINE
  5
101160A
330
1F
100
AcDbEntity
  8
P
  6
Continuous
 62
     0
100
AcDbPolyline
 90
        2
 70
     0
 43
0.0
 10
81.3235765514649
 20
263.2409487756295
 10
81.3235765514649
 20
263.2409487756295
  0
LWPOLYLINE
  5
101160B
330
1F
100
AcDbEntity
  8
P
  6
Continuous
 62
     0
100
AcDbPolyline
 90
        2
 70
     0
 43
0.0
 10
81.57357655146491
 20
262.4076154422961
 10
81.99024321813158
 20
261.6576154422961
  0
LWPOLYLINE
  5
101160C
330
1F
100
AcDbEntity
  8
P
  6
Continuous
 62
     0
100
AcDbPolyline
 90
        2
 70
     0
 43
0.0
 10
81.57357655146491
 20
262.4076154422961
 10
81.99024321813158
 20
261.6576154422961
  0
LWPOLYLINE
  5
101160D
330
1F
100
AcDbEntity
  8
P
  6
Continuous
 62
     0
100
AcDbPolyline
 90
        2
 70
     0
 43
0.0
 10
81.57357655146491
 20
262.4076154422961
 10
81.57357655146491
 20
262.4076154422961
  0
LWPOLYLINE
  5
101160E
330
1F
100
AcDbEntity
  8
P
  6
Continuous
 62
     0
100
AcDbPolyline
 90
        2
 70
     0
 43
0.0
 10
81.99024321813158
 20
261.6576154422961
 10
82.49024321813157
 20
260.9076154422961
  0
LWPOLYLINE
  5
101160F
330
1F
100
AcDbEntity
  8
P
  6
Continuous
 62
     0
100
AcDbPolyline
 90
        2
 70
     0
 43
0.0
 10
81.99024321813158
 20
261.6576154422961
 10
82.49024321813157
 20
260.9076154422961
  0
LWPOLYLINE
  5
1011610
330
1F
100
AcDbEntity
  8
P
  6
Continuous
 62
     0
100
AcDbPolyline
 90
        2
 70
     0
 43
0.0
 10
81.99024321813158
 20
261.6576154422961
 10
81.99024321813158
 20
261.6576154422961
  0
LWPOLYLINE
  5
1011611
330
1F
100
AcDbEntity
  8
P
  6
Continuous
 62
     0
100
AcDbPolyline
 90
        2
 70
     0
 43
0.0
 10
82.49024321813157
 20
260.9076154422961
 10
83.15690988479826
 20
260.3242821089629
  0
LWPOLYLINE
  5
1011612
330
1F
100
AcDbEntity
  8
P
  6
Continuous
 62
     0
100
AcDbPolyline
 90
        2
 70
     0
 43
0.0
 10
82.49024321813157
 20
260.9076154422961
 10
83.15690988479826
 20
260.3242821089629
  0
LWPOLYLINE
  5
1011613
330
1F
100
AcDbEntity
  8
P
  6
Continuous
 62
     0
100
AcDbPolyline
 90
        2
 70
     0
 43
0.0
 10
82.49024321813157
 20
260.9076154422961
 10
82.49024321813157
 20
260.9076154422961
  0
LWPOLYLINE
  5
1011614
330
1F
100
AcDbEntity
  8
P
  6
Continuous
 62
     0
100
AcDbPolyline
 90
        2
 70
     0
 43
0.0
 10
83.15690988479826
 20
260.3242821089629
 10
83.8235765514649
 20
259.9076154422961
  0
LWPOLYLINE
  5
1011615
330
1F
100
AcDbEntity
  8
P
  6
Continuous
 62
     0
100
AcDbPolyline
 90
        2
 70
     0
 43
0.0
 10
83.15690988479826
 20
260.3242821089629
 10
83.8235765514649
 20
259.9076154422961
  0
LWPOLYLINE
  5
1011616
330
1F
100
AcDbEntity
  8
P
  6
Continuous
 62
     0
100
AcDbPolyline
 90
        2
 70
     0
 43
0.0
 10
83.15690988479826
 20
260.3242821089629
 10
83.15690988479826
 20
260.3242821089629
  0
LWPOLYLINE
  5
1011617
330
1F
100
AcDbEntity
  8
P
  6
Continuous
 62
     0
100
AcDbPolyline
 90
        2
 70
     0
 43
0.0
 10
83.8235765514649
 20
259.9076154422961
 10
84.65690988479826
 20
259.5742821089629
  0
LWPOLYLINE
  5
1011618
330
1F
100
AcDbEntity
  8
P
  6
Continuous
 62
     0
100
AcDbPolyline
 90
        2
 70
     0
 43
0.0
 10
83.8235765514649
 20
259.9076154422961
 10
84.65690988479826
 20
259.5742821089629
  0
LWPOLYLINE
  5
1011619
330
1F
100
AcDbEntity
  8
P
  6
Continuous
 62
     0
100
AcDbPolyline
 90
        2
 70
     0
 43
0.0
 10
83.8235765514649
 20
259.9076154422961
 10
83.8235765514649
 20
259.9076154422961
  0
LWPOLYLINE
  5
101161A
330
1F
100
AcDbEntity
  8
P
  6
Continuous
 62
     0
100
AcDbPolyline
 90
        2
 70
     0
 43
0.0
 10
84.65690988479826
 20
259.5742821089629
 10
85.49024321813158
 20
259.4076154422961
  0
LWPOLYLINE
  5
101161B
330
1F
100
AcDbEntity
  8
P
  6
Continuous
 62
     0
100
AcDbPolyline
 90
        2
 70
     0
 43
0.0
 10
84.65690988479826
 20
259.5742821089629
 10
85.49024321813158
 20
259.4076154422961
  0
LWPOLYLINE
  5
101161C
330
1F
100
AcDbEntity
  8
P
  6
Continuous
 62
     0
100
AcDbPolyline
 90
        2
 70
     0
 43
0.0
 10
84.65690988479826
 20
259.5742821089629
 10
84.65690988479826
 20
259.5742821089629
  0
LWPOLYLINE
  5
101161D
330
1F
100
AcDbEntity
  8
P
  6
Continuous
 62
     0
100
AcDbPolyline
 90
        2
 70
     0
 43
0.0
 10
85.49024321813158
 20
259.4076154422961
 10
85.49024321813158
 20
259.4076154422961
  0
LWPOLYLINE
  5
101161E
330
1F
100
AcDbEntity
  8
P
  6
Continuous
 62
     0
100
AcDbPolyline
 90
        2
 70
     0
 43
0.0
 10
86.24024321813157
 20
259.4076154422961
 10
80.49024321813158
 20
259.4076154422961
  0
LWPOLYLINE
  5
101161F
330
1F
100
AcDbEntity
  8
P
  6
Continuous
 62
     0
100
AcDbPolyline
 90
        2
 70
     0
 43
0.0
 10
86.24024321813157
 20
259.4076154422961
 10
80.49024321813158
 20
259.4076154422961
  0
LWPOLYLINE
  5
1011620
330
1F
100
AcDbEntity
  8
P
  6
Continuous
 62
     0
100
AcDbPolyline
 90
        2
 70
     0
 43
0.0
 10
86.24024321813157
 20
259.4076154422961
 10
86.24024321813157
 20
259.4076154422961
  0
LWPOLYLINE
  5
1011621
330
1F
100
AcDbEntity
  8
P
  6
Continuous
 62
     0
100
AcDbPolyline
 90
        2
 70
     0
 43
0.0
 10
80.49024321813158
 20
259.4076154422961
 10
80.49024321813158
 20
259.4076154422961
  0
LWPOLYLINE
  5
1011622
330
1F
100
AcDbEntity
  8
P
  6
Continuous
 62
     0
100
AcDbPolyline
 90
        2
 70
     0
 43
0.0
 10
158.4902432181316
 20
268.0742821089629
 10
158.4902432181316
 20
264.0742821089629
  0
LWPOLYLINE
  5
1011623
330
1F
100
AcDbEntity
  8
P
  6
Continuous
 62
     0
100
AcDbPolyline
 90
        2
 70
     0
 43
0.0
 10
158.4902432181316
 20
268.0742821089629
 10
158.4902432181316
 20
264.0742821089629
  0
LWPOLYLINE
  5
1011624
330
1F
100
AcDbEntity
  8
P
  6
Continuous
 62
     0
100
AcDbPolyline
 90
        2
 70
     0
 43
0.0
 10
158.4902432181316
 20
268.0742821089629
 10
158.4902432181316
 20
268.0742821089629
  0
LWPOLYLINE
  5
1011625
330
1F
100
AcDbEntity
  8
P
  6
Continuous
 62
     0
100
AcDbPolyline
 90
        2
 70
     0
 43
0.0
 10
158.4902432181316
 20
264.0742821089629
 10
158.4902432181316
 20
264.0742821089629
  0
LWPOLYLINE
  5
1011626
330
1F
100
AcDbEntity
  8
P
  6
Continuous
 62
     0
100
AcDbPolyline
 90
        2
 70
     0
 43
0.0
 10
155.4069098847982
 20
268.0742821089629
 10
155.4069098847982
 20
264.0742821089629
  0
LWPOLYLINE
  5
1011627
330
1F
100
AcDbEntity
  8
P
  6
Continuous
 62
     0
100
AcDbPolyline
 90
        2
 70
     0
 43
0.0
 10
155.4069098847982
 20
268.0742821089629
 10
155.4069098847982
 20
264.0742821089629
  0
LWPOLYLINE
  5
1011628
330
1F
100
AcDbEntity
  8
P
  6
Continuous
 62
     0
100
AcDbPolyline
 90
        2
 70
     0
 43
0.0
 10
155.4069098847982
 20
268.0742821089629
 10
155.4069098847982
 20
268.0742821089629
  0
LWPOLYLINE
  5
1011629
330
1F
100
AcDbEntity
  8
P
  6
Continuous
 62
     0
100
AcDbPolyline
 90
        2
 70
     0
 43
0.0
 10
155.4069098847982
 20
264.0742821089629
 10
155.4069098847982
 20
264.0742821089629
  0
LWPOLYLINE
  5
101162A
330
1F
100
AcDbEntity
  8
P
  6
Continuous
 62
     0
100
AcDbPolyline
 90
        2
 70
     0
 43
0.0
 10
155.4069098847982
 20
268.0742821089629
 10
156.4069098847982
 20
267.9076154422961
  0
LWPOLYLINE
  5
101162B
330
1F
100
AcDbEntity
  8
P
  6
Continuous
 62
     0
100
AcDbPolyline
 90
        2
 70
     0
 43
0.0
 10
155.4069098847982
 20
268.0742821089629
 10
156.4069098847982
 20
267.9076154422961
  0
LWPOLYLINE
  5
101162C
330
1F
100
AcDbEntity
  8
P
  6
Continuous
 62
     0
100
AcDbPolyline
 90
        2
 70
     0
 43
0.0
 10
155.4069098847982
 20
268.0742821089629
 10
155.4069098847982
 20
268.0742821089629
  0
LWPOLYLINE
  5
101162D
330
1F
100
AcDbEntity
  8
P
  6
Continuous
 62
     0
100
AcDbPolyline
 90
        2
 70
     0
 43
0.0
 10
156.4069098847982
 20
267.9076154422961
 10
157.4902432181316
 20
267.9076154422961
  0
LWPOLYLINE
  5
101162E
330
1F
100
AcDbEntity
  8
P
  6
Continuous
 62
     0
100
AcDbPolyline
 90
        2
 70
     0
 43
0.0
 10
156.4069098847982
 20
267.9076154422961
 10
157.4902432181316
 20
267.9076154422961
  0
LWPOLYLINE
  5
101162F
330
1F
100
AcDbEntity
  8
P
  6
Continuous
 62
     0
100
AcDbPolyline
 90
        2
 70
     0
 43
0.0
 10
156.4069098847982
 20
267.9076154422961
 10
156.4069098847982
 20
267.9076154422961
  0
LWPOLYLINE
  5
1011630
330
1F
100
AcDbEntity
  8
P
  6
Continuous
 62
     0
100
AcDbPolyline
 90
        2
 70
     0
 43
0.0
 10
157.4902432181316
 20
267.9076154422961
 10
158.4902432181316
 20
268.0742821089629
  0
LWPOLYLINE
  5
1011631
330
1F
100
AcDbEntity
  8
P
  6
Continuous
 62
     0
100
AcDbPolyline
 90
        2
 70
     0
 43
0.0
 10
157.4902432181316
 20
267.9076154422961
 10
158.4902432181316
 20
268.0742821089629
  0
LWPOLYLINE
  5
1011632
330
1F
100
AcDbEntity
  8
P
  6
Continuous
 62
     0
100
AcDbPolyline
 90
        2
 70
     0
 43
0.0
 10
157.4902432181316
 20
267.9076154422961
 10
157.4902432181316
 20
267.9076154422961
  0
LWPOLYLINE
  5
1011633
330
1F
100
AcDbEntity
  8
P
  6
Continuous
 62
     0
100
AcDbPolyline
 90
        2
 70
     0
 43
0.0
 10
158.4902432181316
 20
268.0742821089629
 10
158.4902432181316
 20
268.0742821089629
  0
LWPOLYLINE
  5
1011634
330
1F
100
AcDbEntity
  8
P
  6
DASHED2
 62
     0
100
AcDbPolyline
 90
        2
 70
     0
 43
0.0
 10
89.40690988479826
 20
259.9076154422961
 10
110.2402432181316
 20
259.9076154422961
  0
LWPOLYLINE
  5
1011635
330
1F
100
AcDbEntity
  8
P
  6
Continuous
 62
     0
100
AcDbPolyline
 90
        2
 70
     0
 43
0.0
 10
85.49024321813158
 20
259.4076154422961
 10
191.8235765514649
 20
259.4076154422961
  0
LWPOLYLINE
  5
1011636
330
1F
100
AcDbEntity
  8
P
  6
Continuous
 62
     0
100
AcDbPolyline
 90
        2
 70
     0
 43
0.0
 10
85.49024321813158
 20
259.4076154422961
 10
191.8235765514649
 20
259.4076154422961
  0
LWPOLYLINE
  5
1011637
330
1F
100
AcDbEntity
  8
P
  6
Continuous
 62
     0
100
AcDbPolyline
 90
        2
 70
     0
 43
0.0
 10
85.49024321813158
 20
259.4076154422961
 10
85.49024321813158
 20
259.4076154422961
  0
LWPOLYLINE
  5
1011638
330
1F
100
AcDbEntity
  8
P
  6
Continuous
 62
     0
100
AcDbPolyline
 90
        2
 70
     0
 43
0.0
 10
191.8235765514649
 20
259.4076154422961
 10
191.8235765514649
 20
259.4076154422961
  0
LWPOLYLINE
  5
1011639
330
1F
100
AcDbEntity
  8
P
  6
Continuous
 62
     0
100
AcDbPolyline
 90
        2
 70
     0
 43
0.0
 10
110.1569098847982
 20
260.4909487756295
 10
86.15690988479824
 20
260.4909487756295
  0
LWPOLYLINE
  5
101163A
330
1F
100
AcDbEntity
  8
P
  6
Continuous
 62
     0
100
AcDbPolyline
 90
        2
 70
     0
 43
0.0
 10
110.1569098847982
 20
260.4909487756295
 10
86.15690988479824
 20
260.4909487756295
  0
LWPOLYLINE
  5
101163B
330
1F
100
AcDbEntity
  8
P
  6
Continuous
 62
     0
100
AcDbPolyline
 90
        2
 70
     0
 43
0.0
 10
110.1569098847982
 20
260.4909487756295
 10
110.1569098847982
 20
260.4909487756295
  0
LWPOLYLINE
  5
101163C
330
1F
100
AcDbEntity
  8
P
  6
Continuous
 62
     0
100
AcDbPolyline
 90
        2
 70
     0
 43
0.0
 10
86.15690988479824
 20
260.4909487756295
 10
86.15690988479824
 20
260.4909487756295
  0
LWPOLYLINE
  5
101163D
330
1F
100
AcDbEntity
  8
P
  6
DASHDOT
 62
     0
100
AcDbPolyline
 90
        2
 70
     0
 43
0.0
 10
29.82357655146492
 20
329.5742821089628
 10
96.49024321813158
 20
329.5742821089628
  0
MTEXT
  5
101163E
330
1F
100
AcDbEntity
  8
Text
  6
DASHDOT
 62
     0
100
AcDbMText
 10
37.15690988479825
 20
131.8242821089628
 30
0.0
 40
3.0
 41
87.75
 46
0.0
 71
     4
 72
     5
  1
{\fHelveticaNeueLTPro|b0|i0|c1|p15;nach technischem Datenblatt}
 73
     2
 44
1.0
  0
MTEXT
  5
101163F
330
1F
100
AcDbEntity
  8
Text
  6
DASHDOT
 62
     0
100
AcDbMText
 10
131.6569098847982
 20
144.5742821089628
 30
0.0
 40
3.75
 41
44.0
 46
0.0
 71
     4
 72
     5
  1
{\fHelveticaNeueLTPro|b0|i0|c0|p15;Fugenmörtel}
 73
     2
 44
1.0
  0
MTEXT
  5
1011640
330
1F
100
AcDbEntity
  8
Text
  6
DASHDOT
 62
     0
100
AcDbMText
 10
131.6569098847982
 20
139.3242821089628
 30
0.0
 40
3.0
 41
117.0
 46
0.0
 71
     4
 72
     5
  1
{\fHelveticaNeueLTPro|b0|i0|c1|p15;FLEX MEKF Multi Epoxid Kleber + Fuge}
 73
     2
 44
1.0
  0
MTEXT
  5
1011641
330
1F
100
AcDbEntity
  8
Text
  6
DASHDOT
 62
     0
100
AcDbMText
 10
131.6569098847982
 20
129.0742821089628
 30
0.0
 40
3.75
 41
44.0
 46
0.0
 71
     4
 72
     5
  1
{\fHelveticaNeueLTPro|b0|i0|c1|p15;Abdichtband}
 73
     2
 44
1.0
  0
MTEXT
  5
1011642
330
1F
100
AcDbEntity
  8
Text
  6
DASHDOT
 62
     7
100
AcDbMText
 10
124.6569098847982
 20
144.4076154422961
 30
0.0
 40
3.25
 41
3.5
 46
0.0
 71
     4
 72
     5
  1
{\fHelveticaNeueLTPro|b0|i0|c1|p15;6}
 73
     2
 44
1.0
  0
MTEXT
  5
1011643
330
1F
100
AcDbEntity
  8
Text
  6
DASHDOT
 62
     7
100
AcDbMText
 10
124.6569098847982
 20
129.0742821089628
 30
0.0
 40
3.25
 41
3.5
 46
0.0
 71
     4
 72
     5
  1
{\fHelveticaNeueLTPro|b0|i0|c1|p15;7}
 73
     2
 44
1.0
  0
MTEXT
  5
1011644
330
1F
100
AcDbEntity
  8
Text
  6
DASHDOT
 62
     0
100
AcDbMText
 10
131.6569098847982
 20
123.7409487756295
 30
0.0
 40
3.0
 41
94.25
 46
0.0
 71
     4
 72
     5
  1
{\fHelveticaNeueLTPro|b0|i0|c1|p15;DICHT FDB Flexibles Dichtband}
 73
     2
 44
1.0
  0
MTEXT
  5
1011645
330
1F
100
AcDbEntity
  8
Text
  6
DASHDOT
 62
     0
100
AcDbMText
 10
131.6569098847982
 20
113.1576154422961
 30
0.0
 40
3.75
 41
140.0
 46
0.0
 71
     4
 72
     5
  1
{\fHelveticaNeueLTPro|b0|i0|c0|p15;geeignetes Fugenhinterfüllmaterial}
 73
     2
 44
1.0
  0
MTEXT
  5
1011646
330
1F
100
AcDbEntity
  8
Text
  6
DASHDOT
 62
     7
100
AcDbMText
 10
124.6569098847982
 20
113.1576154422961
 30
0.0
 40
3.25
 41
3.5
 46
0.0
 71
     4
 72
     5
  1
{\fHelveticaNeueLTPro|b0|i0|c1|p15;8}
 73
     2
 44
1.0
  0
MTEXT
  5
1011647
330
1F
100
AcDbEntity
  8
Text
  6
DASHDOT
 62
     0
100
AcDbMText
 10
131.6569098847982
 20
101.4076154422961
 30
0.0
 40
3.75
 41
64.0
 46
0.0
 71
     4
 72
     5
  1
{\fHelveticaNeueLTPro|b0|i0|c1|p15;Elastische Fuge }
 73
     2
 44
1.0
  0
MTEXT
  5
1011648
330
1F
100
AcDbEntity
  8
Text
  6
DASHDOT
 62
     7
100
AcDbMText
 10
124.6569098847982
 20
101.4076154422961
 30
0.0
 40
3.25
 41
3.5
 46
0.0
 71
     4
 72
     5
  1
{\fHelveticaNeueLTPro|b0|i0|c1|p15;9}
 73
     2
 44
1.0
  0
MTEXT
  5
1011649
330
1F
100
AcDbEntity
  8
Text
  6
DASHDOT
 62
     0
100
AcDbMText
 10
131.6569098847982
 20
95.65761544229616
 30
0.0
 40
3.0
 41
68.25
 46
0.0
 71
     4
 72
     5
  1
{\fHelveticaNeueLTPro|b0|i0|c1|p15;geeigneter Dichtstoff}
 73
     2
 44
1.0
  0
LWPOLYLINE
  5
101164A
330
1F
100
AcDbEntity
  8
P
  6
Continuous
 62
     0
100
AcDbPolyline
 90
        2
 70
     0
 43
0.0
 10
97.24024321813159
 20
295.6576154422961
 10
97.24024321813159
 20
283.2409487756295
  0
MTEXT
  5
101164B
330
1F
100
AcDbEntity
  8
Text
  6
Continuous
 62
     7
100
AcDbMText
 10
96.24024321813159
 20
300.3242821089628
 30
0.0
 40
3.25
 41
3.5
 46
0.0
 71
     4
 72
     5
  1
{\fHelveticaNeueLTPro|b0|i0|c1|p15;7}
 73
     2
 44
1.0
  0
LWPOLYLINE
  5
101164C
330
1F
100
AcDbEntity
  8
P
  6
Continuous
 62
     0
100
AcDbPolyline
 90
        2
 70
     0
 43
0.0
 10
86.40690988479825
 20
270.9076154422961
 10
106.5735765514649
 20
270.9076154422961
  0
LWPOLYLINE
  5
101164D
330
1F
100
AcDbEntity
  8
P
  6
Continuous
 62
     0
100
AcDbPolyline
 90
        2
 70
     0
 43
0.0
 10
91.15690988479824
 20
269.4076154422961
 10
115.3235765514649
 20
269.4076154422961
  0
LWPOLYLINE
  5
101164E
330
1F
100
AcDbEntity
  8
P
  6
Continuous
 62
     0
100
AcDbPolyline
 90
        2
 70
     0
 43
0.0
 10
90.0735765514649
 20
264.0742821089629
 10
191.4069098847982
 20
264.0742821089629
  0
LWPOLYLINE
  5
101164F
330
1F
100
AcDbEntity
  8
P
  6
Continuous
 62
     0
100
AcDbPolyline
 90
        2
 70
     0
 43
0.0
 10
90.0735765514649
 20
264.0742821089629
 10
191.4069098847982
 20
264.0742821089629
  0
LWPOLYLINE
  5
1011650
330
1F
100
AcDbEntity
  8
P
  6
Continuous
 62
     0
100
AcDbPolyline
 90
        2
 70
     0
 43
0.0
 10
90.0735765514649
 20
264.0742821089629
 10
90.0735765514649
 20
264.0742821089629
  0
LWPOLYLINE
  5
1011651
330
1F
100
AcDbEntity
  8
P
  6
Continuous
 62
     0
100
AcDbPolyline
 90
        2
 70
     0
 43
0.0
 10
191.4069098847982
 20
264.0742821089629
 10
191.4069098847982
 20
264.0742821089629
  0
LWPOLYLINE
  5
1011652
330
1F
100
AcDbEntity
  8
P
  6
Continuous
 62
     0
100
AcDbPolyline
 90
        2
 70
     0
 43
0.0
 10
82.99024321813158
 20
283.2409487756295
 10
97.24024321813159
 20
283.2409487756295
  0
LWPOLYLINE
  5
1011653
330
1F
100
AcDbEntity
  8
P
  6
DASHDOT
 62
     0
100
AcDbPolyline
 90
        2
 70
     0
 43
0.0
 10
191.8235765514649
 20
242.0742821089628
 10
80.57357655146491
 20
242.1576154422961
  0
HATCH
  5
1011654
330
1F
100
AcDbEntity
  8
H
  6
DASHDOT
 62
     0
100
AcDbHatch
 10
0.0
 20
0.0
 30
0.0
210
0.0
220
0.0
230
1.0
  2
SOLID
 70
     1
 71
     0
 91
        1
 92
        1
 93
        4
 72
     1
 10
82.5735765514649
 20
282.7409487756295
 11
83.57357655146492
 21
282.7409487756295
 72
     1
 10
83.57357655146492
 20
282.7409487756295
 11
83.57357655146492
 21
283.7409487756295
 72
     1
 10
83.57357655146492
 20
283.7409487756295
 11
82.5735765514649
 21
283.7409487756295
 72
     1
 10
82.5735765514649
 20
283.7409487756295
 11
82.5735765514649
 21
282.7409487756295
 97
        0
 75
     0
 76
     1
 98
        0
450
        0
451
        0
460
0.0
461
0.0
452
        1
462
0.0
453
        0
470

  0
HATCH
  5
1011655
330
1F
100
AcDbEntity
  8
H
  6
DASHDOT
 62
     0
100
AcDbHatch
 10
0.0
 20
0.0
 30
0.0
210
0.0
220
0.0
230
1.0
  2
SOLID
 70
     1
 71
     0
 91
        1
 92
        1
 93
        4
 72
     1
 10
85.74024321813158
 20
270.4076154422961
 11
86.74024321813158
 21
270.4076154422961
 72
     1
 10
86.74024321813158
 20
270.4076154422961
 11
86.74024321813158
 21
271.4076154422961
 72
     1
 10
86.74024321813158
 20
271.4076154422961
 11
85.74024321813158
 21
271.4076154422961
 72
     1
 10
85.74024321813158
 20
271.4076154422961
 11
85.74024321813158
 21
270.4076154422961
 97
        0
 75
     0
 76
     1
 98
        0
450
        0
451
        0
460
0.0
461
0.0
452
        1
462
0.0
453
        0
470

  0
HATCH
  5
1011656
330
1F
100
AcDbEntity
  8
H
  6
DASHDOT
 62
     0
100
AcDbHatch
 10
0.0
 20
0.0
 30
0.0
210
0.0
220
0.0
230
1.0
  2
SOLID
 70
     1
 71
     0
 91
        1
 92
        1
 93
        4
 72
     1
 10
90.65690988479826
 20
268.8242821089628
 11
91.65690988479825
 21
268.8242821089628
 72
     1
 10
91.65690988479825
 20
268.8242821089628
 11
91.65690988479825
 21
269.8242821089628
 72
     1
 10
91.65690988479825
 20
269.8242821089628
 11
90.65690988479826
 21
269.8242821089628
 72
     1
 10
90.65690988479826
 20
269.8242821089628
 11
90.65690988479826
 21
268.8242821089628
 97
        0
 75
     0
 76
     1
 98
        0
450
        0
451
        0
460
0.0
461
0.0
452
        1
462
0.0
453
        0
470

  0
HATCH
  5
1011657
330
1F
100
AcDbEntity
  8
H
  6
DASHDOT
 62
     0
100
AcDbHatch
 10
0.0
 20
0.0
 30
0.0
210
0.0
220
0.0
230
1.0
  2
SOLID
 70
     1
 71
     0
 91
        1
 92
        1
 93
        4
 72
     1
 10
129.2402432181316
 20
251.8242821089628
 11
130.2402432181316
 21
251.8242821089628
 72
     1
 10
130.2402432181316
 20
251.8242821089628
 11
130.2402432181316
 21
252.8242821089628
 72
     1
 10
130.2402432181316
 20
252.8242821089628
 11
129.2402432181316
 21
252.8242821089628
 72
     1
 10
129.2402432181316
 20
252.8242821089628
 11
129.2402432181316
 21
251.8242821089628
 97
        0
 75
     0
 76
     1
 98
        0
450
        0
451
        0
460
0.0
461
0.0
452
        1
462
0.0
453
        0
470

  0
HATCH
  5
1011658
330
1F
100
AcDbEntity
  8
H
  6
DASHDOT
 62
     0
100
AcDbHatch
 10
0.0
 20
0.0
 30
0.0
210
0.0
220
0.0
230
1.0
  2
SOLID
 70
     1
 71
     0
 91
        1
 92
        1
 93
        4
 72
     1
 10
147.5735765514649
 20
259.4909487756295
 11
148.5735765514649
 21
259.4909487756295
 72
     1
 10
148.5735765514649
 20
259.4909487756295
 11
148.5735765514649
 21
260.4909487756295
 72
     1
 10
148.5735765514649
 20
260.4909487756295
 11
147.5735765514649
 21
260.4909487756295
 72
     1
 10
147.5735765514649
 20
260.4909487756295
 11
147.5735765514649
 21
259.4909487756295
 97
        0
 75
     0
 76
     1
 98
        0
450
        0
451
        0
460
0.0
461
0.0
452
        1
462
0.0
453
        0
470

  0
HATCH
  5
1011659
330
1F
100
AcDbEntity
  8
H
  6
DASHDOT
 62
     0
100
AcDbHatch
 10
0.0
 20
0.0
 30
0.0
210
0.0
220
0.0
230
1.0
  2
SOLID
 70
     1
 71
     0
 91
        1
 92
        1
 93
        4
 72
     1
 10
156.4902432181316
 20
265.5742821089628
 11
157.4069098847982
 21
265.5742821089628
 72
     1
 10
157.4069098847982
 20
265.5742821089628
 11
157.4069098847982
 21
266.5742821089629
 72
     1
 10
157.4069098847982
 20
266.5742821089629
 11
156.4902432181316
 21
266.5742821089629
 72
     1
 10
156.4902432181316
 20
266.5742821089629
 11
156.4902432181316
 21
265.5742821089628
 97
        0
 75
     0
 76
     1
 98
        0
450
        0
451
        0
460
0.0
461
0.0
452
        1
462
0.0
453
        0
470

  0
HATCH
  5
101165A
330
1F
100
AcDbEntity
  8
H
  6
DASHDOT
 62
     0
100
AcDbHatch
 10
0.0
 20
0.0
 30
0.0
210
0.0
220
0.0
230
1.0
  2
SOLID
 70
     1
 71
     0
 91
        1
 92
        1
 93
        4
 72
     1
 10
165.8235765514649
 20
261.9909487756295
 11
166.7402432181316
 21
261.9909487756295
 72
     1
 10
166.7402432181316
 20
261.9909487756295
 11
166.7402432181316
 21
262.9909487756295
 72
     1
 10
166.7402432181316
 20
262.9909487756295
 11
165.8235765514649
 21
262.9909487756295
 72
     1
 10
165.8235765514649
 20
262.9909487756295
 11
165.8235765514649
 21
261.9909487756295
 97
        0
 75
     0
 76
     1
 98
        0
450
        0
451
        0
460
0.0
461
0.0
452
        1
462
0.0
453
        0
470

  0
HATCH
  5
101165B
330
1F
100
AcDbEntity
  8
H
  6
DASHDOT
 62
     0
100
AcDbHatch
 10
0.0
 20
0.0
 30
0.0
210
0.0
220
0.0
230
1.0
  2
SOLID
 70
     1
 71
     0
 91
        1
 92
        1
 93
        4
 72
     1
 10
174.8235765514649
 20
265.5742821089628
 11
175.7402432181315
 21
265.5742821089628
 72
     1
 10
175.7402432181315
 20
265.5742821089628
 11
175.7402432181315
 21
266.5742821089629
 72
     1
 10
175.7402432181315
 20
266.5742821089629
 11
174.8235765514649
 21
266.5742821089629
 72
     1
 10
174.8235765514649
 20
266.5742821089629
 11
174.8235765514649
 21
265.5742821089628
 97
        0
 75
     0
 76
     1
 98
        0
450
        0
451
        0
460
0.0
461
0.0
452
        1
462
0.0
453
        0
470

  0
LWPOLYLINE
  5
101165C
330
1F
100
AcDbEntity
  8
P
  6
Continuous
 62
     0
100
AcDbPolyline
 90
       29
 70
     0
 43
0.0
 10
81.57357655146491
 20
234.2409487756295
 10
81.49024321813158
 20
233.9909487756295
 10
81.49024321813158
 20
233.7409487756295
 10
81.49024321813158
 20
233.5742821089628
 10
81.49024321813158
 20
233.3242821089628
 10
81.65690988479825
 20
232.8242821089628
 10
81.82357655146491
 20
232.4076154422961
 10
82.07357655146491
 20
231.9909487756295
 10
82.49024321813157
 20
231.6576154422961
 10
82.65690988479825
 20
231.5742821089628
 10
82.90690988479825
 20
231.4076154422961
 10
83.07357655146491
 20
231.3242821089628
 10
83.32357655146491
 20
231.2409487756295
 10
83.57357655146492
 20
231.1576154422962
 10
83.8235765514649
 20
231.1576154422962
 10
84.07357655146491
 20
231.1576154422962
 10
84.32357655146491
 20
231.1576154422962
 10
84.82357655146492
 20
231.3242821089628
 10
85.24024321813158
 20
231.4909487756295
 10
85.65690988479826
 20
231.8242821089628
 10
85.90690988479826
 20
232.1576154422961
 10
86.07357655146492
 20
232.3242821089628
 10
86.24024321813157
 20
232.5742821089628
 10
86.3235765514649
 20
232.8242821089628
 10
86.40690988479825
 20
232.9909487756295
 10
86.40690988479825
 20
233.3242821089628
 10
86.49024321813158
 20
233.6576154422961
 10
86.40690988479825
 20
233.9909487756295
 10
86.40690988479825
 20
234.2409487756295
  0
LWPOLYLINE
  5
101165D
330
1F
100
AcDbEntity
  8
P
  6
Continuous
 62
     0
100
AcDbPolyline
 90
        2
 70
     0
 43
0.0
 10
83.74024321813157
 20
238.5742821089628
 10
81.57357655146491
 20
234.2409487756295
  0
LWPOLYLINE
  5
101165E
330
1F
100
AcDbEntity
  8
P
  6
Continuous
 62
     0
100
AcDbPolyline
 90
       29
 70
     0
 43
0.0
 10
88.99024321813158
 20
238.5742821089628
 10
88.99024321813158
 20
238.8242821089628
 10
89.07357655146491
 20
239.0742821089628
 10
89.07357655146491
 20
239.3242821089628
 10
88.99024321813158
 20
239.4909487756295
 10
88.90690988479825
 20
239.9909487756295
 10
88.74024321813157
 20
240.4076154422961
 10
88.40690988479826
 20
240.8242821089628
 10
88.07357655146491
 20
241.1576154422961
 10
87.90690988479825
 20
241.2409487756295
 10
87.65690988479825
 20
241.4076154422961
 10
87.40690988479824
 20
241.4909487756295
 10
87.15690988479826
 20
241.5742821089628
 10
86.90690988479826
 20
241.6576154422962
 10
86.74024321813158
 20
241.6576154422962
 10
86.49024321813158
 20
241.6576154422962
 10
86.24024321813157
 20
241.6576154422962
 10
85.74024321813158
 20
241.4909487756295
 10
85.32357655146491
 20
241.3242821089628
 10
84.90690988479824
 20
240.9909487756295
 10
84.57357655146491
 20
240.6576154422961
 10
84.49024321813158
 20
240.4909487756295
 10
84.32357655146491
 20
240.2409487756295
 10
84.24024321813158
 20
240.0742821089628
 10
84.15690988479825
 20
239.8242821089628
 10
84.07357655146491
 20
239.4909487756295
 10
84.07357655146491
 20
239.1576154422961
 10
84.07357655146491
 20
238.8242821089628
 10
84.15690988479825
 20
238.5742821089628
  0
LWPOLYLINE
  5
101165F
330
1F
100
AcDbEntity
  8
P
  6
Continuous
 62
     0
100
AcDbPolyline
 90
       29
 70
     0
 43
0.0
 10
86.82357655146491
 20
234.2409487756295
 10
86.74024321813158
 20
233.9909487756295
 10
86.74024321813158
 20
233.7409487756295
 10
86.74024321813158
 20
233.5742821089628
 10
86.74024321813158
 20
233.3242821089628
 10
86.82357655146491
 20
232.8242821089628
 10
87.07357655146491
 20
232.4076154422961
 10
87.32357655146492
 20
231.9909487756295
 10
87.65690988479825
 20
231.6576154422961
 10
87.90690988479825
 20
231.5742821089628
 10
88.07357655146491
 20
231.4076154422961
 10
88.32357655146491
 20
231.3242821089628
 10
88.57357655146492
 20
231.2409487756295
 10
88.8235765514649
 20
231.1576154422962
 10
89.07357655146491
 20
231.1576154422962
 10
89.32357655146491
 20
231.1576154422962
 10
89.57357655146491
 20
231.1576154422962
 10
89.99024321813157
 20
231.3242821089628
 10
90.49024321813158
 20
231.4909487756295
 10
90.82357655146491
 20
231.8242821089628
 10
91.15690988479824
 20
232.1576154422961
 10
91.3235765514649
 20
232.3242821089628
 10
91.40690988479825
 20
232.5742821089628
 10
91.49024321813158
 20
232.8242821089628
 10
91.57357655146491
 20
232.9909487756295
 10
91.65690988479825
 20
233.3242821089628
 10
91.65690988479825
 20
233.6576154422961
 10
91.65690988479825
 20
233.9909487756295
 10
91.57357655146491
 20
234.2409487756295
  0
LWPOLYLINE
  5
1011660
330
1F
100
AcDbEntity
  8
P
  6
Continuous
 62
     0
100
AcDbPolyline
 90
        2
 70
     0
 43
0.0
 10
88.99024321813158
 20
238.5742821089628
 10
86.82357655146491
 20
234.2409487756295
  0
LWPOLYLINE
  5
1011661
330
1F
100
AcDbEntity
  8
P
  6
Continuous
 62
     0
100
AcDbPolyline
 90
        2
 70
     0
 43
0.0
 10
86.40690988479825
 20
234.2409487756295
 10
84.15690988479825
 20
238.5742821089628
  0
LWPOLYLINE
  5
1011662
330
1F
100
AcDbEntity
  8
P
  6
Continuous
 62
     0
100
AcDbPolyline
 90
       29
 70
     0
 43
0.0
 10
94.24024321813158
 20
238.5742821089628
 10
94.24024321813158
 20
238.8242821089628
 10
94.32357655146491
 20
239.0742821089628
 10
94.32357655146491
 20
239.3242821089628
 10
94.24024321813158
 20
239.4909487756295
 10
94.15690988479825
 20
239.9909487756295
 10
93.90690988479825
 20
240.4076154422961
 10
93.65690988479824
 20
240.8242821089628
 10
93.32357655146491
 20
241.1576154422961
 10
93.07357655146491
 20
241.2409487756295
 10
92.90690988479825
 20
241.4076154422961
 10
92.65690988479825
 20
241.4909487756295
 10
92.40690988479824
 20
241.5742821089628
 10
92.15690988479826
 20
241.6576154422962
 10
91.90690988479826
 20
241.6576154422962
 10
91.65690988479825
 20
241.6576154422962
 10
91.40690988479825
 20
241.6576154422962
 10
90.99024321813159
 20
241.4909487756295
 10
90.57357655146491
 20
241.3242821089628
 10
90.15690988479825
 20
240.9909487756295
 10
89.82357655146492
 20
240.6576154422961
 10
89.65690988479826
 20
240.4909487756295
 10
89.57357655146491
 20
240.2409487756295
 10
89.49024321813158
 20
240.0742821089628
 10
89.40690988479826
 20
239.8242821089628
 10
89.32357655146491
 20
239.4909487756295
 10
89.32357655146491
 20
239.1576154422961
 10
89.32357655146491
 20
238.8242821089628
 10
89.40690988479826
 20
238.5742821089628
  0
LWPOLYLINE
  5
1011663
330
1F
100
AcDbEntity
  8
P
  6
Continuous
 62
     0
100
AcDbPolyline
 90
       29
 70
     0
 43
0.0
 10
91.99024321813158
 20
234.2409487756295
 10
91.99024321813158
 20
233.9909487756295
 10
91.90690988479826
 20
233.7409487756295
 10
91.90690988479826
 20
233.5742821089628
 10
91.99024321813158
 20
233.3242821089628
 10
92.07357655146491
 20
232.8242821089628
 10
92.32357655146492
 20
232.4076154422961
 10
92.5735765514649
 20
231.9909487756295
 10
92.90690988479825
 20
231.6576154422961
 10
93.15690988479826
 20
231.5742821089628
 10
93.32357655146491
 20
231.4076154422961
 10
93.57357655146492
 20
231.3242821089628
 10
93.8235765514649
 20
231.2409487756295
 10
94.07357655146491
 20
231.1576154422962
 10
94.32357655146491
 20
231.1576154422962
 10
94.57357655146491
 20
231.1576154422962
 10
94.82357655146492
 20
231.1576154422962
 10
95.24024321813158
 20
231.3242821089628
 10
95.65690988479826
 20
231.4909487756295
 10
96.07357655146492
 20
231.8242821089628
 10
96.40690988479825
 20
232.1576154422961
 10
96.57357655146491
 20
232.3242821089628
 10
96.65690988479825
 20
232.5742821089628
 10
96.74024321813158
 20
232.8242821089628
 10
96.82357655146491
 20
232.9909487756295
 10
96.90690988479826
 20
233.3242821089628
 10
96.90690988479826
 20
233.6576154422961
 10
96.90690988479826
 20
233.9909487756295
 10
96.82357655146491
 20
234.2409487756295
  0
LWPOLYLINE
  5
1011664
330
1F
100
AcDbEntity
  8
P
  6
Continuous
 62
     0
100
AcDbPolyline
 90
        2
 70
     0
 43
0.0
 10
94.24024321813158
 20
238.5742821089628
 10
91.99024321813158
 20
234.2409487756295
  0
LWPOLYLINE
  5
1011665
330
1F
100
AcDbEntity
  8
P
  6
Continuous
 62
     0
100
AcDbPolyline
 90
        2
 70
     0
 43
0.0
 10
91.57357655146491
 20
234.2409487756295
 10
89.40690988479826
 20
238.5742821089628
  0
LWPOLYLINE
  5
1011666
330
1F
100
AcDbEntity
  8
P
  6
Continuous
 62
     0
100
AcDbPolyline
 90
       29
 70
     0
 43
0.0
 10
99.40690988479826
 20
238.5742821089628
 10
99.49024321813158
 20
238.8242821089628
 10
99.49024321813158
 20
239.0742821089628
 10
99.49024321813158
 20
239.3242821089628
 10
99.49024321813158
 20
239.4909487756295
 10
99.40690988479826
 20
239.9909487756295
 10
99.15690988479825
 20
240.4076154422961
 10
98.90690988479825
 20
240.8242821089628
 10
98.57357655146492
 20
241.1576154422961
 10
98.32357655146491
 20
241.2409487756295
 10
98.15690988479826
 20
241.4076154422961
 10
97.90690988479825
 20
241.4909487756295
 10
97.65690988479825
 20
241.5742821089628
 10
97.40690988479826
 20
241.6576154422962
 10
97.15690988479826
 20
241.6576154422962
 10
96.90690988479826
 20
241.6576154422962
 10
96.65690988479825
 20
241.6576154422962
 10
96.24024321813159
 20
241.4909487756295
 10
95.74024321813158
 20
241.3242821089628
 10
95.40690988479825
 20
240.9909487756295
 10
95.0735765514649
 20
240.6576154422961
 10
94.90690988479824
 20
240.4909487756295
 10
94.82357655146492
 20
240.2409487756295
 10
94.74024321813159
 20
240.0742821089628
 10
94.65690988479826
 20
239.8242821089628
 10
94.57357655146491
 20
239.4909487756295
 10
94.57357655146491
 20
239.1576154422961
 10
94.57357655146491
 20
238.8242821089628
 10
94.65690988479826
 20
238.5742821089628
  0
LWPOLYLINE
  5
1011667
330
1F
100
AcDbEntity
  8
P
  6
Continuous
 62
     0
100
AcDbPolyline
 90
       29
 70
     0
 43
0.0
 10
97.24024321813159
 20
234.2409487756295
 10
97.24024321813159
 20
233.9909487756295
 10
97.15690988479826
 20
233.7409487756295
 10
97.15690988479826
 20
233.5742821089628
 10
97.24024321813159
 20
233.3242821089628
 10
97.32357655146492
 20
232.8242821089628
 10
97.49024321813159
 20
232.4076154422961
 10
97.82357655146491
 20
231.9909487756295
 10
98.15690988479826
 20
231.6576154422961
 10
98.32357655146491
 20
231.5742821089628
 10
98.57357655146492
 20
231.4076154422961
 10
98.82357655146492
 20
231.3242821089628
 10
99.07357655146491
 20
231.2409487756295
 10
99.32357655146491
 20
231.1576154422962
 10
99.49024321813158
 20
231.1576154422962
 10
99.74024321813159
 20
231.1576154422962
 10
99.99024321813159
 20
231.1576154422962
 10
100.4902432181316
 20
231.3242821089628
 10
100.9069098847982
 20
231.4909487756295
 10
101.3235765514649
 20
231.8242821089628
 10
101.6569098847982
 20
232.1576154422961
 10
101.7402432181315
 20
232.3242821089628
 10
101.9069098847982
 20
232.5742821089628
 10
101.9902432181316
 20
232.8242821089628
 10
102.0735765514649
 20
232.9909487756295
 10
102.1569098847982
 20
233.3242821089628
 10
102.1569098847982
 20
233.6576154422961
 10
102.1569098847982
 20
233.9909487756295
 10
102.0735765514649
 20
234.2409487756295
  0
LWPOLYLINE
  5
1011668
330
1F
100
AcDbEntity
  8
P
  6
Continuous
 62
     0
100
AcDbPolyline
 90
        2
 70
     0
 43
0.0
 10
99.40690988479826
 20
238.5742821089628
 10
97.24024321813159
 20
234.2409487756295
  0
LWPOLYLINE
  5
1011669
330
1F
100
AcDbEntity
  8
P
  6
Continuous
 62
     0
100
AcDbPolyline
 90
        2
 70
     0
 43
0.0
 10
96.82357655146491
 20
234.2409487756295
 10
94.65690988479826
 20
238.5742821089628
  0
LWPOLYLINE
  5
101166A
330
1F
100
AcDbEntity
  8
P
  6
Continuous
 62
     0
100
AcDbPolyline
 90
       29
 70
     0
 43
0.0
 10
104.6569098847982
 20
238.5742821089628
 10
104.7402432181316
 20
238.8242821089628
 10
104.7402432181316
 20
239.0742821089628
 10
104.7402432181316
 20
239.3242821089628
 10
104.7402432181316
 20
239.4909487756295
 10
104.5735765514649
 20
239.9909487756295
 10
104.4069098847982
 20
240.4076154422961
 10
104.1569098847982
 20
240.8242821089628
 10
103.7402432181316
 20
241.1576154422961
 10
103.5735765514649
 20
241.2409487756295
 10
103.3235765514649
 20
241.4076154422961
 10
103.1569098847982
 20
241.4909487756295
 10
102.9069098847982
 20
241.5742821089628
 10
102.6569098847982
 20
241.6576154422962
 10
102.4069098847982
 20
241.6576154422962
 10
102.1569098847982
 20
241.6576154422962
 10
101.9069098847982
 20
241.6576154422962
 10
101.4069098847982
 20
241.4909487756295
 10
100.9902432181316
 20
241.3242821089628
 10
100.5735765514649
 20
240.9909487756295
 10
100.3235765514649
 20
240.6576154422961
 10
100.1569098847982
 20
240.4909487756295
 10
99.99024321813159
 20
240.2409487756295
 10
99.90690988479826
 20
240.0742821089628
 10
99.82357655146492
 20
239.8242821089628
 10
99.82357655146492
 20
239.4909487756295
 10
99.74024321813159
 20
239.1576154422961
 10
99.82357655146492
 20
238.8242821089628
 10
99.82357655146492
 20
238.5742821089628
  0
LWPOLYLINE
  5
101166B
330
1F
100
AcDbEntity
  8
P
  6
Continuous
 62
     0
100
AcDbPolyline
 90
       29
 70
     0
 43
0.0
 10
102.4902432181316
 20
234.2409487756295
 10
102.4069098847982
 20
233.9909487756295
 10
102.4069098847982
 20
233.7409487756295
 10
102.4069098847982
 20
233.5742821089628
 10
102.4069098847982
 20
233.3242821089628
 10
102.5735765514649
 20
232.8242821089628
 10
102.7402432181315
 20
232.4076154422961
 10
102.9902432181316
 20
231.9909487756295
 10
103.4069098847982
 20
231.6576154422961
 10
103.5735765514649
 20
231.5742821089628
 10
103.8235765514649
 20
231.4076154422961
 10
103.9902432181315
 20
231.3242821089628
 10
104.2402432181316
 20
231.2409487756295
 10
104.4902432181316
 20
231.1576154422962
 10
104.7402432181316
 20
231.1576154422962
 10
104.9902432181315
 20
231.1576154422962
 10
105.2402432181316
 20
231.1576154422962
 10
105.7402432181316
 20
231.3242821089628
 10
106.1569098847982
 20
231.4909487756295
 10
106.5735765514649
 20
231.8242821089628
 10
106.8235765514649
 20
232.1576154422961
 10
106.9902432181315
 20
232.3242821089628
 10
107.1569098847982
 20
232.5742821089628
 10
107.2402432181316
 20
232.8242821089628
 10
107.3235765514649
 20
232.9909487756295
 10
107.3235765514649
 20
233.3242821089628
 10
107.4069098847982
 20
233.6576154422961
 10
107.3235765514649
 20
233.9909487756295
 10
107.3235765514649
 20
234.2409487756295
  0
LWPOLYLINE
  5
101166C
330
1F
100
AcDbEntity
  8
P
  6
Continuous
 62
     0
100
AcDbPolyline
 90
        2
 70
     0
 43
0.0
 10
104.6569098847982
 20
238.5742821089628
 10
102.4902432181316
 20
234.2409487756295
  0
LWPOLYLINE
  5
101166D
330
1F
100
AcDbEntity
  8
P
  6
Continuous
 62
     0
100
AcDbPolyline
 90
        2
 70
     0
 43
0.0
 10
102.0735765514649
 20
234.2409487756295
 10
99.82357655146492
 20
238.5742821089628
  0
LWPOLYLINE
  5
101166E
330
1F
100
AcDbEntity
  8
P
  6
Continuous
 62
     0
100
AcDbPolyline
 90
       29
 70
     0
 43
0.0
 10
109.9069098847982
 20
238.5742821089628
 10
109.9069098847982
 20
238.8242821089628
 10
109.9902432181315
 20
239.0742821089628
 10
109.9902432181315
 20
239.3242821089628
 10
109.9069098847982
 20
239.4909487756295
 10
109.8235765514649
 20
239.9909487756295
 10
109.6569098847982
 20
240.4076154422961
 10
109.3235765514649
 20
240.8242821089628
 10
108.9902432181315
 20
241.1576154422961
 10
108.8235765514649
 20
241.2409487756295
 10
108.5735765514649
 20
241.4076154422961
 10
108.3235765514649
 20
241.4909487756295
 10
108.0735765514649
 20
241.5742821089628
 10
107.8235765514649
 20
241.6576154422962
 10
107.6569098847982
 20
241.6576154422962
 10
107.4069098847982
 20
241.6576154422962
 10
107.1569098847982
 20
241.6576154422962
 10
106.6569098847982
 20
241.4909487756295
 10
106.2402432181316
 20
241.3242821089628
 10
105.8235765514649
 20
240.9909487756295
 10
105.4902432181316
 20
240.6576154422961
 10
105.4069098847982
 20
240.4909487756295
 10
105.2402432181316
 20
240.2409487756295
 10
105.1569098847982
 20
240.0742821089628
 10
105.0735765514649
 20
239.8242821089628
 10
104.9902432181315
 20
239.4909487756295
 10
104.9902432181315
 20
239.1576154422961
 10
104.9902432181315
 20
238.8242821089628
 10
105.0735765514649
 20
238.5742821089628
  0
LWPOLYLINE
  5
101166F
330
1F
100
AcDbEntity
  8
P
  6
Continuous
 62
     0
100
AcDbPolyline
 90
       29
 70
     0
 43
0.0
 10
107.7402432181316
 20
234.2409487756295
 10
107.6569098847982
 20
233.9909487756295
 10
107.6569098847982
 20
233.7409487756295
 10
107.6569098847982
 20
233.5742821089628
 10
107.6569098847982
 20
233.3242821089628
 10
107.7402432181316
 20
232.8242821089628
 10
107.9902432181315
 20
232.4076154422961
 10
108.2402432181316
 20
231.9909487756295
 10
108.5735765514649
 20
231.6576154422961
 10
108.8235765514649
 20
231.5742821089628
 10
108.9902432181315
 20
231.4076154422961
 10
109.2402432181316
 20
231.3242821089628
 10
109.4902432181316
 20
231.2409487756295
 10
109.7402432181316
 20
231.1576154422962
 10
109.9902432181315
 20
231.1576154422962
 10
110.2402432181316
 20
231.1576154422962
 10
110.4902432181316
 20
231.1576154422962
 10
110.9069098847982
 20
231.3242821089628
 10
111.4069098847982
 20
231.4909487756295
 10
111.7402432181316
 20
231.8242821089628
 10
112.0735765514649
 20
232.1576154422961
 10
112.2402432181315
 20
232.3242821089628
 10
112.3235765514649
 20
232.5742821089628
 10
112.4069098847982
 20
232.8242821089628
 10
112.4902432181316
 20
232.9909487756295
 10
112.5735765514649
 20
233.3242821089628
 10
112.5735765514649
 20
233.6576154422961
 10
112.5735765514649
 20
233.9909487756295
 10
112.4902432181316
 20
234.2409487756295
  0
LWPOLYLINE
  5
1011670
330
1F
100
AcDbEntity
  8
P
  6
Continuous
 62
     0
100
AcDbPolyline
 90
        2
 70
     0
 43
0.0
 10
109.9069098847982
 20
238.5742821089628
 10
107.7402432181316
 20
234.2409487756295
  0
LWPOLYLINE
  5
1011671
330
1F
100
AcDbEntity
  8
P
  6
Continuous
 62
     0
100
AcDbPolyline
 90
        2
 70
     0
 43
0.0
 10
107.3235765514649
 20
234.2409487756295
 10
105.0735765514649
 20
238.5742821089628
  0
LWPOLYLINE
  5
1011672
330
1F
100
AcDbEntity
  8
P
  6
Continuous
 62
     0
100
AcDbPolyline
 90
       29
 70
     0
 43
0.0
 10
115.1569098847982
 20
238.5742821089628
 10
115.1569098847982
 20
238.8242821089628
 10
115.2402432181315
 20
239.0742821089628
 10
115.2402432181315
 20
239.3242821089628
 10
115.1569098847982
 20
239.4909487756295
 10
115.0735765514649
 20
239.9909487756295
 10
114.8235765514649
 20
240.4076154422961
 10
114.5735765514649
 20
240.8242821089628
 10
114.2402432181315
 20
241.1576154422961
 10
113.9902432181316
 20
241.2409487756295
 10
113.8235765514649
 20
241.4076154422961
 10
113.5735765514649
 20
241.4909487756295
 10
113.3235765514649
 20
241.5742821089628
 10
113.0735765514649
 20
241.6576154422962
 10
112.8235765514649
 20
241.6576154422962
 10
112.5735765514649
 20
241.6576154422962
 10
112.3235765514649
 20
241.6576154422962
 10
111.9069098847982
 20
241.4909487756295
 10
111.4902432181316
 20
241.3242821089628
 10
111.0735765514649
 20
240.9909487756295
 10
110.7402432181316
 20
240.6576154422961
 10
110.5735765514649
 20
240.4909487756295
 10
110.4902432181316
 20
240.2409487756295
 10
110.4069098847982
 20
240.0742821089628
 10
110.3235765514649
 20
239.8242821089628
 10
110.2402432181316
 20
239.4909487756295
 10
110.2402432181316
 20
239.1576154422961
 10
110.2402432181316
 20
238.8242821089628
 10
110.3235765514649
 20
238.5742821089628
  0
LWPOLYLINE
  5
1011673
330
1F
100
AcDbEntity
  8
P
  6
Continuous
 62
     0
100
AcDbPolyline
 90
       29
 70
     0
 43
0.0
 10
112.9069098847982
 20
234.2409487756295
 10
112.9069098847982
 20
233.9909487756295
 10
112.8235765514649
 20
233.7409487756295
 10
112.8235765514649
 20
233.5742821089628
 10
112.9069098847982
 20
233.3242821089628
 10
112.9902432181316
 20
232.8242821089628
 10
113.2402432181315
 20
232.4076154422961
 10
113.4902432181316
 20
231.9909487756295
 10
113.8235765514649
 20
231.6576154422961
 10
114.0735765514649
 20
231.5742821089628
 10
114.2402432181315
 20
231.4076154422961
 10
114.4902432181316
 20
231.3242821089628
 10
114.7402432181316
 20
231.2409487756295
 10
114.9902432181316
 20
231.1576154422962
 10
115.2402432181315
 20
231.1576154422962
 10
115.4902432181316
 20
231.1576154422962
 10
115.7402432181316
 20
231.1576154422962
 10
116.1569098847982
 20
231.3242821089628
 10
116.5735765514649
 20
231.4909487756295
 10
116.9902432181316
 20
231.8242821089628
 10
117.3235765514649
 20
232.1576154422961
 10
117.4902432181315
 20
232.3242821089628
 10
117.5735765514649
 20
232.5742821089628
 10
117.6569098847982
 20
232.8242821089628
 10
117.7402432181316
 20
232.9909487756295
 10
117.8235765514649
 20
233.3242821089628
 10
117.8235765514649
 20
233.6576154422961
 10
117.8235765514649
 20
233.9909487756295
 10
117.7402432181316
 20
234.2409487756295
  0
LWPOLYLINE
  5
1011674
330
1F
100
AcDbEntity
  8
P
  6
Continuous
 62
     0
100
AcDbPolyline
 90
        2
 70
     0
 43
0.0
 10
115.1569098847982
 20
238.5742821089628
 10
112.9069098847982
 20
234.2409487756295
  0
LWPOLYLINE
  5
1011675
330
1F
100
AcDbEntity
  8
P
  6
Continuous
 62
     0
100
AcDbPolyline
 90
        2
 70
     0
 43
0.0
 10
112.4902432181316
 20
234.2409487756295
 10
110.3235765514649
 20
238.5742821089628
  0
LWPOLYLINE
  5
1011676
330
1F
100
AcDbEntity
  8
P
  6
Continuous
 62
     0
100
AcDbPolyline
 90
       29
 70
     0
 43
0.0
 10
120.3235765514649
 20
238.5742821089628
 10
120.4069098847982
 20
238.8242821089628
 10
120.4069098847982
 20
239.0742821089628
 10
120.4069098847982
 20
239.3242821089628
 10
120.4069098847982
 20
239.4909487756295
 10
120.3235765514649
 20
239.9909487756295
 10
120.0735765514649
 20
240.4076154422961
 10
119.8235765514649
 20
240.8242821089628
 10
119.4902432181315
 20
241.1576154422961
 10
119.2402432181316
 20
241.2409487756295
 10
119.0735765514649
 20
241.4076154422961
 10
118.8235765514649
 20
241.4909487756295
 10
118.5735765514649
 20
241.5742821089628
 10
118.3235765514649
 20
241.6576154422962
 10
118.0735765514649
 20
241.6576154422962
 10
117.8235765514649
 20
241.6576154422962
 10
117.5735765514649
 20
241.6576154422962
 10
117.1569098847982
 20
241.4909487756295
 10
116.6569098847982
 20
241.3242821089628
 10
116.3235765514649
 20
240.9909487756295
 10
115.9902432181316
 20
240.6576154422961
 10
115.8235765514649
 20
240.4909487756295
 10
115.7402432181316
 20
240.2409487756295
 10
115.6569098847982
 20
240.0742821089628
 10
115.5735765514649
 20
239.8242821089628
 10
115.4902432181316
 20
239.4909487756295
 10
115.4902432181316
 20
239.1576154422961
 10
115.4902432181316
 20
238.8242821089628
 10
115.5735765514649
 20
238.5742821089628
  0
LWPOLYLINE
  5
1011677
330
1F
100
AcDbEntity
  8
P
  6
Continuous
 62
     0
100
AcDbPolyline
 90
       29
 70
     0
 43
0.0
 10
118.1569098847982
 20
234.2409487756295
 10
118.1569098847982
 20
233.9909487756295
 10
118.0735765514649
 20
233.7409487756295
 10
118.0735765514649
 20
233.5742821089628
 10
118.0735765514649
 20
233.3242821089628
 10
118.2402432181316
 20
232.8242821089628
 10
118.4069098847982
 20
232.4076154422961
 10
118.7402432181316
 20
231.9909487756295
 10
119.0735765514649
 20
231.6576154422961
 10
119.2402432181316
 20
231.5742821089628
 10
119.4902432181315
 20
231.4076154422961
 10
119.7402432181316
 20
231.3242821089628
 10
119.9902432181316
 20
231.2409487756295
 10
120.2402432181316
 20
231.1576154422962
 10
120.4069098847982
 20
231.1576154422962
 10
120.6569098847982
 20
231.1576154422962
 10
120.9069098847982
 20
231.1576154422962
 10
121.4069098847982
 20
231.3242821089628
 10
121.8235765514649
 20
231.4909487756295
 10
122.2402432181316
 20
231.8242821089628
 10
122.5735765514649
 20
232.1576154422961
 10
122.6569098847982
 20
232.3242821089628
 10
122.8235765514649
 20
232.5742821089628
 10
122.9069098847982
 20
232.8242821089628
 10
122.9902432181316
 20
232.9909487756295
 10
123.0735765514649
 20
233.3242821089628
 10
123.0735765514649
 20
233.6576154422961
 10
123.0735765514649
 20
233.9909487756295
 10
122.9902432181316
 20
234.2409487756295
  0
LWPOLYLINE
  5
1011678
330
1F
100
AcDbEntity
  8
P
  6
Continuous
 62
     0
100
AcDbPolyline
 90
        2
 70
     0
 43
0.0
 10
120.3235765514649
 20
238.5742821089628
 10
118.1569098847982
 20
234.2409487756295
  0
LWPOLYLINE
  5
1011679
330
1F
100
AcDbEntity
  8
P
  6
Continuous
 62
     0
100
AcDbPolyline
 90
        2
 70
     0
 43
0.0
 10
117.7402432181316
 20
234.2409487756295
 10
115.5735765514649
 20
238.5742821089628
  0
LWPOLYLINE
  5
101167A
330
1F
100
AcDbEntity
  8
P
  6
Continuous
 62
     0
100
AcDbPolyline
 90
       29
 70
     0
 43
0.0
 10
125.5735765514649
 20
238.5742821089628
 10
125.6569098847982
 20
238.8242821089628
 10
125.6569098847982
 20
239.0742821089628
 10
125.6569098847982
 20
239.3242821089628
 10
125.6569098847982
 20
239.4909487756295
 10
125.4902432181316
 20
239.9909487756295
 10
125.3235765514649
 20
240.4076154422961
 10
125.0735765514649
 20
240.8242821089628
 10
124.6569098847982
 20
241.1576154422961
 10
124.4902432181316
 20
241.2409487756295
 10
124.2402432181316
 20
241.4076154422961
 10
124.0735765514649
 20
241.4909487756295
 10
123.8235765514649
 20
241.5742821089628
 10
123.5735765514649
 20
241.6576154422962
 10
123.3235765514649
 20
241.6576154422962
 10
123.0735765514649
 20
241.6576154422962
 10
122.8235765514649
 20
241.6576154422962
 10
122.3235765514649
 20
241.4909487756295
 10
121.9069098847982
 20
241.3242821089628
 10
121.4902432181315
 20
240.9909487756295
 10
121.2402432181316
 20
240.6576154422961
 10
121.0735765514649
 20
240.4909487756295
 10
120.9069098847982
 20
240.2409487756295
 10
120.8235765514649
 20
240.0742821089628
 10
120.7402432181316
 20
239.8242821089628
 10
120.7402432181316
 20
239.4909487756295
 10
120.6569098847982
 20
239.1576154422961
 10
120.7402432181316
 20
238.8242821089628
 10
120.7402432181316
 20
238.5742821089628
  0
LWPOLYLINE
  5
101167B
330
1F
100
AcDbEntity
  8
P
  6
Continuous
 62
     0
100
AcDbPolyline
 90
       29
 70
     0
 43
0.0
 10
123.4069098847982
 20
234.2409487756295
 10
123.3235765514649
 20
233.9909487756295
 10
123.3235765514649
 20
233.7409487756295
 10
123.3235765514649
 20
233.5742821089628
 10
123.3235765514649
 20
233.3242821089628
 10
123.4902432181316
 20
232.8242821089628
 10
123.6569098847982
 20
232.4076154422961
 10
123.9069098847982
 20
231.9909487756295
 10
124.3235765514649
 20
231.6576154422961
 10
124.4902432181316
 20
231.5742821089628
 10
124.7402432181315
 20
231.4076154422961
 10
124.9069098847982
 20
231.3242821089628
 10
125.1569098847982
 20
231.2409487756295
 10
125.4069098847982
 20
231.1576154422962
 10
125.6569098847982
 20
231.1576154422962
 10
125.9069098847982
 20
231.1576154422962
 10
126.1569098847982
 20
231.1576154422962
 10
126.6569098847982
 20
231.3242821089628
 10
127.0735765514649
 20
231.4909487756295
 10
127.4069098847982
 20
231.8242821089628
 10
127.7402432181315
 20
232.1576154422961
 10
127.9069098847982
 20
232.3242821089628
 10
128.0735765514649
 20
232.5742821089628
 10
128.1569098847982
 20
232.8242821089628
 10
128.2402432181316
 20
232.9909487756295
 10
128.2402432181316
 20
233.3242821089628
 10
128.3235765514649
 20
233.6576154422961
 10
128.2402432181316
 20
233.9909487756295
 10
128.2402432181316
 20
234.2409487756295
  0
LWPOLYLINE
  5
101167C
330
1F
100
AcDbEntity
  8
P
  6
Continuous
 62
     0
100
AcDbPolyline
 90
        2
 70
     0
 43
0.0
 10
125.5735765514649
 20
238.5742821089628
 10
123.4069098847982
 20
234.2409487756295
  0
LWPOLYLINE
  5
101167D
330
1F
100
AcDbEntity
  8
P
  6
Continuous
 62
     0
100
AcDbPolyline
 90
        2
 70
     0
 43
0.0
 10
122.9902432181316
 20
234.2409487756295
 10
120.7402432181316
 20
238.5742821089628
  0
LWPOLYLINE
  5
101167E
330
1F
100
AcDbEntity
  8
P
  6
Continuous
 62
     0
100
AcDbPolyline
 90
       29
 70
     0
 43
0.0
 10
130.8235765514649
 20
238.5742821089628
 10
130.8235765514649
 20
238.8242821089628
 10
130.9069098847982
 20
239.0742821089628
 10
130.9069098847982
 20
239.3242821089628
 10
130.8235765514649
 20
239.4909487756295
 10
130.7402432181316
 20
239.9909487756295
 10
130.5735765514649
 20
240.4076154422961
 10
130.2402432181316
 20
240.8242821089628
 10
129.9069098847982
 20
241.1576154422961
 10
129.7402432181316
 20
241.2409487756295
 10
129.4902432181316
 20
241.4076154422961
 10
129.2402432181316
 20
241.4909487756295
 10
128.9902432181316
 20
241.5742821089628
 10
128.7402432181315
 20
241.6576154422962
 10
128.4902432181316
 20
241.6576154422962
 10
128.3235765514649
 20
241.6576154422962
 10
128.0735765514649
 20
241.6576154422962
 10
127.5735765514649
 20
241.4909487756295
 10
127.1569098847982
 20
241.3242821089628
 10
126.7402432181315
 20
240.9909487756295
 10
126.4069098847982
 20
240.6576154422961
 10
126.3235765514649
 20
240.4909487756295
 10
126.1569098847982
 20
240.2409487756295
 10
126.0735765514649
 20
240.0742821089628
 10
125.9902432181316
 20
239.8242821089628
 10
125.9069098847982
 20
239.4909487756295
 10
125.9069098847982
 20
239.1576154422961
 10
125.9069098847982
 20
238.8242821089628
 10
125.9902432181316
 20
238.5742821089628
  0
LWPOLYLINE
  5
101167F
330
1F
100
AcDbEntity
  8
P
  6
Continuous
 62
     0
100
AcDbPolyline
 90
        2
 70
     0
 43
0.0
 10
130.8235765514649
 20
238.5742821089628
 10
128.6569098847982
 20
234.2409487756295
  0
LWPOLYLINE
  5
1011680
330
1F
100
AcDbEntity
  8
P
  6
Continuous
 62
     0
100
AcDbPolyline
 90
        2
 70
     0
 43
0.0
 10
128.2402432181316
 20
234.2409487756295
 10
125.9902432181316
 20
238.5742821089628
  0
LWPOLYLINE
  5
1011681
330
1F
100
AcDbEntity
  8
P
  6
Continuous
 62
     0
100
AcDbPolyline
 90
       29
 70
     0
 43
0.0
 10
128.6569098847982
 20
234.2409487756295
 10
128.5735765514649
 20
233.9909487756295
 10
128.5735765514649
 20
233.7409487756295
 10
128.5735765514649
 20
233.5742821089628
 10
128.5735765514649
 20
233.3242821089628
 10
128.6569098847982
 20
232.8242821089628
 10
128.9069098847982
 20
232.4076154422961
 10
129.1569098847982
 20
231.9909487756295
 10
129.4902432181316
 20
231.6576154422961
 10
129.7402432181316
 20
231.5742821089628
 10
129.9069098847982
 20
231.4076154422961
 10
130.1569098847982
 20
231.3242821089628
 10
130.4069098847982
 20
231.2409487756295
 10
130.6569098847982
 20
231.1576154422962
 10
130.9069098847982
 20
231.1576154422962
 10
131.1569098847982
 20
231.1576154422962
 10
131.4069098847982
 20
231.1576154422962
 10
131.8235765514649
 20
231.3242821089628
 10
132.3235765514649
 20
231.4909487756295
 10
132.6569098847982
 20
231.8242821089628
 10
132.9902432181315
 20
232.1576154422961
 10
133.1569098847982
 20
232.3242821089628
 10
133.2402432181316
 20
232.5742821089628
 10
133.3235765514649
 20
232.8242821089628
 10
133.4069098847982
 20
232.9909487756295
 10
133.4902432181316
 20
233.3242821089628
 10
133.4902432181316
 20
233.6576154422961
 10
133.4902432181316
 20
233.9909487756295
 10
133.4069098847982
 20
234.2409487756295
  0
LWPOLYLINE
  5
1011682
330
1F
100
AcDbEntity
  8
P
  6
Continuous
 62
     0
100
AcDbPolyline
 90
       29
 70
     0
 43
0.0
 10
136.0735765514649
 20
238.5742821089628
 10
136.0735765514649
 20
238.8242821089628
 10
136.1569098847982
 20
239.0742821089628
 10
136.1569098847982
 20
239.3242821089628
 10
136.0735765514649
 20
239.4909487756295
 10
135.9902432181316
 20
239.9909487756295
 10
135.7402432181316
 20
240.4076154422961
 10
135.4902432181316
 20
240.8242821089628
 10
135.1569098847982
 20
241.1576154422961
 10
134.9069098847982
 20
241.2409487756295
 10
134.7402432181316
 20
241.4076154422961
 10
134.4902432181316
 20
241.4909487756295
 10
134.2402432181316
 20
241.5742821089628
 10
133.9902432181315
 20
241.6576154422962
 10
133.7402432181316
 20
241.6576154422962
 10
133.4902432181316
 20
241.6576154422962
 10
133.2402432181316
 20
241.6576154422962
 10
132.8235765514649
 20
241.4909487756295
 10
132.4069098847982
 20
241.3242821089628
 10
131.9902432181315
 20
240.9909487756295
 10
131.6569098847982
 20
240.6576154422961
 10
131.4902432181316
 20
240.4909487756295
 10
131.4069098847982
 20
240.2409487756295
 10
131.3235765514649
 20
240.0742821089628
 10
131.2402432181316
 20
239.8242821089628
 10
131.1569098847982
 20
239.4909487756295
 10
131.1569098847982
 20
239.1576154422961
 10
131.1569098847982
 20
238.8242821089628
 10
131.2402432181316
 20
238.5742821089628
  0
LWPOLYLINE
  5
1011683
330
1F
100
AcDbEntity
  8
P
  6
Continuous
 62
     0
100
AcDbPolyline
 90
       29
 70
     0
 43
0.0
 10
133.8235765514649
 20
234.2409487756295
 10
133.8235765514649
 20
233.9909487756295
 10
133.7402432181316
 20
233.7409487756295
 10
133.7402432181316
 20
233.5742821089628
 10
133.8235765514649
 20
233.3242821089628
 10
133.9069098847982
 20
232.8242821089628
 10
134.1569098847982
 20
232.4076154422961
 10
134.4069098847982
 20
231.9909487756295
 10
134.7402432181316
 20
231.6576154422961
 10
134.9902432181316
 20
231.5742821089628
 10
135.1569098847982
 20
231.4076154422961
 10
135.4069098847982
 20
231.3242821089628
 10
135.6569098847982
 20
231.2409487756295
 10
135.9069098847982
 20
231.1576154422962
 10
136.1569098847982
 20
231.1576154422962
 10
136.4069098847982
 20
231.1576154422962
 10
136.6569098847982
 20
231.1576154422962
 10
137.0735765514649
 20
231.3242821089628
 10
137.4902432181316
 20
231.4909487756295
 10
137.9069098847982
 20
231.8242821089628
 10
138.2402432181315
 20
232.1576154422961
 10
138.4069098847982
 20
232.3242821089628
 10
138.4902432181316
 20
232.5742821089628
 10
138.5735765514649
 20
232.8242821089628
 10
138.6569098847982
 20
232.9909487756295
 10
138.7402432181316
 20
233.3242821089628
 10
138.7402432181316
 20
233.6576154422961
 10
138.7402432181316
 20
233.9909487756295
 10
138.6569098847982
 20
234.2409487756295
  0
LWPOLYLINE
  5
1011684
330
1F
100
AcDbEntity
  8
P
  6
Continuous
 62
     0
100
AcDbPolyline
 90
        2
 70
     0
 43
0.0
 10
136.0735765514649
 20
238.5742821089628
 10
133.8235765514649
 20
234.2409487756295
  0
LWPOLYLINE
  5
1011685
330
1F
100
AcDbEntity
  8
P
  6
Continuous
 62
     0
100
AcDbPolyline
 90
        2
 70
     0
 43
0.0
 10
133.4069098847982
 20
234.2409487756295
 10
131.2402432181316
 20
238.5742821089628
  0
LWPOLYLINE
  5
1011686
330
1F
100
AcDbEntity
  8
P
  6
Continuous
 62
     0
100
AcDbPolyline
 90
       29
 70
     0
 43
0.0
 10
141.2402432181315
 20
238.5742821089628
 10
141.3235765514649
 20
238.8242821089628
 10
141.3235765514649
 20
239.0742821089628
 10
141.3235765514649
 20
239.3242821089628
 10
141.3235765514649
 20
239.4909487756295
 10
141.2402432181315
 20
239.9909487756295
 10
140.9902432181316
 20
240.4076154422961
 10
140.7402432181316
 20
240.8242821089628
 10
140.4069098847982
 20
241.1576154422961
 10
140.1569098847982
 20
241.2409487756295
 10
139.9902432181316
 20
241.4076154422961
 10
139.7402432181316
 20
241.4909487756295
 10
139.4902432181316
 20
241.5742821089628
 10
139.2402432181315
 20
241.6576154422962
 10
138.9902432181316
 20
241.6576154422962
 10
138.7402432181316
 20
241.6576154422962
 10
138.4902432181316
 20
241.6576154422962
 10
138.0735765514649
 20
241.4909487756295
 10
137.5735765514649
 20
241.3242821089628
 10
137.2402432181315
 20
240.9909487756295
 10
136.9069098847982
 20
240.6576154422961
 10
136.7402432181316
 20
240.4909487756295
 10
136.6569098847982
 20
240.2409487756295
 10
136.5735765514649
 20
240.0742821089628
 10
136.4902432181316
 20
239.8242821089628
 10
136.4069098847982
 20
239.4909487756295
 10
136.4069098847982
 20
239.1576154422961
 10
136.4069098847982
 20
238.8242821089628
 10
136.4902432181316
 20
238.5742821089628
  0
LWPOLYLINE
  5
1011687
330
1F
100
AcDbEntity
  8
P
  6
Continuous
 62
     0
100
AcDbPolyline
 90
       29
 70
     0
 43
0.0
 10
139.0735765514649
 20
234.2409487756295
 10
139.0735765514649
 20
233.9909487756295
 10
138.9902432181316
 20
233.7409487756295
 10
138.9902432181316
 20
233.5742821089628
 10
138.9902432181316
 20
233.3242821089628
 10
139.1569098847982
 20
232.8242821089628
 10
139.3235765514649
 20
232.4076154422961
 10
139.6569098847982
 20
231.9909487756295
 10
139.9902432181316
 20
231.6576154422961
 10
140.1569098847982
 20
231.5742821089628
 10
140.4069098847982
 20
231.4076154422961
 10
140.6569098847982
 20
231.3242821089628
 10
140.9069098847982
 20
231.2409487756295
 10
141.1569098847982
 20
231.1576154422962
 10
141.3235765514649
 20
231.1576154422962
 10
141.5735765514649
 20
231.1576154422962
 10
141.8235765514649
 20
231.1576154422962
 10
142.3235765514649
 20
231.3242821089628
 10
142.7402432181316
 20
231.4909487756295
 10
143.1569098847982
 20
231.8242821089628
 10
143.4902432181315
 20
232.1576154422961
 10
143.5735765514649
 20
232.3242821089628
 10
143.7402432181316
 20
232.5742821089628
 10
143.8235765514649
 20
232.8242821089628
 10
143.9069098847982
 20
232.9909487756295
 10
143.9902432181316
 20
233.3242821089628
 10
143.9902432181316
 20
233.6576154422961
 10
143.9902432181316
 20
233.9909487756295
 10
143.9069098847982
 20
234.2409487756295
  0
LWPOLYLINE
  5
1011688
330
1F
100
AcDbEntity
  8
P
  6
Continuous
 62
     0
100
AcDbPolyline
 90
        2
 70
     0
 43
0.0
 10
141.2402432181315
 20
238.5742821089628
 10
139.0735765514649
 20
234.2409487756295
  0
LWPOLYLINE
  5
1011689
330
1F
100
AcDbEntity
  8
P
  6
Continuous
 62
     0
100
AcDbPolyline
 90
        2
 70
     0
 43
0.0
 10
138.6569098847982
 20
234.2409487756295
 10
136.4902432181316
 20
238.5742821089628
  0
LWPOLYLINE
  5
101168A
330
1F
100
AcDbEntity
  8
P
  6
Continuous
 62
     0
100
AcDbPolyline
 90
       29
 70
     0
 43
0.0
 10
146.4902432181315
 20
238.5742821089628
 10
146.5735765514649
 20
238.8242821089628
 10
146.5735765514649
 20
239.0742821089628
 10
146.5735765514649
 20
239.3242821089628
 10
146.5735765514649
 20
239.4909487756295
 10
146.4069098847982
 20
239.9909487756295
 10
146.2402432181316
 20
240.4076154422961
 10
145.9902432181316
 20
240.8242821089628
 10
145.5735765514649
 20
241.1576154422961
 10
145.4069098847982
 20
241.2409487756295
 10
145.1569098847982
 20
241.4076154422961
 10
144.9902432181316
 20
241.4909487756295
 10
144.7402432181316
 20
241.5742821089628
 10
144.4902432181315
 20
241.6576154422962
 10
144.2402432181316
 20
241.6576154422962
 10
143.9902432181316
 20
241.6576154422962
 10
143.7402432181316
 20
241.6576154422962
 10
143.2402432181316
 20
241.4909487756295
 10
142.8235765514649
 20
241.3242821089628
 10
142.4069098847982
 20
240.9909487756295
 10
142.1569098847982
 20
240.6576154422961
 10
141.9902432181316
 20
240.4909487756295
 10
141.8235765514649
 20
240.2409487756295
 10
141.7402432181316
 20
240.0742821089628
 10
141.6569098847982
 20
239.8242821089628
 10
141.6569098847982
 20
239.4909487756295
 10
141.5735765514649
 20
239.1576154422961
 10
141.6569098847982
 20
238.8242821089628
 10
141.6569098847982
 20
238.5742821089628
  0
LWPOLYLINE
  5
101168B
330
1F
100
AcDbEntity
  8
P
  6
Continuous
 62
     0
100
AcDbPolyline
 90
       29
 70
     0
 43
0.0
 10
144.3235765514649
 20
234.2409487756295
 10
144.2402432181316
 20
233.9909487756295
 10
144.2402432181316
 20
233.7409487756295
 10
144.2402432181316
 20
233.5742821089628
 10
144.2402432181316
 20
233.3242821089628
 10
144.4069098847982
 20
232.8242821089628
 10
144.5735765514649
 20
232.4076154422961
 10
144.8235765514649
 20
231.9909487756295
 10
145.2402432181315
 20
231.6576154422961
 10
145.4069098847982
 20
231.5742821089628
 10
145.6569098847982
 20
231.4076154422961
 10
145.8235765514649
 20
231.3242821089628
 10
146.0735765514649
 20
231.2409487756295
 10
146.3235765514649
 20
231.1576154422962
 10
146.5735765514649
 20
231.1576154422962
 10
146.8235765514649
 20
231.1576154422962
 10
147.0735765514649
 20
231.1576154422962
 10
147.5735765514649
 20
231.3242821089628
 10
147.9902432181316
 20
231.4909487756295
 10
148.3235765514649
 20
231.8242821089628
 10
148.6569098847982
 20
232.1576154422961
 10
148.8235765514649
 20
232.3242821089628
 10
148.9902432181316
 20
232.5742821089628
 10
149.0735765514649
 20
232.8242821089628
 10
149.1569098847982
 20
232.9909487756295
 10
149.1569098847982
 20
233.3242821089628
 10
149.2402432181316
 20
233.6576154422961
 10
149.1569098847982
 20
233.9909487756295
 10
149.1569098847982
 20
234.2409487756295
  0
LWPOLYLINE
  5
101168C
330
1F
100
AcDbEntity
  8
P
  6
Continuous
 62
     0
100
AcDbPolyline
 90
        2
 70
     0
 43
0.0
 10
146.4902432181315
 20
238.5742821089628
 10
144.3235765514649
 20
234.2409487756295
  0
LWPOLYLINE
  5
101168D
330
1F
100
AcDbEntity
  8
P
  6
Continuous
 62
     0
100
AcDbPolyline
 90
        2
 70
     0
 43
0.0
 10
143.9069098847982
 20
234.2409487756295
 10
141.6569098847982
 20
238.5742821089628
  0
LWPOLYLINE
  5
101168E
330
1F
100
AcDbEntity
  8
P
  6
Continuous
 62
     0
100
AcDbPolyline
 90
       29
 70
     0
 43
0.0
 10
151.7402432181316
 20
238.5742821089628
 10
151.7402432181316
 20
238.8242821089628
 10
151.8235765514649
 20
239.0742821089628
 10
151.8235765514649
 20
239.3242821089628
 10
151.7402432181316
 20
239.4909487756295
 10
151.6569098847982
 20
239.9909487756295
 10
151.4902432181315
 20
240.4076154422961
 10
151.1569098847982
 20
240.8242821089628
 10
150.8235765514649
 20
241.1576154422961
 10
150.6569098847982
 20
241.2409487756295
 10
150.4069098847982
 20
241.4076154422961
 10
150.1569098847982
 20
241.4909487756295
 10
149.9069098847982
 20
241.5742821089628
 10
149.6569098847982
 20
241.6576154422962
 10
149.4069098847982
 20
241.6576154422962
 10
149.2402432181316
 20
241.6576154422962
 10
148.9902432181316
 20
241.6576154422962
 10
148.4902432181316
 20
241.4909487756295
 10
148.0735765514649
 20
241.3242821089628
 10
147.6569098847982
 20
240.9909487756295
 10
147.3235765514649
 20
240.6576154422961
 10
147.2402432181316
 20
240.4909487756295
 10
147.0735765514649
 20
240.2409487756295
 10
146.9902432181316
 20
240.0742821089628
 10
146.9069098847982
 20
239.8242821089628
 10
146.8235765514649
 20
239.4909487756295
 10
146.8235765514649
 20
239.1576154422961
 10
146.8235765514649
 20
238.8242821089628
 10
146.9069098847982
 20
238.5742821089628
  0
LWPOLYLINE
  5
101168F
330
1F
100
AcDbEntity
  8
P
  6
Continuous
 62
     0
100
AcDbPolyline
 90
       29
 70
     0
 43
0.0
 10
149.5735765514649
 20
234.2409487756295
 10
149.4902432181316
 20
233.9909487756295
 10
149.4902432181316
 20
233.7409487756295
 10
149.4902432181316
 20
233.5742821089628
 10
149.4902432181316
 20
233.3242821089628
 10
149.5735765514649
 20
232.8242821089628
 10
149.8235765514649
 20
232.4076154422961
 10
150.0735765514649
 20
231.9909487756295
 10
150.4069098847982
 20
231.6576154422961
 10
150.6569098847982
 20
231.5742821089628
 10
150.8235765514649
 20
231.4076154422961
 10
151.0735765514649
 20
231.3242821089628
 10
151.3235765514649
 20
231.2409487756295
 10
151.5735765514649
 20
231.1576154422962
 10
151.8235765514649
 20
231.1576154422962
 10
152.0735765514649
 20
231.1576154422962
 10
152.3235765514649
 20
231.1576154422962
 10
152.7402432181315
 20
231.3242821089628
 10
153.2402432181316
 20
231.4909487756295
 10
153.5735765514649
 20
231.8242821089628
 10
153.9069098847982
 20
232.1576154422961
 10
154.0735765514649
 20
232.3242821089628
 10
154.1569098847982
 20
232.5742821089628
 10
154.2402432181316
 20
232.8242821089628
 10
154.3235765514649
 20
232.9909487756295
 10
154.4069098847982
 20
233.3242821089628
 10
154.4069098847982
 20
233.6576154422961
 10
154.4069098847982
 20
233.9909487756295
 10
154.3235765514649
 20
234.2409487756295
  0
LWPOLYLINE
  5
1011690
330
1F
100
AcDbEntity
  8
P
  6
Continuous
 62
     0
100
AcDbPolyline
 90
        2
 70
     0
 43
0.0
 10
151.7402432181316
 20
238.5742821089628
 10
149.5735765514649
 20
234.2409487756295
  0
LWPOLYLINE
  5
1011691
330
1F
100
AcDbEntity
  8
P
  6
Continuous
 62
     0
100
AcDbPolyline
 90
        2
 70
     0
 43
0.0
 10
149.1569098847982
 20
234.2409487756295
 10
146.9069098847982
 20
238.5742821089628
  0
LWPOLYLINE
  5
1011692
330
1F
100
AcDbEntity
  8
P
  6
Continuous
 62
     0
100
AcDbPolyline
 90
       29
 70
     0
 43
0.0
 10
156.9902432181315
 20
238.5742821089628
 10
156.9902432181315
 20
238.8242821089628
 10
156.9902432181315
 20
239.0742821089628
 10
157.0735765514649
 20
239.3242821089628
 10
156.9902432181315
 20
239.4909487756295
 10
156.9069098847982
 20
239.9909487756295
 10
156.6569098847982
 20
240.4076154422961
 10
156.4069098847982
 20
240.8242821089628
 10
156.0735765514649
 20
241.1576154422961
 10
155.8235765514649
 20
241.2409487756295
 10
155.6569098847982
 20
241.4076154422961
 10
155.4069098847982
 20
241.4909487756295
 10
155.1569098847982
 20
241.5742821089628
 10
154.9069098847982
 20
241.6576154422962
 10
154.6569098847982
 20
241.6576154422962
 10
154.4069098847982
 20
241.6576154422962
 10
154.1569098847982
 20
241.6576154422962
 10
153.7402432181315
 20
241.4909487756295
 10
153.3235765514649
 20
241.3242821089628
 10
152.9069098847982
 20
240.9909487756295
 10
152.5735765514649
 20
240.6576154422961
 10
152.4069098847982
 20
240.4909487756295
 10
152.3235765514649
 20
240.2409487756295
 10
152.2402432181316
 20
240.0742821089628
 10
152.1569098847982
 20
239.8242821089628
 10
152.0735765514649
 20
239.4909487756295
 10
152.0735765514649
 20
239.1576154422961
 10
152.0735765514649
 20
238.8242821089628
 10
152.1569098847982
 20
238.5742821089628
  0
LWPOLYLINE
  5
1011693
330
1F
100
AcDbEntity
  8
P
  6
Continuous
 62
     0
100
AcDbPolyline
 90
       29
 70
     0
 43
0.0
 10
154.7402432181316
 20
234.2409487756295
 10
154.7402432181316
 20
233.9909487756295
 10
154.6569098847982
 20
233.7409487756295
 10
154.6569098847982
 20
233.5742821089628
 10
154.7402432181316
 20
233.3242821089628
 10
154.8235765514649
 20
232.8242821089628
 10
155.0735765514649
 20
232.4076154422961
 10
155.3235765514649
 20
231.9909487756295
 10
155.6569098847982
 20
231.6576154422961
 10
155.9069098847982
 20
231.5742821089628
 10
156.0735765514649
 20
231.4076154422961
 10
156.3235765514649
 20
231.3242821089628
 10
156.5735765514649
 20
231.2409487756295
 10
156.8235765514649
 20
231.1576154422962
 10
157.0735765514649
 20
231.1576154422962
 10
157.3235765514649
 20
231.1576154422962
 10
157.5735765514649
 20
231.1576154422962
 10
157.9902432181316
 20
231.3242821089628
 10
158.4069098847982
 20
231.4909487756295
 10
158.8235765514649
 20
231.8242821089628
 10
159.1569098847982
 20
232.1576154422961
 10
159.3235765514649
 20
232.3242821089628
 10
159.4069098847982
 20
232.5742821089628
 10
159.4902432181316
 20
232.8242821089628
 10
159.5735765514649
 20
232.9909487756295
 10
159.6569098847982
 20
233.3242821089628
 10
159.6569098847982
 20
233.6576154422961
 10
159.6569098847982
 20
233.9909487756295
 10
159.5735765514649
 20
234.2409487756295
  0
LWPOLYLINE
  5
1011694
330
1F
100
AcDbEntity
  8
P
  6
Continuous
 62
     0
100
AcDbPolyline
 90
        2
 70
     0
 43
0.0
 10
156.9902432181315
 20
238.5742821089628
 10
154.7402432181316
 20
234.2409487756295
  0
LWPOLYLINE
  5
1011695
330
1F
100
AcDbEntity
  8
P
  6
Continuous
 62
     0
100
AcDbPolyline
 90
        2
 70
     0
 43
0.0
 10
154.3235765514649
 20
234.2409487756295
 10
152.1569098847982
 20
238.5742821089628
  0
LWPOLYLINE
  5
1011696
330
1F
100
AcDbEntity
  8
P
  6
Continuous
 62
     0
100
AcDbPolyline
 90
       29
 70
     0
 43
0.0
 10
162.1569098847982
 20
238.5742821089628
 10
162.2402432181315
 20
238.8242821089628
 10
162.2402432181315
 20
239.0742821089628
 10
162.2402432181315
 20
239.3242821089628
 10
162.2402432181315
 20
239.4909487756295
 10
162.1569098847982
 20
239.9909487756295
 10
161.9069098847982
 20
240.4076154422961
 10
161.6569098847982
 20
240.8242821089628
 10
161.3235765514649
 20
241.1576154422961
 10
161.0735765514649
 20
241.2409487756295
 10
160.9069098847982
 20
241.4076154422961
 10
160.6569098847982
 20
241.4909487756295
 10
160.4069098847982
 20
241.5742821089628
 10
160.1569098847982
 20
241.6576154422962
 10
159.9069098847982
 20
241.6576154422962
 10
159.6569098847982
 20
241.6576154422962
 10
159.4069098847982
 20
241.6576154422962
 10
158.9902432181315
 20
241.4909487756295
 10
158.4902432181316
 20
241.3242821089628
 10
158.1569098847982
 20
240.9909487756295
 10
157.8235765514649
 20
240.6576154422961
 10
157.6569098847982
 20
240.4909487756295
 10
157.5735765514649
 20
240.2409487756295
 10
157.4902432181316
 20
240.0742821089628
 10
157.4069098847982
 20
239.8242821089628
 10
157.3235765514649
 20
239.4909487756295
 10
157.3235765514649
 20
239.1576154422961
 10
157.3235765514649
 20
238.8242821089628
 10
157.4069098847982
 20
238.5742821089628
  0
LWPOLYLINE
  5
1011697
330
1F
100
AcDbEntity
  8
P
  6
Continuous
 62
     0
100
AcDbPolyline
 90
       29
 70
     0
 43
0.0
 10
159.9902432181315
 20
234.2409487756295
 10
159.9902432181315
 20
233.9909487756295
 10
159.9069098847982
 20
233.7409487756295
 10
159.9069098847982
 20
233.5742821089628
 10
159.9069098847982
 20
233.3242821089628
 10
160.0735765514649
 20
232.8242821089628
 10
160.2402432181316
 20
232.4076154422961
 10
160.5735765514649
 20
231.9909487756295
 10
160.9069098847982
 20
231.6576154422961
 10
161.0735765514649
 20
231.5742821089628
 10
161.3235765514649
 20
231.4076154422961
 10
161.5735765514649
 20
231.3242821089628
 10
161.8235765514649
 20
231.2409487756295
 10
161.9902432181316
 20
231.1576154422962
 10
162.2402432181315
 20
231.1576154422962
 10
162.4902432181316
 20
231.1576154422962
 10
162.7402432181316
 20
231.1576154422962
 10
163.2402432181315
 20
231.3242821089628
 10
163.6569098847982
 20
231.4909487756295
 10
164.0735765514649
 20
231.8242821089628
 10
164.4069098847982
 20
232.1576154422961
 10
164.4902432181316
 20
232.3242821089628
 10
164.6569098847982
 20
232.5742821089628
 10
164.7402432181316
 20
232.8242821089628
 10
164.8235765514649
 20
232.9909487756295
 10
164.9069098847982
 20
233.3242821089628
 10
164.9069098847982
 20
233.6576154422961
 10
164.9069098847982
 20
233.9909487756295
 10
164.8235765514649
 20
234.2409487756295
  0
LWPOLYLINE
  5
1011698
330
1F
100
AcDbEntity
  8
P
  6
Continuous
 62
     0
100
AcDbPolyline
 90
        2
 70
     0
 43
0.0
 10
162.1569098847982
 20
238.5742821089628
 10
159.9902432181315
 20
234.2409487756295
  0
LWPOLYLINE
  5
1011699
330
1F
100
AcDbEntity
  8
P
  6
Continuous
 62
     0
100
AcDbPolyline
 90
        2
 70
     0
 43
0.0
 10
159.5735765514649
 20
234.2409487756295
 10
157.4069098847982
 20
238.5742821089628
  0
LWPOLYLINE
  5
101169A
330
1F
100
AcDbEntity
  8
P
  6
Continuous
 62
     0
100
AcDbPolyline
 90
       29
 70
     0
 43
0.0
 10
167.4069098847982
 20
238.5742821089628
 10
167.4902432181316
 20
238.8242821089628
 10
167.4902432181316
 20
239.0742821089628
 10
167.4902432181316
 20
239.3242821089628
 10
167.4902432181316
 20
239.4909487756295
 10
167.3235765514649
 20
239.9909487756295
 10
167.1569098847982
 20
240.4076154422961
 10
166.9069098847982
 20
240.8242821089628
 10
166.4902432181316
 20
241.1576154422961
 10
166.3235765514649
 20
241.2409487756295
 10
166.0735765514649
 20
241.4076154422961
 10
165.9069098847982
 20
241.4909487756295
 10
165.6569098847982
 20
241.5742821089628
 10
165.4069098847982
 20
241.6576154422962
 10
165.1569098847982
 20
241.6576154422962
 10
164.9069098847982
 20
241.6576154422962
 10
164.6569098847982
 20
241.6576154422962
 10
164.1569098847982
 20
241.4909487756295
 10
163.7402432181316
 20
241.3242821089628
 10
163.3235765514649
 20
240.9909487756295
 10
163.0735765514649
 20
240.6576154422961
 10
162.9069098847982
 20
240.4909487756295
 10
162.7402432181316
 20
240.2409487756295
 10
162.6569098847982
 20
240.0742821089628
 10
162.5735765514649
 20
239.8242821089628
 10
162.5735765514649
 20
239.4909487756295
 10
162.4902432181316
 20
239.1576154422961
 10
162.5735765514649
 20
238.8242821089628
 10
162.5735765514649
 20
238.5742821089628
  0
LWPOLYLINE
  5
101169B
330
1F
100
AcDbEntity
  8
P
  6
Continuous
 62
     0
100
AcDbPolyline
 90
        2
 70
     0
 43
0.0
 10
167.4069098847982
 20
238.5742821089628
 10
165.2402432181315
 20
234.2409487756295
  0
LWPOLYLINE
  5
101169C
330
1F
100
AcDbEntity
  8
P
  6
Continuous
 62
     0
100
AcDbPolyline
 90
        2
 70
     0
 43
0.0
 10
164.8235765514649
 20
234.2409487756295
 10
162.5735765514649
 20
238.5742821089628
  0
LWPOLYLINE
  5
101169D
330
1F
100
AcDbEntity
  8
P
  6
Continuous
 62
     0
100
AcDbPolyline
 90
       29
 70
     0
 43
0.0
 10
165.2402432181315
 20
234.2409487756295
 10
165.1569098847982
 20
233.9909487756295
 10
165.1569098847982
 20
233.7409487756295
 10
165.1569098847982
 20
233.5742821089628
 10
165.1569098847982
 20
233.3242821089628
 10
165.2402432181315
 20
232.8242821089628
 10
165.4902432181316
 20
232.4076154422961
 10
165.7402432181316
 20
231.9909487756295
 10
166.0735765514649
 20
231.6576154422961
 10
166.3235765514649
 20
231.5742821089628
 10
166.4902432181316
 20
231.4076154422961
 10
166.7402432181316
 20
231.3242821089628
 10
166.9902432181316
 20
231.2409487756295
 10
167.2402432181316
 20
231.1576154422962
 10
167.4902432181316
 20
231.1576154422962
 10
167.7402432181316
 20
231.1576154422962
 10
167.9902432181316
 20
231.1576154422962
 10
168.4069098847982
 20
231.3242821089628
 10
168.9069098847982
 20
231.4909487756295
 10
169.2402432181316
 20
231.8242821089628
 10
169.5735765514649
 20
232.1576154422961
 10
169.7402432181316
 20
232.3242821089628
 10
169.8235765514649
 20
232.5742821089628
 10
169.9902432181316
 20
232.8242821089628
 10
169.9902432181316
 20
232.9909487756295
 10
170.0735765514649
 20
233.3242821089628
 10
170.0735765514649
 20
233.6576154422961
 10
170.0735765514649
 20
233.9909487756295
 10
169.9902432181316
 20
234.2409487756295
  0
LWPOLYLINE
  5
101169E
330
1F
100
AcDbEntity
  8
P
  6
Continuous
 62
     0
100
AcDbPolyline
 90
       29
 70
     0
 43
0.0
 10
172.6569098847982
 20
238.5742821089628
 10
172.6569098847982
 20
238.8242821089628
 10
172.7402432181316
 20
239.0742821089628
 10
172.7402432181316
 20
239.3242821089628
 10
172.6569098847982
 20
239.4909487756295
 10
172.5735765514649
 20
239.9909487756295
 10
172.3235765514649
 20
240.4076154422961
 10
172.0735765514649
 20
240.8242821089628
 10
171.7402432181316
 20
241.1576154422961
 10
171.5735765514649
 20
241.2409487756295
 10
171.3235765514649
 20
241.4076154422961
 10
171.0735765514649
 20
241.4909487756295
 10
170.8235765514649
 20
241.5742821089628
 10
170.5735765514649
 20
241.6576154422962
 10
170.3235765514649
 20
241.6576154422962
 10
170.0735765514649
 20
241.6576154422962
 10
169.8235765514649
 20
241.6576154422962
 10
169.4069098847982
 20
241.4909487756295
 10
168.9902432181316
 20
241.3242821089628
 10
168.5735765514649
 20
240.9909487756295
 10
168.2402432181316
 20
240.6576154422961
 10
168.0735765514649
 20
240.4909487756295
 10
167.9902432181316
 20
240.2409487756295
 10
167.9069098847982
 20
240.0742821089628
 10
167.8235765514649
 20
239.8242821089628
 10
167.7402432181316
 20
239.4909487756295
 10
167.7402432181316
 20
239.1576154422961
 10
167.7402432181316
 20
238.8242821089628
 10
167.8235765514649
 20
238.5742821089628
  0
LWPOLYLINE
  5
101169F
330
1F
100
AcDbEntity
  8
P
  6
Continuous
 62
     0
100
AcDbPolyline
 90
        2
 70
     0
 43
0.0
 10
172.6569098847982
 20
238.5742821089628
 10
170.4069098847982
 20
234.2409487756295
  0
LWPOLYLINE
  5
10116A0
330
1F
100
AcDbEntity
  8
P
  6
Continuous
 62
     0
100
AcDbPolyline
 90
        2
 70
     0
 43
0.0
 10
169.9902432181316
 20
234.2409487756295
 10
167.8235765514649
 20
238.5742821089628
  0
LWPOLYLINE
  5
10116A1
330
1F
100
AcDbEntity
  8
P
  6
Continuous
 62
     0
100
AcDbPolyline
 90
       29
 70
     0
 43
0.0
 10
170.4069098847982
 20
234.2409487756295
 10
170.4069098847982
 20
233.9909487756295
 10
170.4069098847982
 20
233.7409487756295
 10
170.4069098847982
 20
233.5742821089628
 10
170.4069098847982
 20
233.3242821089628
 10
170.4902432181316
 20
232.8242821089628
 10
170.7402432181316
 20
232.4076154422961
 10
170.9902432181316
 20
231.9909487756295
 10
171.3235765514649
 20
231.6576154422961
 10
171.5735765514649
 20
231.5742821089628
 10
171.7402432181316
 20
231.4076154422961
 10
171.9902432181316
 20
231.3242821089628
 10
172.2402432181316
 20
231.2409487756295
 10
172.4902432181315
 20
231.1576154422962
 10
172.7402432181316
 20
231.1576154422962
 10
172.9902432181316
 20
231.1576154422962
 10
173.2402432181316
 20
231.1576154422962
 10
173.6569098847982
 20
231.3242821089628
 10
174.0735765514649
 20
231.4909487756295
 10
174.4902432181316
 20
231.8242821089628
 10
174.8235765514649
 20
232.1576154422961
 10
174.9902432181316
 20
232.3242821089628
 10
175.0735765514649
 20
232.5742821089628
 10
175.1569098847982
 20
232.8242821089628
 10
175.2402432181316
 20
232.9909487756295
 10
175.3235765514649
 20
233.3242821089628
 10
175.3235765514649
 20
233.6576154422961
 10
175.3235765514649
 20
233.9909487756295
 10
175.2402432181316
 20
234.2409487756295
  0
LWPOLYLINE
  5
10116A2
330
1F
100
AcDbEntity
  8
P
  6
Continuous
 62
     0
100
AcDbPolyline
 90
       29
 70
     0
 43
0.0
 10
177.8235765514649
 20
238.5742821089628
 10
177.9069098847982
 20
238.8242821089628
 10
177.9069098847982
 20
239.0742821089628
 10
177.9069098847982
 20
239.3242821089628
 10
177.9069098847982
 20
239.4909487756295
 10
177.8235765514649
 20
239.9909487756295
 10
177.5735765514649
 20
240.4076154422961
 10
177.3235765514649
 20
240.8242821089628
 10
176.9902432181316
 20
241.1576154422961
 10
176.7402432181316
 20
241.2409487756295
 10
176.5735765514649
 20
241.4076154422961
 10
176.3235765514649
 20
241.4909487756295
 10
176.0735765514649
 20
241.5742821089628
 10
175.8235765514649
 20
241.6576154422962
 10
175.5735765514649
 20
241.6576154422962
 10
175.3235765514649
 20
241.6576154422962
 10
175.0735765514649
 20
241.6576154422962
 10
174.6569098847982
 20
241.4909487756295
 10
174.1569098847982
 20
241.3242821089628
 10
173.8235765514649
 20
240.9909487756295
 10
173.4902432181316
 20
240.6576154422961
 10
173.3235765514649
 20
240.4909487756295
 10
173.2402432181316
 20
240.2409487756295
 10
173.1569098847982
 20
240.0742821089628
 10
173.0735765514649
 20
239.8242821089628
 10
172.9902432181316
 20
239.4909487756295
 10
172.9902432181316
 20
239.1576154422961
 10
172.9902432181316
 20
238.8242821089628
 10
173.0735765514649
 20
238.5742821089628
  0
LWPOLYLINE
  5
10116A3
330
1F
100
AcDbEntity
  8
P
  6
Continuous
 62
     0
100
AcDbPolyline
 90
       29
 70
     0
 43
0.0
 10
175.6569098847982
 20
234.2409487756295
 10
175.6569098847982
 20
233.9909487756295
 10
175.5735765514649
 20
233.7409487756295
 10
175.5735765514649
 20
233.5742821089628
 10
175.6569098847982
 20
233.3242821089628
 10
175.7402432181315
 20
232.8242821089628
 10
175.9069098847982
 20
232.4076154422961
 10
176.2402432181316
 20
231.9909487756295
 10
176.5735765514649
 20
231.6576154422961
 10
176.7402432181316
 20
231.5742821089628
 10
176.9902432181316
 20
231.4076154422961
 10
177.2402432181316
 20
231.3242821089628
 10
177.4902432181316
 20
231.2409487756295
 10
177.7402432181315
 20
231.1576154422962
 10
177.9902432181316
 20
231.1576154422962
 10
178.1569098847982
 20
231.1576154422962
 10
178.4069098847982
 20
231.1576154422962
 10
178.9069098847982
 20
231.3242821089628
 10
179.3235765514649
 20
231.4909487756295
 10
179.7402432181316
 20
231.8242821089628
 10
180.0735765514649
 20
232.1576154422961
 10
180.1569098847982
 20
232.3242821089628
 10
180.3235765514649
 20
232.5742821089628
 10
180.4069098847982
 20
232.8242821089628
 10
180.4902432181316
 20
232.9909487756295
 10
180.5735765514649
 20
233.3242821089628
 10
180.5735765514649
 20
233.6576154422961
 10
180.5735765514649
 20
233.9909487756295
 10
180.4902432181316
 20
234.2409487756295
  0
LWPOLYLINE
  5
10116A4
330
1F
100
AcDbEntity
  8
P
  6
Continuous
 62
     0
100
AcDbPolyline
 90
        2
 70
     0
 43
0.0
 10
177.8235765514649
 20
238.5742821089628
 10
175.6569098847982
 20
234.2409487756295
  0
LWPOLYLINE
  5
10116A5
330
1F
100
AcDbEntity
  8
P
  6
Continuous
 62
     0
100
AcDbPolyline
 90
        2
 70
     0
 43
0.0
 10
175.2402432181316
 20
234.2409487756295
 10
173.0735765514649
 20
238.5742821089628
  0
LWPOLYLINE
  5
10116A6
330
1F
100
AcDbEntity
  8
P
  6
Continuous
 62
     0
100
AcDbPolyline
 90
       29
 70
     0
 43
0.0
 10
183.0735765514649
 20
238.5742821089628
 10
183.1569098847982
 20
238.8242821089628
 10
183.1569098847982
 20
239.0742821089628
 10
183.1569098847982
 20
239.3242821089628
 10
183.1569098847982
 20
239.4909487756295
 10
182.9902432181316
 20
239.9909487756295
 10
182.8235765514649
 20
240.4076154422961
 10
182.5735765514649
 20
240.8242821089628
 10
182.1569098847982
 20
241.1576154422961
 10
181.9902432181315
 20
241.2409487756295
 10
181.7402432181316
 20
241.4076154422961
 10
181.5735765514649
 20
241.4909487756295
 10
181.3235765514649
 20
241.5742821089628
 10
181.0735765514649
 20
241.6576154422962
 10
180.8235765514649
 20
241.6576154422962
 10
180.5735765514649
 20
241.6576154422962
 10
180.3235765514649
 20
241.6576154422962
 10
179.8235765514649
 20
241.4909487756295
 10
179.4069098847982
 20
241.3242821089628
 10
179.0735765514649
 20
240.9909487756295
 10
178.7402432181315
 20
240.6576154422961
 10
178.5735765514649
 20
240.4909487756295
 10
178.4902432181316
 20
240.2409487756295
 10
178.3235765514649
 20
240.0742821089628
 10
178.2402432181316
 20
239.8242821089628
 10
178.2402432181316
 20
239.4909487756295
 10
178.1569098847982
 20
239.1576154422961
 10
178.2402432181316
 20
238.8242821089628
 10
178.2402432181316
 20
238.5742821089628
  0
LWPOLYLINE
  5
10116A7
330
1F
100
AcDbEntity
  8
P
  6
Continuous
 62
     0
100
AcDbPolyline
 90
       29
 70
     0
 43
0.0
 10
180.9069098847982
 20
234.2409487756295
 10
180.8235765514649
 20
233.9909487756295
 10
180.8235765514649
 20
233.7409487756295
 10
180.8235765514649
 20
233.5742821089628
 10
180.8235765514649
 20
233.3242821089628
 10
180.9902432181315
 20
232.8242821089628
 10
181.1569098847982
 20
232.4076154422961
 10
181.4069098847982
 20
231.9909487756295
 10
181.8235765514649
 20
231.6576154422961
 10
181.9902432181315
 20
231.5742821089628
 10
182.2402432181316
 20
231.4076154422961
 10
182.4069098847982
 20
231.3242821089628
 10
182.6569098847982
 20
231.2409487756295
 10
182.9069098847982
 20
231.1576154422962
 10
183.1569098847982
 20
231.1576154422962
 10
183.4069098847982
 20
231.1576154422962
 10
183.6569098847982
 20
231.1576154422962
 10
184.1569098847982
 20
231.3242821089628
 10
184.5735765514649
 20
231.4909487756295
 10
184.9902432181315
 20
231.8242821089628
 10
185.2402432181316
 20
232.1576154422961
 10
185.4069098847982
 20
232.3242821089628
 10
185.5735765514649
 20
232.5742821089628
 10
185.6569098847982
 20
232.8242821089628
 10
185.7402432181316
 20
232.9909487756295
 10
185.7402432181316
 20
233.3242821089628
 10
185.8235765514649
 20
233.6576154422961
 10
185.7402432181316
 20
233.9909487756295
 10
185.7402432181316
 20
234.2409487756295
  0
LWPOLYLINE
  5
10116A8
330
1F
100
AcDbEntity
  8
P
  6
Continuous
 62
     0
100
AcDbPolyline
 90
        2
 70
     0
 43
0.0
 10
183.0735765514649
 20
238.5742821089628
 10
180.9069098847982
 20
234.2409487756295
  0
LWPOLYLINE
  5
10116A9
330
1F
100
AcDbEntity
  8
P
  6
Continuous
 62
     0
100
AcDbPolyline
 90
        2
 70
     0
 43
0.0
 10
180.4902432181316
 20
234.2409487756295
 10
178.2402432181316
 20
238.5742821089628
  0
LWPOLYLINE
  5
10116AA
330
1F
100
AcDbEntity
  8
P
  6
Continuous
 62
     0
100
AcDbPolyline
 90
       29
 70
     0
 43
0.0
 10
188.3235765514649
 20
238.5742821089628
 10
188.4069098847982
 20
238.8242821089628
 10
188.4069098847982
 20
239.0742821089628
 10
188.4069098847982
 20
239.3242821089628
 10
188.4069098847982
 20
239.4909487756295
 10
188.2402432181315
 20
239.9909487756295
 10
188.0735765514649
 20
240.4076154422961
 10
187.7402432181316
 20
240.8242821089628
 10
187.4069098847982
 20
241.1576154422961
 10
187.2402432181315
 20
241.2409487756295
 10
186.9902432181316
 20
241.4076154422961
 10
186.7402432181316
 20
241.4909487756295
 10
186.5735765514649
 20
241.5742821089628
 10
186.3235765514649
 20
241.6576154422962
 10
186.0735765514649
 20
241.6576154422962
 10
185.8235765514649
 20
241.6576154422962
 10
185.5735765514649
 20
241.6576154422962
 10
185.0735765514649
 20
241.4909487756295
 10
184.6569098847982
 20
241.3242821089628
 10
184.2402432181316
 20
240.9909487756295
 10
183.9069098847982
 20
240.6576154422961
 10
183.8235765514649
 20
240.4909487756295
 10
183.6569098847982
 20
240.2409487756295
 10
183.5735765514649
 20
240.0742821089628
 10
183.4902432181316
 20
239.8242821089628
 10
183.4069098847982
 20
239.4909487756295
 10
183.4069098847982
 20
239.1576154422961
 10
183.4069098847982
 20
238.8242821089628
 10
183.4902432181316
 20
238.5742821089628
  0
LWPOLYLINE
  5
10116AB
330
1F
100
AcDbEntity
  8
P
  6
Continuous
 62
     0
100
AcDbPolyline
 90
       29
 70
     0
 43
0.0
 10
186.1569098847982
 20
234.2409487756295
 10
186.0735765514649
 20
233.9909487756295
 10
186.0735765514649
 20
233.7409487756295
 10
186.0735765514649
 20
233.5742821089628
 10
186.0735765514649
 20
233.3242821089628
 10
186.1569098847982
 20
232.8242821089628
 10
186.4069098847982
 20
232.4076154422961
 10
186.6569098847982
 20
231.9909487756295
 10
186.9902432181316
 20
231.6576154422961
 10
187.2402432181315
 20
231.5742821089628
 10
187.4069098847982
 20
231.4076154422961
 10
187.6569098847982
 20
231.3242821089628
 10
187.9069098847982
 20
231.2409487756295
 10
188.1569098847982
 20
231.1576154422962
 10
188.4069098847982
 20
231.1576154422962
 10
188.6569098847982
 20
231.1576154422962
 10
188.9069098847982
 20
231.1576154422962
 10
189.3235765514649
 20
231.3242821089628
 10
189.8235765514649
 20
231.4909487756295
 10
190.1569098847982
 20
231.8242821089628
 10
190.4902432181316
 20
232.1576154422961
 10
190.6569098847982
 20
232.3242821089628
 10
190.7402432181316
 20
232.5742821089628
 10
190.8235765514649
 20
232.8242821089628
 10
190.9069098847982
 20
232.9909487756295
 10
190.9902432181316
 20
233.3242821089628
 10
190.9902432181316
 20
233.6576154422961
 10
190.9902432181316
 20
233.9909487756295
 10
190.9069098847982
 20
234.2409487756295
  0
LWPOLYLINE
  5
10116AC
330
1F
100
AcDbEntity
  8
P
  6
Continuous
 62
     0
100
AcDbPolyline
 90
        2
 70
     0
 43
0.0
 10
188.3235765514649
 20
238.5742821089628
 10
186.1569098847982
 20
234.2409487756295
  0
LWPOLYLINE
  5
10116AD
330
1F
100
AcDbEntity
  8
P
  6
Continuous
 62
     0
100
AcDbPolyline
 90
        2
 70
     0
 43
0.0
 10
185.7402432181316
 20
234.2409487756295
 10
183.4902432181316
 20
238.5742821089628
  0
LWPOLYLINE
  5
10116AE
330
1F
100
AcDbEntity
  8
P
  6
Continuous
 62
     0
100
AcDbPolyline
 90
       15
 70
     0
 43
0.0
 10
191.5735765514649
 20
241.5742821089628
 10
191.3235765514649
 20
241.6576154422962
 10
191.1569098847982
 20
241.6576154422962
 10
190.6569098847982
 20
241.5742821089628
 10
190.2402432181315
 20
241.4909487756295
 10
189.8235765514649
 20
241.2409487756295
 10
189.4902432181316
 20
240.9909487756295
 10
189.1569098847982
 20
240.6576154422961
 10
188.9069098847982
 20
240.2409487756295
 10
188.8235765514649
 20
239.9909487756295
 10
188.7402432181316
 20
239.8242821089628
 10
188.6569098847982
 20
239.4909487756295
 10
188.6569098847982
 20
239.1576154422961
 10
188.6569098847982
 20
238.8242821089628
 10
188.7402432181316
 20
238.5742821089628
  0
LWPOLYLINE
  5
10116AF
330
1F
100
AcDbEntity
  8
P
  6
Continuous
 62
     0
100
AcDbPolyline
 90
        9
 70
     0
 43
0.0
 10
191.3235765514649
 20
234.2409487756295
 10
191.3235765514649
 20
233.9909487756295
 10
191.2402432181315
 20
233.7409487756295
 10
191.3235765514649
 20
233.4076154422962
 10
191.3235765514649
 20
233.1576154422961
 10
191.4069098847982
 20
232.9076154422961
 10
191.4902432181316
 20
232.6576154422961
 10
191.5735765514649
 20
232.4076154422961
 10
191.7402432181316
 20
232.1576154422961
  0
LWPOLYLINE
  5
10116B0
330
1F
100
AcDbEntity
  8
P
  6
Continuous
 62
     0
100
AcDbPolyline
 90
        2
 70
     0
 43
0.0
 10
191.6569098847982
 20
234.8242821089628
 10
191.3235765514649
 20
234.2409487756295
  0
LWPOLYLINE
  5
10116B1
330
1F
100
AcDbEntity
  8
P
  6
Continuous
 62
     0
100
AcDbPolyline
 90
        2
 70
     0
 43
0.0
 10
190.9069098847982
 20
234.2409487756295
 10
188.7402432181316
 20
238.5742821089628
  0
LWPOLYLINE
  5
10116B2
330
1F
100
AcDbEntity
  8
P
  6
Continuous
 62
     0
100
AcDbPolyline
 90
        2
 70
     0
 43
0.0
 10
67.74024321813158
 20
319.4909487756295
 10
93.49024321813159
 20
319.4909487756295
  0
HATCH
  5
10116B3
330
1F
100
AcDbEntity
  8
H
  6
Continuous
 62
     0
100
AcDbHatch
 10
0.0
 20
0.0
 30
0.0
210
0.0
220
0.0
230
1.0
  2
SOLID
 70
     1
 71
     0
 91
        1
 92
        1
 93
        4
 72
     1
 10
67.32357655146491
 20
318.9909487756295
 11
68.32357655146491
 21
318.9909487756295
 72
     1
 10
68.32357655146491
 20
318.9909487756295
 11
68.32357655146491
 21
319.9909487756295
 72
     1
 10
68.32357655146491
 20
319.9909487756295
 11
67.32357655146491
 21
319.9909487756295
 72
     1
 10
67.32357655146491
 20
319.9909487756295
 11
67.32357655146491
 21
318.9909487756295
 97
        0
 75
     0
 76
     1
 98
        0
450
        0
451
        0
460
0.0
461
0.0
452
        1
462
0.0
453
        0
470

  0
MTEXT
  5
10116B4
330
1F
100
AcDbEntity
  8
Text
  6
Continuous
 62
     7
100
AcDbMText
 10
96.24024321813159
 20
319.4909487756295
 30
0.0
 40
3.25
 41
3.5
 46
0.0
 71
     4
 72
     5
  1
{\fHelveticaNeueLTPro|b0|i0|c1|p15;1}
 73
     2
 44
1.0
  0
LWPOLYLINE
  5
10116B5
330
1F
100
AcDbEntity
  8
P
  6
DASHDOT
 62
     0
100
AcDbPolyline
 90
        2
 70
     0
 43
0.0
 10
85.40690988479825
 20
259.9076154422961
 10
86.40690988479825
 20
259.9076154422961
  0
LWPOLYLINE
  5
10116B6
330
1F
100
AcDbEntity
  8
P
  6
DASHDOT
 62
     0
100
AcDbPolyline
 90
        2
 70
     0
 43
0.0
 10
81.82357655146491
 20
264.7409487756295
 10
81.82357655146491
 20
264.1576154422961
  0
LWPOLYLINE
  5
10116B7
330
1F
100
AcDbEntity
  8
P
  6
Continuous
 62
     0
100
AcDbPolyline
 90
        2
 70
     0
 43
0.0
 10
86.57357655146491
 20
258.5742821089628
 10
191.7402432181316
 20
258.5742821089628
  0
LWPOLYLINE
  5
10116B8
330
1F
100
AcDbEntity
  8
P
  6
Continuous
 62
     0
100
AcDbPolyline
 90
        2
 70
     0
 43
0.0
 10
86.57357655146491
 20
258.5742821089628
 10
191.7402432181316
 20
258.5742821089628
  0
LWPOLYLINE
  5
10116B9
330
1F
100
AcDbEntity
  8
P
  6
Continuous
 62
     0
100
AcDbPolyline
 90
        2
 70
     0
 43
0.0
 10
86.57357655146491
 20
258.5742821089628
 10
86.57357655146491
 20
258.5742821089628
  0
LWPOLYLINE
  5
10116BA
330
1F
100
AcDbEntity
  8
P
  6
Continuous
 62
     0
100
AcDbPolyline
 90
        2
 70
     0
 43
0.0
 10
191.7402432181316
 20
258.5742821089628
 10
191.7402432181316
 20
258.5742821089628
  0
LWPOLYLINE
  5
10116BB
330
1F
100
AcDbEntity
  8
P
  6
Continuous
 62
     0
100
AcDbPolyline
 90
        2
 70
     0
 43
0.0
 10
107.3235765514649
 20
262.6576154422961
 10
113.3235765514649
 20
260.4909487756295
  0
LWPOLYLINE
  5
10116BC
330
1F
100
AcDbEntity
  8
P
  6
Continuous
 62
     0
100
AcDbPolyline
 90
        2
 70
     0
 43
0.0
 10
107.3235765514649
 20
262.6576154422961
 10
113.3235765514649
 20
260.4909487756295
  0
LWPOLYLINE
  5
10116BD
330
1F
100
AcDbEntity
  8
P
  6
Continuous
 62
     0
100
AcDbPolyline
 90
        2
 70
     0
 43
0.0
 10
107.3235765514649
 20
262.6576154422961
 10
107.3235765514649
 20
262.6576154422961
  0
LWPOLYLINE
  5
10116BE
330
1F
100
AcDbEntity
  8
P
  6
Continuous
 62
     0
100
AcDbPolyline
 90
        2
 70
     0
 43
0.0
 10
113.3235765514649
 20
260.4909487756295
 10
113.3235765514649
 20
260.4909487756295
  0
LWPOLYLINE
  5
10116BF
330
1F
100
AcDbEntity
  8
P
  6
DASHDOT
 62
     0
100
AcDbPolyline
 90
        2
 70
     0
 43
0.0
 10
85.65690988479826
 20
262.1576154422961
 10
86.24024321813157
 20
262.1576154422961
  0
LWPOLYLINE
  5
10116C0
330
1F
100
AcDbEntity
  8
P
  6
DASHDOT
 62
     0
100
AcDbPolyline
 90
        2
 70
     0
 43
0.0
 10
83.99024321813158
 20
264.7409487756295
 10
83.99024321813158
 20
263.8242821089629
  0
LWPOLYLINE
  5
10116C1
330
1F
100
AcDbEntity
  8
P
  6
Continuous
 62
     0
100
AcDbPolyline
 90
        2
 70
     0
 43
0.0
 10
82.24024321813159
 20
293.1576154422962
 10
84.49024321813158
 20
288.5742821089628
  0
LWPOLYLINE
  5
10116C2
330
1F
100
AcDbEntity
  8
P
  6
Continuous
 62
     0
100
AcDbPolyline
 90
        2
 70
     0
 43
0.0
 10
82.24024321813159
 20
293.1576154422962
 10
84.49024321813158
 20
288.5742821089628
  0
LWPOLYLINE
  5
10116C3
330
1F
100
AcDbEntity
  8
P
  6
Continuous
 62
     0
100
AcDbPolyline
 90
        2
 70
     0
 43
0.0
 10
82.24024321813159
 20
293.1576154422962
 10
82.24024321813159
 20
293.1576154422962
  0
LWPOLYLINE
  5
10116C4
330
1F
100
AcDbEntity
  8
P
  6
Continuous
 62
     0
100
AcDbPolyline
 90
        2
 70
     0
 43
0.0
 10
84.49024321813158
 20
288.5742821089628
 10
84.49024321813158
 20
288.5742821089628
  0
LWPOLYLINE
  5
10116C5
330
1F
100
AcDbEntity
  8
P
  6
Continuous
 62
     0
100
AcDbPolyline
 90
        2
 70
     0
 43
0.0
 10
80.57357655146491
 20
230.9909487756295
 10
80.57357655146491
 20
329.5742821089628
  0
LWPOLYLINE
  5
10116C6
330
1F
100
AcDbEntity
  8
P
  6
Continuous
 62
     0
100
AcDbPolyline
 90
        2
 70
     0
 43
0.0
 10
86.57357655146491
 20
252.9909487756295
 10
80.49024321813158
 20
251.3242821089628
  0
LWPOLYLINE
  5
10116C7
330
1F
100
AcDbEntity
  8
P
  6
Continuous
 62
     0
100
AcDbPolyline
 90
        2
 70
     0
 43
0.0
 10
86.57357655146491
 20
252.9909487756295
 10
80.49024321813158
 20
251.3242821089628
  0
LWPOLYLINE
  5
10116C8
330
1F
100
AcDbEntity
  8
P
  6
Continuous
 62
     0
100
AcDbPolyline
 90
        2
 70
     0
 43
0.0
 10
86.57357655146491
 20
252.9909487756295
 10
86.57357655146491
 20
252.9909487756295
  0
LWPOLYLINE
  5
10116C9
330
1F
100
AcDbEntity
  8
P
  6
Continuous
 62
     0
100
AcDbPolyline
 90
        2
 70
     0
 43
0.0
 10
80.49024321813158
 20
251.3242821089628
 10
80.49024321813158
 20
251.3242821089628
  0
LWPOLYLINE
  5
10116CA
330
1F
100
AcDbEntity
  8
P
  6
Continuous
 62
     0
100
AcDbPolyline
 90
        2
 70
     0
 43
0.0
 10
80.49024321813158
 20
251.3242821089628
 10
86.57357655146491
 20
249.7409487756295
  0
LWPOLYLINE
  5
10116CB
330
1F
100
AcDbEntity
  8
P
  6
Continuous
 62
     0
100
AcDbPolyline
 90
        2
 70
     0
 43
0.0
 10
80.49024321813158
 20
251.3242821089628
 10
86.57357655146491
 20
249.7409487756295
  0
LWPOLYLINE
  5
10116CC
330
1F
100
AcDbEntity
  8
P
  6
Continuous
 62
     0
100
AcDbPolyline
 90
        2
 70
     0
 43
0.0
 10
80.49024321813158
 20
251.3242821089628
 10
80.49024321813158
 20
251.3242821089628
  0
LWPOLYLINE
  5
10116CD
330
1F
100
AcDbEntity
  8
P
  6
Continuous
 62
     0
100
AcDbPolyline
 90
        2
 70
     0
 43
0.0
 10
86.57357655146491
 20
249.7409487756295
 10
86.57357655146491
 20
249.7409487756295
  0
LWPOLYLINE
  5
10116CE
330
1F
100
AcDbEntity
  8
P
  6
Continuous
 62
     0
100
AcDbPolyline
 90
        2
 70
     0
 43
0.0
 10
86.57357655146491
 20
249.7409487756295
 10
80.49024321813158
 20
248.0742821089628
  0
LWPOLYLINE
  5
10116CF
330
1F
100
AcDbEntity
  8
P
  6
Continuous
 62
     0
100
AcDbPolyline
 90
        2
 70
     0
 43
0.0
 10
86.57357655146491
 20
249.7409487756295
 10
80.49024321813158
 20
248.0742821089628
  0
LWPOLYLINE
  5
10116D0
330
1F
100
AcDbEntity
  8
P
  6
Continuous
 62
     0
100
AcDbPolyline
 90
        2
 70
     0
 43
0.0
 10
86.57357655146491
 20
249.7409487756295
 10
86.57357655146491
 20
249.7409487756295
  0
LWPOLYLINE
  5
10116D1
330
1F
100
AcDbEntity
  8
P
  6
Continuous
 62
     0
100
AcDbPolyline
 90
        2
 70
     0
 43
0.0
 10
80.49024321813158
 20
248.0742821089628
 10
80.49024321813158
 20
248.0742821089628
  0
LWPOLYLINE
  5
10116D2
330
1F
100
AcDbEntity
  8
P
  6
Continuous
 62
     0
100
AcDbPolyline
 90
        2
 70
     0
 43
0.0
 10
80.49024321813158
 20
248.0742821089628
 10
86.49024321813158
 20
246.4909487756295
  0
LWPOLYLINE
  5
10116D3
330
1F
100
AcDbEntity
  8
P
  6
Continuous
 62
     0
100
AcDbPolyline
 90
        2
 70
     0
 43
0.0
 10
80.49024321813158
 20
248.0742821089628
 10
86.49024321813158
 20
246.4909487756295
  0
LWPOLYLINE
  5
10116D4
330
1F
100
AcDbEntity
  8
P
  6
Continuous
 62
     0
100
AcDbPolyline
 90
        2
 70
     0
 43
0.0
 10
80.49024321813158
 20
248.0742821089628
 10
80.49024321813158
 20
248.0742821089628
  0
LWPOLYLINE
  5
10116D5
330
1F
100
AcDbEntity
  8
P
  6
Continuous
 62
     0
100
AcDbPolyline
 90
        2
 70
     0
 43
0.0
 10
86.49024321813158
 20
246.4909487756295
 10
86.49024321813158
 20
246.4909487756295
  0
LWPOLYLINE
  5
10116D6
330
1F
100
AcDbEntity
  8
P
  6
Continuous
 62
     0
100
AcDbPolyline
 90
        2
 70
     0
 43
0.0
 10
86.57357655146491
 20
246.4909487756295
 10
80.57357655146491
 20
244.9076154422961
  0
LWPOLYLINE
  5
10116D7
330
1F
100
AcDbEntity
  8
P
  6
Continuous
 62
     0
100
AcDbPolyline
 90
        2
 70
     0
 43
0.0
 10
86.57357655146491
 20
246.4909487756295
 10
80.57357655146491
 20
244.9076154422961
  0
LWPOLYLINE
  5
10116D8
330
1F
100
AcDbEntity
  8
P
  6
Continuous
 62
     0
100
AcDbPolyline
 90
        2
 70
     0
 43
0.0
 10
86.57357655146491
 20
246.4909487756295
 10
86.57357655146491
 20
246.4909487756295
  0
LWPOLYLINE
  5
10116D9
330
1F
100
AcDbEntity
  8
P
  6
Continuous
 62
     0
100
AcDbPolyline
 90
        2
 70
     0
 43
0.0
 10
80.57357655146491
 20
244.9076154422961
 10
80.57357655146491
 20
244.9076154422961
  0
LWPOLYLINE
  5
10116DA
330
1F
100
AcDbEntity
  8
P
  6
Continuous
 62
     0
100
AcDbPolyline
 90
        2
 70
     0
 43
0.0
 10
80.57357655146491
 20
244.9076154422961
 10
86.57357655146491
 20
243.3242821089628
  0
LWPOLYLINE
  5
10116DB
330
1F
100
AcDbEntity
  8
P
  6
Continuous
 62
     0
100
AcDbPolyline
 90
        2
 70
     0
 43
0.0
 10
80.57357655146491
 20
244.9076154422961
 10
86.57357655146491
 20
243.3242821089628
  0
LWPOLYLINE
  5
10116DC
330
1F
100
AcDbEntity
  8
P
  6
Continuous
 62
     0
100
AcDbPolyline
 90
        2
 70
     0
 43
0.0
 10
80.57357655146491
 20
244.9076154422961
 10
80.57357655146491
 20
244.9076154422961
  0
LWPOLYLINE
  5
10116DD
330
1F
100
AcDbEntity
  8
P
  6
Continuous
 62
     0
100
AcDbPolyline
 90
        2
 70
     0
 43
0.0
 10
86.57357655146491
 20
243.3242821089628
 10
86.57357655146491
 20
243.3242821089628
  0
LWPOLYLINE
  5
10116DE
330
1F
100
AcDbEntity
  8
P
  6
Continuous
 62
     0
100
AcDbPolyline
 90
        2
 70
     0
 43
0.0
 10
86.57357655146491
 20
243.3242821089628
 10
83.65690988479824
 20
242.4909487756295
  0
LWPOLYLINE
  5
10116DF
330
1F
100
AcDbEntity
  8
P
  6
Continuous
 62
     0
100
AcDbPolyline
 90
        2
 70
     0
 43
0.0
 10
86.57357655146491
 20
243.3242821089628
 10
83.65690988479824
 20
242.4909487756295
  0
LWPOLYLINE
  5
10116E0
330
1F
100
AcDbEntity
  8
P
  6
Continuous
 62
     0
100
AcDbPolyline
 90
        2
 70
     0
 43
0.0
 10
86.57357655146491
 20
243.3242821089628
 10
86.57357655146491
 20
243.3242821089628
  0
LWPOLYLINE
  5
10116E1
330
1F
100
AcDbEntity
  8
P
  6
Continuous
 62
     0
100
AcDbPolyline
 90
        2
 70
     0
 43
0.0
 10
83.65690988479824
 20
242.4909487756295
 10
83.65690988479824
 20
242.4909487756295
  0
LWPOLYLINE
  5
10116E2
330
1F
100
AcDbEntity
  8
P
  6
Continuous
 62
     0
100
AcDbPolyline
 90
       17
 70
     0
 43
0.0
 10
83.74024321813157
 20
238.5742821089628
 10
83.8235765514649
 20
238.8242821089628
 10
83.8235765514649
 20
239.0742821089628
 10
83.8235765514649
 20
239.3242821089628
 10
83.8235765514649
 20
239.4909487756295
 10
83.65690988479824
 20
239.9909487756295
 10
83.49024321813159
 20
240.4076154422961
 10
83.24024321813158
 20
240.8242821089628
 10
82.82357655146491
 20
241.1576154422961
 10
82.65690988479825
 20
241.2409487756295
 10
82.49024321813157
 20
241.4076154422961
 10
82.24024321813159
 20
241.4909487756295
 10
81.99024321813158
 20
241.5742821089628
 10
81.65690988479825
 20
241.6576154422962
 10
81.24024321813157
 20
241.6576154422962
 10
80.90690988479826
 20
241.5742821089628
 10
80.57357655146491
 20
241.4909487756295
  0
LWPOLYLINE
  5
10116E3
330
1F
100
AcDbEntity
  8
P
  6
Continuous
 62
     0
100
AcDbPolyline
 90
        9
 70
     0
 43
0.0
 10
80.49024321813158
 20
231.9076154422961
 10
80.65690988479826
 20
232.1576154422961
 10
80.90690988479826
 20
232.4076154422961
 10
80.99024321813159
 20
232.7409487756295
 10
81.15690988479824
 20
232.9909487756295
 10
81.15690988479824
 20
233.3242821089628
 10
81.24024321813157
 20
233.6576154422961
 10
81.15690988479824
 20
233.9909487756295
 10
81.15690988479824
 20
234.2409487756295
  0
LWPOLYLINE
  5
10116E4
330
1F
100
AcDbEntity
  8
P
  6
Continuous
 62
     0
100
AcDbPolyline
 90
        2
 70
     0
 43
0.0
 10
81.15690988479824
 20
234.2409487756295
 10
80.57357655146491
 20
235.4076154422962
  0
HATCH
  5
10116E5
330
1F
100
AcDbEntity
  8
H
  6
Continuous
 62
     0
100
AcDbHatch
 10
0.0
 20
0.0
 30
0.0
210
0.0
220
0.0
230
1.0
  2
SOLID
 70
     1
 71
     0
 91
        1
 92
        1
 93
        4
 72
     1
 10
138.2402432181315
 20
258.4909487756295
 11
139.2402432181315
 21
258.4909487756295
 72
     1
 10
139.2402432181315
 20
258.4909487756295
 11
139.2402432181315
 21
259.4909487756295
 72
     1
 10
139.2402432181315
 20
259.4909487756295
 11
138.2402432181315
 21
259.4909487756295
 72
     1
 10
138.2402432181315
 20
259.4909487756295
 11
138.2402432181315
 21
258.4909487756295
 97
        0
 75
     0
 76
     1
 98
        0
450
        0
451
        0
460
0.0
461
0.0
452
        1
462
0.0
453
        0
470

  0
LWPOLYLINE
  5
10116E6
330
1F
100
AcDbEntity
  8
P
  6
Continuous
 62
     0
100
AcDbPolyline
 90
        2
 70
     0
 43
0.0
 10
129.7402432181316
 20
295.6576154422961
 10
129.7402432181316
 20
252.3242821089628
  0
LWPOLYLINE
  5
10116E7
330
1F
100
AcDbEntity
  8
P
  6
Continuous
 62
     0
100
AcDbPolyline
 90
        2
 70
     0
 43
0.0
 10
138.7402432181316
 20
295.6576154422961
 10
138.7402432181316
 20
259.4909487756295
  0
LWPOLYLINE
  5
10116E8
330
1F
100
AcDbEntity
  8
P
  6
Continuous
 62
     0
100
AcDbPolyline
 90
        2
 70
     0
 43
0.0
 10
148.0735765514649
 20
295.6576154422961
 10
148.0735765514649
 20
259.9076154422961
  0
LWPOLYLINE
  5
10116E9
330
1F
100
AcDbEntity
  8
P
  6
Continuous
 62
     0
100
AcDbPolyline
 90
        2
 70
     0
 43
0.0
 10
157.0735765514649
 20
295.6576154422961
 10
157.0735765514649
 20
265.9909487756295
  0
LWPOLYLINE
  5
10116EA
330
1F
100
AcDbEntity
  8
P
  6
Continuous
 62
     0
100
AcDbPolyline
 90
        2
 70
     0
 43
0.0
 10
166.2402432181315
 20
295.6576154422961
 10
166.2402432181315
 20
262.3242821089629
  0
LWPOLYLINE
  5
10116EB
330
1F
100
AcDbEntity
  8
P
  6
Continuous
 62
     0
100
AcDbPolyline
 90
        2
 70
     0
 43
0.0
 10
175.2402432181316
 20
295.6576154422961
 10
175.2402432181316
 20
265.9909487756295
  0
LWPOLYLINE
  5
10116EC
330
1F
100
AcDbEntity
  8
P
  6
Continuous
 62
     0
100
AcDbPolyline
 90
        2
 70
     0
 43
0.0
 10
106.7402432181316
 20
295.6576154422961
 10
106.7402432181316
 20
270.9076154422961
  0
LWPOLYLINE
  5
10116ED
330
1F
100
AcDbEntity
  8
P
  6
Continuous
 62
     0
100
AcDbPolyline
 90
        2
 70
     0
 43
0.0
 10
115.3235765514649
 20
295.6576154422961
 10
115.3235765514649
 20
269.4076154422961
  0
MTEXT
  5
10116EE
330
1F
100
AcDbEntity
  8
Text
  6
Continuous
 62
     0
100
AcDbMText
 10
128.7402432181315
 20
300.4076154422961
 30
0.0
 40
3.25
 41
3.5
 46
0.0
 71
     4
 72
     5
  1
{\fHelveticaNeueLTPro|b0|i0|c1|p15;1}
 73
     2
 44
1.0
  0
MTEXT
  5
10116EF
330
1F
100
AcDbEntity
  8
Text
  6
Continuous
 62
     0
100
AcDbMText
 10
137.7402432181316
 20
300.3242821089628
 30
0.0
 40
3.25
 41
3.5
 46
0.0
 71
     4
 72
     5
  1
{\fHelveticaNeueLTPro|b0|i0|c1|p15;2}
 73
     2
 44
1.0
  0
MTEXT
  5
10116F0
330
1F
100
AcDbEntity
  8
Text
  6
Continuous
 62
     0
100
AcDbMText
 10
147.0735765514649
 20
300.3242821089628
 30
0.0
 40
3.25
 41
3.5
 46
0.0
 71
     4
 72
     5
  1
{\fHelveticaNeueLTPro|b0|i0|c1|p15;3}
 73
     2
 44
1.0
  0
MTEXT
  5
10116F1
330
1F
100
AcDbEntity
  8
Text
  6
Continuous
 62
     0
100
AcDbMText
 10
156.0735765514649
 20
300.3242821089628
 30
0.0
 40
3.25
 41
3.5
 46
0.0
 71
     4
 72
     5
  1
{\fHelveticaNeueLTPro|b0|i0|c1|p15;6}
 73
     2
 44
1.0
  0
MTEXT
  5
10116F2
330
1F
100
AcDbEntity
  8
Text
  6
Continuous
 62
     0
100
AcDbMText
 10
165.2402432181315
 20
300.3242821089628
 30
0.0
 40
3.25
 41
3.5
 46
0.0
 71
     4
 72
     5
  1
{\fHelveticaNeueLTPro|b0|i0|c1|p15;4}
 73
     2
 44
1.0
  0
MTEXT
  5
10116F3
330
1F
100
AcDbEntity
  8
Text
  6
Continuous
 62
     0
100
AcDbMText
 10
174.2402432181316
 20
300.3242821089628
 30
0.0
 40
3.25
 41
3.5
 46
0.0
 71
     4
 72
     5
  1
{\fHelveticaNeueLTPro|b0|i0|c1|p15;5}
 73
     2
 44
1.0
  0
MTEXT
  5
10116F4
330
1F
100
AcDbEntity
  8
Text
  6
Continuous
 62
     0
100
AcDbMText
 10
105.7402432181316
 20
300.3242821089628
 30
0.0
 40
3.25
 41
3.5
 46
0.0
 71
     4
 72
     5
  1
{\fHelveticaNeueLTPro|b0|i0|c1|p15;8}
 73
     2
 44
1.0
  0
MTEXT
  5
10116F5
330
1F
100
AcDbEntity
  8
Text
  6
Continuous
 62
     0
100
AcDbMText
 10
114.3235765514649
 20
300.3242821089628
 30
0.0
 40
3.25
 41
3.5
 46
0.0
 71
     4
 72
     5
  1
{\fHelveticaNeueLTPro|b0|i0|c1|p15;9}
 73
     2
 44
1.0
  0
ENDSEC
  0
SECTION
  2
OBJECTS
  0
DICTIONARY
  5
C
330
0
100
AcDbDictionary
281
     1
  3
ACAD_CIP_PREVIOUS_PRODUCT_INFO
350
10051
  3
ACAD_COLOR
350
10034
  3
ACAD_DETAILVIEWSTYLE
350
1004D
  3
ACAD_GROUP
350
D
  3
ACAD_LAYOUT
350
1A
  3
ACAD_MATERIAL
350
10002
  3
ACAD_MLEADERSTYLE
350
10049
  3
ACAD_MLINESTYLE
350
17
  3
ACAD_PLOTSETTINGS
350
19
  3
ACAD_PLOTSTYLENAME
350
E
  3
ACAD_SCALELIST
350
10037
  3
ACAD_SECTIONVIEWSTYLE
350
1004B
  3
ACAD_TABLESTYLE
350
10035
  3
ACAD_VISUALSTYLE
350
1001B
  3
ACDB_RECOMPOSE_DATA
350
1011701
  3
AcDbVariableDictionary
350
2D6
  0
DICTIONARY
  5
100FC
330
8
100
AcDbDictionary
280
     1
281
     1
  0
DICTIONARY
  5
101018B
330
2
100
AcDbDictionary
280
     1
281
     1
  3
ACAD_LAYERSTATES
360
101018C
  0
DICTIONARY
  5
10059
330
10
100
AcDbDictionary
280
     1
281
     1
  3
ADSK_XREC_LAYER_RECONCILED
360
1005A
  0
DICTIONARY
  5
1005B
330
47
100
AcDbDictionary
280
     1
281
     1
  3
ADSK_XREC_LAYER_RECONCILED
360
1005C
  0
DICTIONARY
  5
1005D
330
48
100
AcDbDictionary
280
     1
281
     1
  3
ADSK_XREC_LAYER_RECONCILED
360
1005E
  0
DICTIONARY
  5
1005F
330
49
100
AcDbDictionary
280
     1
281
     1
  3
ADSK_XREC_LAYER_RECONCILED
360
10060
  0
DICTIONARY
  5
10061
330
4A
100
AcDbDictionary
280
     1
281
     1
  3
ADSK_XREC_LAYER_RECONCILED
360
10062
  0
XRECORD
  5
10051
102
{ACAD_REACTORS
330
C
102
}
330
C
100
AcDbXrecord
280
     1
300
ACDLT
300
2017
300
ACDLT_F_S
  0
DICTIONARY
  5
10034
102
{ACAD_REACTORS
330
C
102
}
330
C
100
AcDbDictionary
281
     1
  0
DICTIONARY
  5
1004D
102
{ACAD_REACTORS
330
C
102
}
330
C
100
AcDbDictionary
281
     1
  3
Imperial24
350
1004E
  0
DICTIONARY
  5
D
330
C
100
AcDbDictionary
281
     1
  0
DICTIONARY
  5
1A
330
C
100
AcDbDictionary
281
     1
  3
Layout1
350
1E
  3
Layout2
350
26
  3
Model
350
22
  0
DICTIONARY
  5
10002
102
{ACAD_REACTORS
330
C
102
}
330
C
100
AcDbDictionary
281
     1
  3
ByBlock
350
1000B
  3
ByLayer
350
10003
  3
Global
350
10013
  0
DICTIONARY
  5
10049
102
{ACAD_REACTORS
330
C
102
}
330
C
100
AcDbDictionary
281
     1
  3
Standard
350
1004A
  0
DICTIONARY
  5
17
330
C
100
AcDbDictionary
281
     1
  3
Standard
350
18
  0
DICTIONARY
  5
19
330
C
100
AcDbDictionary
281
     1
  0
ACDBDICTIONARYWDFLT
  5
E
330
C
100
AcDbDictionary
281
     1
  3
Normal
350
F
100
AcDbDictionaryWithDefault
340
F
  0
DICTIONARY
  5
10037
102
{ACAD_REACTORS
330
C
102
}
330
C
100
AcDbDictionary
281
     1
  3
A0
350
10038
  3
A1
350
10039
  3
A2
350
1003A
  3
A3
350
1003B
  3
A4
350
1003C
  3
A5
350
1003D
  3
A6
350
1003E
  3
A7
350
1003F
  3
A8
350
10040
  3
A9
350
10041
  3
B0
350
10042
  3
B1
350
10043
  3
B2
350
10044
  3
B3
350
10045
  3
B4
350
10046
  3
B5
350
10047
  3
B6
350
10048
  0
DICTIONARY
  5
1004B
102
{ACAD_REACTORS
330
C
102
}
330
C
100
AcDbDictionary
281
     1
  3
Imperial24
350
1004C
  0
DICTIONARY
  5
10035
102
{ACAD_REACTORS
330
C
102
}
330
C
100
AcDbDictionary
281
     1
  3
Standard
350
10036
  0
DICTIONARY
  5
1001B
102
{ACAD_REACTORS
330
C
102
}
330
C
100
AcDbDictionary
281
     1
  3
2dWireframe
350
10021
  3
Basic
350
10020
  3
Brighten
350
10027
  3
ColorChange
350
1002B
  3
Conceptual
350
10024
  3
Dim
350
10026
  3
EdgeColorOff
350
10033
  3
Facepattern
350
1002A
  3
Flat
350
1001C
  3
FlatWithEdges
350
1001D
  3
Gouraud
350
1001E
  3
GouraudWithEdges
350
1001F
  3
Hidden
350
10023
  3
JitterOff
350
10031
  3
Linepattern
350
10029
  3
OverhangOff
350
10032
  3
Realistic
350
10025
  3
Shaded
350
10030
  3
Shaded with edges
350
1002F
  3
Shades of Gray
350
1002C
  3
Sketchy
350
1002D
  3
Thicken
350
10028
  3
Wireframe
350
10022
  3
X-Ray
350
1002E
  0
XRECORD
  5
1011701
102
{ACAD_REACTORS
330
C
102
}
330
C
100
AcDbXrecord
280
     1
 90
        1
330
10036
330
1004C
330
1004E
  0
DICTIONARY
  5
2D6
330
C
100
AcDbDictionary
281
     1
  3
CANNOSCALE
350
10067
  3
CMLEADERSTYLE
350
10064
  3
CTABLESTYLE
350
10063
  3
CVIEWDETAILSTYLE
350
10065
  3
CVIEWSECTIONSTYLE
350
10066
  3
DIMASSOC
350
2D8
  3
HIDETEXT
350
2D7
  3
INDEXCTL
350
10069
  3
LAYEREVAL
350
1011082
  3
LAYERNOTIFY
350
1011083
  3
LIGHTINGUNITS
350
1011081
  3
MSLTSCALE
350
1011080
  3
SORTENTS
350
10068
  0
DICTIONARY
  5
101018C
102
{ACAD_REACTORS
330
101018B
102
}
330
101018B
100
AcDbDictionary
281
     1
  0
XRECORD
  5
1005A
102
{ACAD_REACTORS
330
10059
102
}
330
10059
100
AcDbXrecord
280
     1
290
     1
  0
XRECORD
  5
1005C
102
{ACAD_REACTORS
330
1005B
102
}
330
1005B
100
AcDbXrecord
280
     1
290
     1
  0
XRECORD
  5
1005E
102
{ACAD_REACTORS
330
1005D
102
}
330
1005D
100
AcDbXrecord
280
     1
290
     1
  0
XRECORD
  5
10060
102
{ACAD_REACTORS
330
1005F
102
}
330
1005F
100
AcDbXrecord
280
     1
290
     1
  0
XRECORD
  5
10062
102
{ACAD_REACTORS
330
10061
102
}
330
10061
100
AcDbXrecord
280
     1
290
     1
  0
ACDBDETAILVIEWSTYLE
  5
1004E
102
{ACAD_XDICTIONARY
360
101107D
102
}
102
{ACAD_REACTORS
330
1004D
102
}
330
1004D
100
AcDbModelDocViewStyle
 70
     0
  3
Imperial24
290
     0
100
AcDbDetailViewStyle
 70
     0
 71
     0
 90
        3
 71
     1
340
11
 62
   256
 40
0.24
340
0
 62
   256
 40
0.24
300

 40
0.36
280
     3
 71
     2
340
16
 90
       25
 62
   256
 71
     3
340
11
 62
   256
 40
0.24
 90
        1
 40
0.75
 90
        1
300
%<\AcVar ViewType \f "%tc1">% %<\AcVar ViewDetailId>%\PVARIA %<\AcVar ViewScale \f "%sn">%
 71
     4
340
16
 90
       25
 62
   256
340
16
 90
       25
 62
   256
280
     0
  0
LAYOUT
  5
1E
330
1A
100
AcDbPlotSettings
  1

  2
C:\Program Files\AutoCAD 2002\plotters\DWF ePlot (optimized for plotting).pc3
  4

  6

 40
0.0
 41
0.0
 42
0.0
 43
0.0
 44
0.0
 45
0.0
 46
0.0
 47
0.0
 48
0.0
 49
0.0
140
0.0
141
0.0
142
1.0
143
1.0
 70
   688
 72
     0
 73
     0
 74
     5
  7

 75
    16
147
1.0
 76
     0
 77
     2
 78
   300
148
0.0
149
0.0
100
AcDbLayout
  1
Layout1
 70
     1
 71
     1
 10
0.0
 20
0.0
 11
12.0
 21
9.0
 12
0.0
 22
0.0
 32
0.0
 14
1.000000000000000E+20
 24
1.000000000000000E+20
 34
1.000000000000000E+20
 15
-1.000000000000000E+20
 25
-1.000000000000000E+20
 35
-1.000000000000000E+20
146
0.0
 13
0.0
 23
0.0
 33
0.0
 16
1.0
 26
0.0
 36
0.0
 17
0.0
 27
1.0
 37
0.0
 76
     0
330
1B
  0
LAYOUT
  5
26
330
1A
100
AcDbPlotSettings
  1

  2
C:\Program Files\AutoCAD 2002\plotters\DWF ePlot (optimized for plotting).pc3
  4

  6

 40
0.0
 41
0.0
 42
0.0
 43
0.0
 44
0.0
 45
0.0
 46
0.0
 47
0.0
 48
0.0
 49
0.0
140
0.0
141
0.0
142
1.0
143
1.0
 70
   688
 72
     0
 73
     0
 74
     5
  7

 75
    16
147
1.0
 76
     0
 77
     2
 78
   300
148
0.0
149
0.0
100
AcDbLayout
  1
Layout2
 70
     1
 71
     2
 10
0.0
 20
0.0
 11
12.0
 21
9.0
 12
0.0
 22
0.0
 32
0.0
 14
0.0
 24
0.0
 34
0.0
 15
0.0
 25
0.0
 35
0.0
146
0.0
 13
0.0
 23
0.0
 33
0.0
 16
1.0
 26
0.0
 36
0.0
 17
0.0
 27
1.0
 37
0.0
 76
     0
330
23
  0
LAYOUT
  5
22
330
1A
100
AcDbPlotSettings
  1

  2
C:\Program Files\AutoCAD 2002\plotters\DWF ePlot (optimized for plotting).pc3
  4

  6

 40
0.0
 41
0.0
 42
0.0
 43
0.0
 44
0.0
 45
0.0
 46
0.0
 47
0.0
 48
0.0
 49
0.0
140
0.0
141
0.0
142
1.0
143
1.0
 70
  1712
 72
     0
 73
     0
 74
     0
  7

 75
     0
147
1.0
 76
     0
 77
     2
 78
   300
148
0.0
149
0.0
100
AcDbLayout
  1
Model
 70
     1
 71
     0
 10
0.0
 20
0.0
 11
12.0
 21
9.0
 12
0.0
 22
0.0
 32
0.0
 14
0.0
 24
0.0
 34
0.0
 15
0.0
 25
0.0
 35
0.0
146
0.0
 13
0.0
 23
0.0
 33
0.0
 16
1.0
 26
0.0
 36
0.0
 17
0.0
 27
1.0
 37
0.0
 76
     0
330
1F
331
30
  0
MATERIAL
  5
1000B
102
{ACAD_XDICTIONARY
360
1000C
102
}
102
{ACAD_REACTORS
330
10002
102
}
330
10002
100
AcDbMaterial
  1
ByBlock
 72
     0
 43
0.0208333333333333
 43
0.0
 43
0.0
 43
0.0
 43
0.0
 43
0.0208333333333333
 43
0.0
 43
0.0
 43
0.0
 43
0.0
 43
1.0
 43
0.0
 43
0.0
 43
0.0
 43
0.0
 43
1.0
 77
     0
 47
0.0208333333333333
 47
0.0
 47
0.0
 47
0.0
 47
0.0
 47
0.0208333333333333
 47
0.0
 47
0.0
 47
0.0
 47
0.0
 47
1.0
 47
0.0
 47
0.0
 47
0.0
 47
0.0
 47
1.0
171
     0
 49
0.0208333333333333
 49
0.0
 49
0.0
 49
0.0
 49
0.0
 49
0.0208333333333333
 49
0.0
 49
0.0
 49
0.0
 49
0.0
 49
1.0
 49
0.0
 49
0.0
 49
0.0
 49
0.0
 49
1.0
175
     0
142
0.0208333333333333
142
0.0
142
0.0
142
0.0
142
0.0
142
0.0208333333333333
142
0.0
142
0.0
142
0.0
142
0.0
142
1.0
142
0.0
142
0.0
142
0.0
142
0.0
142
1.0
179
     0
144
0.0208333333333333
144
0.0
144
0.0
144
0.0
144
0.0
144
0.0208333333333333
144
0.0
144
0.0
144
0.0
144
0.0
144
1.0
144
0.0
144
0.0
144
0.0
144
0.0
144
1.0
147
0.0208333333333333
147
0.0
147
0.0
147
0.0
147
0.0
147
0.0208333333333333
147
0.0
147
0.0
147
0.0
147
0.0
147
1.0
147
0.0
147
0.0
147
0.0
147
0.0
147
1.0
  0
MATERIAL
  5
10003
102
{ACAD_XDICTIONARY
360
10004
102
}
102
{ACAD_REACTORS
330
10002
102
}
330
10002
100
AcDbMaterial
  1
ByLayer
 72
     0
 43
0.0208333333333333
 43
0.0
 43
0.0
 43
0.0
 43
0.0
 43
0.0208333333333333
 43
0.0
 43
0.0
 43
0.0
 43
0.0
 43
1.0
 43
0.0
 43
0.0
 43
0.0
 43
0.0
 43
1.0
 77
     0
 47
0.0208333333333333
 47
0.0
 47
0.0
 47
0.0
 47
0.0
 47
0.0208333333333333
 47
0.0
 47
0.0
 47
0.0
 47
0.0
 47
1.0
 47
0.0
 47
0.0
 47
0.0
 47
0.0
 47
1.0
171
     0
 49
0.0208333333333333
 49
0.0
 49
0.0
 49
0.0
 49
0.0
 49
0.0208333333333333
 49
0.0
 49
0.0
 49
0.0
 49
0.0
 49
1.0
 49
0.0
 49
0.0
 49
0.0
 49
0.0
 49
1.0
175
     0
142
0.0208333333333333
142
0.0
142
0.0
142
0.0
142
0.0
142
0.0208333333333333
142
0.0
142
0.0
142
0.0
142
0.0
142
1.0
142
0.0
142
0.0
142
0.0
142
0.0
142
1.0
179
     0
144
0.0208333333333333
144
0.0
144
0.0
144
0.0
144
0.0
144
0.0208333333333333
144
0.0
144
0.0
144
0.0
144
0.0
144
1.0
144
0.0
144
0.0
144
0.0
144
0.0
144
1.0
147
0.0208333333333333
147
0.0
147
0.0
147
0.0
147
0.0
147
0.0208333333333333
147
0.0
147
0.0
147
0.0
147
0.0
147
1.0
147
0.0
147
0.0
147
0.0
147
0.0
147
1.0
  0
MATERIAL
  5
10013
102
{ACAD_XDICTIONARY
360
10014
102
}
102
{ACAD_REACTORS
330
10002
102
}
330
10002
100
AcDbMaterial
  1
Global
 72
     0
 43
0.0208333333333333
 43
0.0
 43
0.0
 43
0.0
 43
0.0
 43
0.0208333333333333
 43
0.0
 43
0.0
 43
0.0
 43
0.0
 43
1.0
 43
0.0
 43
0.0
 43
0.0
 43
0.0
 43
1.0
 77
     0
 47
0.0208333333333333
 47
0.0
 47
0.0
 47
0.0
 47
0.0
 47
0.0208333333333333
 47
0.0
 47
0.0
 47
0.0
 47
0.0
 47
1.0
 47
0.0
 47
0.0
 47
0.0
 47
0.0
 47
1.0
171
     0
 49
0.0208333333333333
 49
0.0
 49
0.0
 49
0.0
 49
0.0
 49
0.0208333333333333
 49
0.0
 49
0.0
 49
0.0
 49
0.0
 49
1.0
 49
0.0
 49
0.0
 49
0.0
 49
0.0
 49
1.0
175
     0
142
0.0208333333333333
142
0.0
142
0.0
142
0.0
142
0.0
142
0.0208333333333333
142
0.0
142
0.0
142
0.0
142
0.0
142
1.0
142
0.0
142
0.0
142
0.0
142
0.0
142
1.0
179
     0
144
0.0208333333333333
144
0.0
144
0.0
144
0.0
144
0.0
144
0.0208333333333333
144
0.0
144
0.0
144
0.0
144
0.0
144
1.0
144
0.0
144
0.0
144
0.0
144
0.0
144
1.0
147
0.0208333333333333
147
0.0
147
0.0
147
0.0
147
0.0
147
0.0208333333333333
147
0.0
147
0.0
147
0.0
147
0.0
147
1.0
147
0.0
147
0.0
147
0.0
147
0.0
147
1.0
  0
MLEADERSTYLE
  5
1004A
102
{ACAD_REACTORS
330
10049
102
}
330
10049
100
AcDbMLeaderStyle
179
     2
170
     2
171
     1
172
     0
 90
        2
 40
0.0
 41
0.0
173
     1
 91
-1056964608
340
14
 92
       -2
290
     1
 42
0.09
291
     1
 43
0.36
  3
Standard
 44
0.18
300

342
11
174
     1
178
     6
175
     1
176
     0
 93
-1056964608
 45
0.18
292
     0
297
     0
 46
0.18
 94
-1056964608
 47
1.0
 49
1.0
140
1.0
293
     1
141
0.0
294
     1
177
     0
142
1.0
295
     0
296
     0
143
0.125
271
     0
272
     9
273
     9
298
     0
  0
MLINESTYLE
  5
18
330
17
100
AcDbMlineStyle
  2
STANDARD
 70
     0
  3

 62
   256
 51
90.0
 52
90.0
 71
     2
 49
0.5
 62
   256
  6
BYLAYER
 49
-0.5
 62
   256
  6
BYLAYER
  0
ACDBPLACEHOLDER
  5
F
330
E
  0
SCALE
  5
10038
102
{ACAD_REACTORS
330
10037
102
}
330
10037
100
AcDbScale
 70
     0
300
1:1
140
1.0
141
1.0
290
     1
  0
SCALE
  5
10039
102
{ACAD_REACTORS
330
10037
102
}
330
10037
100
AcDbScale
 70
     0
300
1/128" = 1'-0"
140
0.0078125
141
12.0
290
     0
  0
SCALE
  5
1003A
102
{ACAD_REACTORS
330
10037
102
}
330
10037
100
AcDbScale
 70
     0
300
1/64" = 1'-0"
140
0.015625
141
12.0
290
     0
  0
SCALE
  5
1003B
102
{ACAD_REACTORS
330
10037
102
}
330
10037
100
AcDbScale
 70
     0
300
1/32" = 1'-0"
140
0.03125
141
12.0
290
     0
  0
SCALE
  5
1003C
102
{ACAD_REACTORS
330
10037
102
}
330
10037
100
AcDbScale
 70
     0
300
1/16" = 1'-0"
140
0.0625
141
12.0
290
     0
  0
SCALE
  5
1003D
102
{ACAD_REACTORS
330
10037
102
}
330
10037
100
AcDbScale
 70
     0
300
3/32" = 1'-0"
140
0.09375
141
12.0
290
     0
  0
SCALE
  5
1003E
102
{ACAD_REACTORS
330
10037
102
}
330
10037
100
AcDbScale
 70
     0
300
1/8" = 1'-0"
140
0.125
141
12.0
290
     0
  0
SCALE
  5
1003F
102
{ACAD_REACTORS
330
10037
102
}
330
10037
100
AcDbScale
 70
     0
300
3/16" = 1'-0"
140
0.1875
141
12.0
290
     0
  0
SCALE
  5
10040
102
{ACAD_REACTORS
330
10037
102
}
330
10037
100
AcDbScale
 70
     0
300
1/4" = 1'-0"
140
0.25
141
12.0
290
     0
  0
SCALE
  5
10041
102
{ACAD_REACTORS
330
10037
102
}
330
10037
100
AcDbScale
 70
     0
300
3/8" = 1'-0"
140
0.375
141
12.0
290
     0
  0
SCALE
  5
10042
102
{ACAD_REACTORS
330
10037
102
}
330
10037
100
AcDbScale
 70
     0
300
1/2" = 1'-0"
140
0.5
141
12.0
290
     0
  0
SCALE
  5
10043
102
{ACAD_REACTORS
330
10037
102
}
330
10037
100
AcDbScale
 70
     0
300
3/4" = 1'-0"
140
0.75
141
12.0
290
     0
  0
SCALE
  5
10044
102
{ACAD_REACTORS
330
10037
102
}
330
10037
100
AcDbScale
 70
     0
300
1" = 1'-0"
140
1.0
141
12.0
290
     0
  0
SCALE
  5
10045
102
{ACAD_REACTORS
330
10037
102
}
330
10037
100
AcDbScale
 70
     0
300
1-1/2" = 1'-0"
140
1.5
141
12.0
290
     0
  0
SCALE
  5
10046
102
{ACAD_REACTORS
330
10037
102
}
330
10037
100
AcDbScale
 70
     0
300
3" = 1'-0"
140
3.0
141
12.0
290
     0
  0
SCALE
  5
10047
102
{ACAD_REACTORS
330
10037
102
}
330
10037
100
AcDbScale
 70
     0
300
6" = 1'-0"
140
6.0
141
12.0
290
     0
  0
SCALE
  5
10048
102
{ACAD_REACTORS
330
10037
102
}
330
10037
100
AcDbScale
 70
     0
300
1'-0" = 1'-0"
140
12.0
141
12.0
290
     0
  0
ACDBSECTIONVIEWSTYLE
  5
1004C
102
{ACAD_XDICTIONARY
360
101107B
102
}
102
{ACAD_REACTORS
330
1004B
102
}
330
1004B
100
AcDbModelDocViewStyle
 70
     0
  3
Imperial24
290
     0
100
AcDbSectionViewStyle
 70
     0
 71
     0
 90
       78
 71
     1
340
11
 62
   256
 40
0.24
340
0
340
0
 62
   256
 40
0.24
300
I, O, Q, S, X, Z
 40
0.48
 90
        3
 40
0.18
 90
        1
 71
     2
340
16
 90
       25
 62
   256
340
16
 90
       50
 62
   256
 40
0.24
 40
0.0
 40
0.24
 71
     3
340
11
 62
   256
 40
0.24
 90
        1
 40
0.75
 90
        1
300
%<\AcVar ViewType \f "%tc1">% %<\AcVar ViewSectionStartId>%-%<\AcVar ViewSectionEndId>%\PVARIA %<\AcVar ViewScale \f "%sn">%
 71
     4
 62
   256
 62
   257
300
ANSI31
 40
1.0
 90
        0
290
     0
290
     0
 90
        6
 40
0.0
 40
1.570796326794896
 40
0.2617993877991494
 40
1.308996938995747
 40
-0.2617993877991494
 40
1.832595714594045
  0
TABLESTYLE
  5
10036
102
{ACAD_XDICTIONARY
360
1006C
102
}
102
{ACAD_REACTORS
330
10035
102
}
330
10035
100
AcDbTableStyle
280
     0
  3
Standard
 70
     0
 71
     0
 40
0.06
 41
0.06
280
     0
281
     0
  7
Standard
140
0.18
170
     2
 62
     0
 63
     7
283
     0
 90
      512
 91
        0
  1

274
    -2
284
     1
 64
     0
275
    -2
285
     1
 65
     0
276
    -2
286
     1
 66
     0
277
    -2
287
     1
 67
     0
278
    -2
288
     1
 68
     0
279
    -2
289
     1
 69
     0
  7
Standard
140
0.25
170
     5
 62
     0
 63
     7
283
     0
 90
      512
 91
        0
  1

274
    -2
284
     1
 64
     0
275
    -2
285
     1
 65
     0
276
    -2
286
     1
 66
     0
277
    -2
287
     1
 67
     0
278
    -2
288
     1
 68
     0
279
    -2
289
     1
 69
     0
  7
Standard
140
0.18
170
     5
 62
     0
 63
     7
283
     0
 90
      512
 91
        0
  1

274
    -2
284
     1
 64
     0
275
    -2
285
     1
 65
     0
276
    -2
286
     1
 66
     0
277
    -2
287
     1
 67
     0
278
    -2
288
     1
 68
     0
279
    -2
289
     1
 69
     0
  0
VISUALSTYLE
  5
10021
102
{ACAD_REACTORS
330
1001B
102
}
330
1001B
100
AcDbVisualStyle
  2

 70
     4
177
     3
291
     0
 70
    58
 90
        0
176
     1
 90
        2
176
     1
 90
        0
176
     1
 90
        0
176
     1
 40
0.6
176
     1
 40
30.0
176
     1
 62
     7
176
     1
 90
        1
176
     1
 90
        4
176
     1
 62
     7
176
     1
 62
   257
176
     1
 90
        1
176
     1
 90
        1
176
     1
 40
1.0
176
     1
 90
        0
176
     1
 62
   257
176
     1
 40
1.0
176
     1
 90
        1
176
     1
 90
        6
176
     1
 90
        2
176
     1
 62
     7
176
     1
 90
        5
176
     1
 90
        0
176
     1
 90
        0
176
     1
290
     0
176
     1
 90
        1
176
     1
 40
0.0
176
     1
 90
        0
176
     1
290
     1
176
     1
290
     1
176
     1
290
     0
176
     1
290
     0
176
     1
290
     0
176
     1
290
     0
176
     1
290
     0
176
     1
290
     0
176
     1
290
     0
176
     1
 90
       50
176
     1
 40
0.0
176
     1
 40
1.0
176
     1
 90
        0
176
     1
 62
    18
420
        0
176
     1
 90
       50
176
     1
 90
        3
176
     1
 62
     5
420
      255
176
     1
290
     0
176
     1
 90
       50
176
     1
 90
       50
176
     1
 90
       50
176
     1
290
     0
176
     1
 90
       50
176
     1
 62
   256
176
     0
 40
1.0
176
     0
 90
        2
176
     1
  1
strokes_ogs.tif
176
     1
290
     0
176
     1
 40
1.0
176
     1
 40
1.0
176
     1
  0
VISUALSTYLE
  5
10020
102
{ACAD_REACTORS
330
1001B
102
}
330
1001B
100
AcDbVisualStyle
  2

 70
     7
177
     3
291
     1
 70
    58
 90
        1
176
     1
 90
        0
176
     1
 90
        1
176
     1
 90
        0
176
     1
 40
0.6
176
     1
 40
30.0
176
     1
 62
     7
176
     1
 90
        0
176
     1
 90
        4
176
     1
 62
     7
176
     1
 62
   257
176
     1
 90
        1
176
     1
 90
        1
176
     1
 40
1.0
176
     1
 90
        8
176
     1
 62
     7
176
     1
 40
1.0
176
     1
 90
        1
176
     1
 90
        6
176
     1
 90
        2
176
     1
 62
     7
176
     1
 90
        5
176
     1
 90
        0
176
     1
 90
        0
176
     1
290
     0
176
     1
 90
        1
176
     1
 40
0.0
176
     1
 90
        0
176
     1
290
     0
176
     1
290
     1
176
     1
290
     1
176
     1
290
     0
176
     1
290
     0
176
     1
290
     0
176
     1
290
     0
176
     1
290
     0
176
     1
290
     0
176
     1
 90
       50
176
     1
 40
0.0
176
     1
 40
1.0
176
     1
 90
        0
176
     1
 62
    18
420
        0
176
     1
 90
       50
176
     1
 90
        3
176
     1
 62
     5
420
      255
176
     1
290
     0
176
     1
 90
       50
176
     1
 90
       50
176
     1
 90
       50
176
     1
290
     0
176
     1
 90
       50
176
     1
 62
   256
176
     0
 40
1.0
176
     0
 90
        2
176
     1
  1
strokes_ogs.tif
176
     1
290
     0
176
     1
 40
1.0
176
     1
 40
1.0
176
     1
  0
VISUALSTYLE
  5
10027
102
{ACAD_REACTORS
330
1001B
102
}
330
1001B
100
AcDbVisualStyle
  2

 70
    12
177
     3
291
     1
 70
    58
 90
        2
176
     1
 90
        2
176
     1
 90
        0
176
     1
 90
        0
176
     1
 40
0.6
176
     1
 40
30.0
176
     1
 62
     7
176
     1
 90
        1
176
     1
 90
        4
176
     1
 62
     7
176
     1
 62
   257
176
     1
 90
        1
176
     1
 90
        1
176
     1
 40
1.0
176
     1
 90
        8
176
     1
 62
     7
176
     1
 40
1.0
176
     1
 90
        1
176
     1
 90
        6
176
     1
 90
        2
176
     1
 62
     7
176
     1
 90
        5
176
     1
 90
        0
176
     1
 90
        0
176
     1
290
     0
176
     1
 90
        1
176
     1
 40
50.0
176
     1
 90
        0
176
     1
290
     0
176
     1
290
     1
176
     1
290
     1
176
     1
290
     0
176
     1
290
     0
176
     1
290
     0
176
     1
290
     0
176
     1
290
     0
176
     1
290
     0
176
     1
 90
       50
176
     1
 40
0.0
176
     1
 40
1.0
176
     1
 90
        0
176
     1
 62
    18
420
        0
176
     1
 90
       50
176
     1
 90
        3
176
     1
 62
     5
420
      255
176
     1
290
     0
176
     1
 90
       50
176
     1
 90
       50
176
     1
 90
       50
176
     1
290
     0
176
     1
 90
       50
176
     1
 62
   256
176
     0
 40
1.0
176
     0
 90
        2
176
     1
  1
strokes_ogs.tif
176
     1
290
     0
176
     1
 40
1.0
176
     1
 40
1.0
176
     1
  0
VISUALSTYLE
  5
1002B
102
{ACAD_REACTORS
330
1001B
102
}
330
1001B
100
AcDbVisualStyle
  2

 70
    16
177
     3
291
     1
 70
    58
 90
        2
176
     1
 90
        2
176
     1
 90
        3
176
     1
 90
        0
176
     1
 40
0.6
176
     1
 40
30.0
176
     1
 62
     8
176
     1
 90
        1
176
     1
 90
        4
176
     1
 62
     7
176
     1
 62
   257
176
     1
 90
        1
176
     1
 90
        1
176
     1
 40
1.0
176
     1
 90
        8
176
     1
 62
     8
176
     1
 40
1.0
176
     1
 90
        1
176
     1
 90
        6
176
     1
 90
        2
176
     1
 62
     7
176
     1
 90
        5
176
     1
 90
        0
176
     1
 90
        0
176
     1
290
     0
176
     1
 90
        1
176
     1
 40
0.0
176
     1
 90
        0
176
     1
290
     0
176
     1
290
     1
176
     1
290
     1
176
     1
290
     0
176
     1
290
     0
176
     1
290
     0
176
     1
290
     0
176
     1
290
     0
176
     1
290
     0
176
     1
 90
       50
176
     1
 40
0.0
176
     1
 40
1.0
176
     1
 90
        0
176
     1
 62
    18
420
        0
176
     1
 90
       50
176
     1
 90
        3
176
     1
 62
     5
420
      255
176
     1
290
     0
176
     1
 90
       50
176
     1
 90
       50
176
     1
 90
       50
176
     1
290
     0
176
     1
 90
       50
176
     1
 62
   256
176
     0
 40
1.0
176
     0
 90
        2
176
     1
  1
strokes_ogs.tif
176
     1
290
     0
176
     1
 40
1.0
176
     1
 40
1.0
176
     1
  0
VISUALSTYLE
  5
10024
102
{ACAD_REACTORS
330
1001B
102
}
330
1001B
100
AcDbVisualStyle
  2

 70
     9
177
     3
291
     0
 70
    58
 90
        3
176
     1
 90
        2
176
     1
 90
        0
176
     1
 90
        0
176
     1
 40
0.6
176
     1
 40
30.0
176
     1
 62
     7
176
     1
 90
        2
176
     1
 90
        2
176
     1
 62
     7
176
     1
 62
   257
176
     1
 90
        1
176
     1
 90
        1
176
     1
 40
179.0
176
     1
 90
        8
176
     1
 62
     7
176
     1
 40
1.0
176
     1
 90
        1
176
     1
 90
        6
176
     1
 90
        2
176
     1
 62
     7
176
     1
 90
        3
176
     1
 90
        0
176
     1
 90
        0
176
     1
290
     0
176
     1
 90
        1
176
     1
 40
0.0
176
     1
 90
        0
176
     1
290
     0
176
     1
290
     1
176
     1
290
     1
176
     1
290
     0
176
     1
290
     0
176
     1
290
     0
176
     1
290
     0
176
     1
290
     0
176
     1
290
     0
176
     1
 90
       50
176
     1
 40
0.0
176
     1
 40
1.0
176
     1
 90
        0
176
     1
 62
    18
420
        0
176
     1
 90
       50
176
     1
 90
        3
176
     1
 62
     5
420
      255
176
     1
290
     0
176
     1
 90
       50
176
     1
 90
       50
176
     1
 90
       50
176
     1
290
     0
176
     1
 90
       50
176
     1
 62
   256
176
     0
 40
1.0
176
     0
 90
        2
176
     1
  1
strokes_ogs.tif
176
     1
290
     0
176
     1
 40
1.0
176
     1
 40
1.0
176
     1
  0
VISUALSTYLE
  5
10026
102
{ACAD_REACTORS
330
1001B
102
}
330
1001B
100
AcDbVisualStyle
  2

 70
    11
177
     3
291
     1
 70
    58
 90
        2
176
     1
 90
        2
176
     1
 90
        0
176
     1
 90
        0
176
     1
 40
0.6
176
     1
 40
30.0
176
     1
 62
     7
176
     1
 90
        1
176
     1
 90
        4
176
     1
 62
     7
176
     1
 62
   257
176
     1
 90
        1
176
     1
 90
        1
176
     1
 40
1.0
176
     1
 90
        8
176
     1
 62
     7
176
     1
 40
1.0
176
     1
 90
        1
176
     1
 90
        6
176
     1
 90
        2
176
     1
 62
     7
176
     1
 90
        5
176
     1
 90
        0
176
     1
 90
        0
176
     1
290
     0
176
     1
 90
        1
176
     1
 40
-50.0
176
     1
 90
        0
176
     1
290
     0
176
     1
290
     1
176
     1
290
     1
176
     1
290
     0
176
     1
290
     0
176
     1
290
     0
176
     1
290
     0
176
     1
290
     0
176
     1
290
     0
176
     1
 90
       50
176
     1
 40
0.0
176
     1
 40
1.0
176
     1
 90
        0
176
     1
 62
    18
420
        0
176
     1
 90
       50
176
     1
 90
        3
176
     1
 62
     5
420
      255
176
     1
290
     0
176
     1
 90
       50
176
     1
 90
       50
176
     1
 90
       50
176
     1
290
     0
176
     1
 90
       50
176
     1
 62
   256
176
     0
 40
1.0
176
     0
 90
        2
176
     1
  1
strokes_ogs.tif
176
     1
290
     0
176
     1
 40
1.0
176
     1
 40
1.0
176
     1
  0
VISUALSTYLE
  5
10033
102
{ACAD_REACTORS
330
1001B
102
}
330
1001B
100
AcDbVisualStyle
  2

 70
    22
177
     3
291
     1
 70
    58
 90
        2
176
     0
 90
        2
176
     0
 90
        0
176
     0
 90
        0
176
     0
 40
0.6
176
     0
 40
30.0
176
     0
 62
     7
176
     0
 90
        1
176
     0
 90
        4
176
     0
 62
     7
176
     0
 62
   257
176
     0
 90
        1
176
     0
 90
        1
176
     0
 40
1.0
176
     0
 90
        8
176
     2
 62
     7
176
     0
 40
1.0
176
     0
 90
        1
176
     0
 90
        6
176
     0
 90
        2
176
     0
 62
     7
176
     0
 90
        5
176
     0
 90
        0
176
     0
 90
        0
176
     0
290
     0
176
     0
 90
        1
176
     0
 40
0.0
176
     0
 90
        0
176
     0
290
     0
176
     1
290
     1
176
     1
290
     1
176
     1
290
     0
176
     1
290
     0
176
     1
290
     0
176
     1
290
     0
176
     1
290
     0
176
     1
290
     0
176
     1
 90
       50
176
     0
 40
0.0
176
     0
 40
1.0
176
     0
 90
        0
176
     0
 62
    18
420
        0
176
     0
 90
       50
176
     0
 90
        3
176
     0
 62
     5
420
      255
176
     0
290
     0
176
     1
 90
       50
176
     0
 90
       50
176
     0
 90
       50
176
     0
290
     0
176
     1
 90
       50
176
     0
 62
   256
176
     0
 40
1.0
176
     0
 90
        2
176
     0
  1
strokes_ogs.tif
176
     0
290
     0
176
     1
 40
1.0
176
     0
 40
1.0
176
     0
  0
VISUALSTYLE
  5
1002A
102
{ACAD_REACTORS
330
1001B
102
}
330
1001B
100
AcDbVisualStyle
  2

 70
    15
177
     3
291
     1
 70
    58
 90
        2
176
     1
 90
        2
176
     1
 90
        0
176
     1
 90
        0
176
     1
 40
0.6
176
     1
 40
30.0
176
     1
 62
     7
176
     1
 90
        1
176
     1
 90
        4
176
     1
 62
     7
176
     1
 62
   257
176
     1
 90
        1
176
     1
 90
        1
176
     1
 40
1.0
176
     1
 90
        8
176
     1
 62
     7
176
     1
 40
1.0
176
     1
 90
        1
176
     1
 90
        6
176
     1
 90
        2
176
     1
 62
     7
176
     1
 90
        5
176
     1
 90
        0
176
     1
 90
        0
176
     1
290
     0
176
     1
 90
        1
176
     1
 40
0.0
176
     1
 90
        0
176
     1
290
     0
176
     1
290
     1
176
     1
290
     1
176
     1
290
     0
176
     1
290
     0
176
     1
290
     0
176
     1
290
     0
176
     1
290
     0
176
     1
290
     0
176
     1
 90
       50
176
     1
 40
0.0
176
     1
 40
1.0
176
     1
 90
        0
176
     1
 62
    18
420
        0
176
     1
 90
       50
176
     1
 90
        3
176
     1
 62
     5
420
      255
176
     1
290
     0
176
     1
 90
       50
176
     1
 90
       50
176
     1
 90
       50
176
     1
290
     0
176
     1
 90
       50
176
     1
 62
   256
176
     0
 40
1.0
176
     0
 90
        2
176
     1
  1
strokes_ogs.tif
176
     1
290
     0
176
     1
 40
1.0
176
     1
 40
1.0
176
     1
  0
VISUALSTYLE
  5
1001C
102
{ACAD_REACTORS
330
1001B
102
}
330
1001B
100
AcDbVisualStyle
  2

 70
     0
177
     3
291
     1
 70
    58
 90
        2
176
     1
 90
        1
176
     1
 90
        1
176
     1
 90
        2
176
     1
 40
0.6
176
     1
 40
30.0
176
     1
 62
     7
176
     1
 90
        0
176
     1
 90
        0
176
     1
 62
     7
176
     1
 62
   257
176
     1
 90
        1
176
     1
 90
        1
176
     1
 40
1.0
176
     1
 90
        8
176
     1
 62
     7
176
     1
 40
1.0
176
     1
 90
        1
176
     1
 90
        6
176
     1
 90
        2
176
     1
 62
     7
176
     1
 90
        5
176
     1
 90
        0
176
     1
 90
        0
176
     1
290
     0
176
     1
 90
       13
176
     1
 40
0.0
176
     1
 90
        0
176
     1
290
     0
176
     1
290
     1
176
     1
290
     1
176
     1
290
     0
176
     1
290
     0
176
     1
290
     0
176
     1
290
     0
176
     1
290
     0
176
     1
290
     0
176
     1
 90
       50
176
     1
 40
0.0
176
     1
 40
1.0
176
     1
 90
        0
176
     1
 62
    18
420
        0
176
     1
 90
       50
176
     1
 90
        3
176
     1
 62
     5
420
      255
176
     1
290
     0
176
     1
 90
       50
176
     1
 90
       50
176
     1
 90
       50
176
     1
290
     0
176
     1
 90
       50
176
     1
 62
   256
176
     0
 40
1.0
176
     0
 90
        2
176
     1
  1
strokes_ogs.tif
176
     1
290
     0
176
     1
 40
1.0
176
     1
 40
1.0
176
     1
  0
VISUALSTYLE
  5
1001D
102
{ACAD_REACTORS
330
1001B
102
}
330
1001B
100
AcDbVisualStyle
  2

 70
     1
177
     3
291
     1
 70
    58
 90
        2
176
     1
 90
        1
176
     1
 90
        1
176
     1
 90
        2
176
     1
 40
0.6
176
     1
 40
30.0
176
     1
 62
     7
176
     1
 90
        1
176
     1
 90
        0
176
     1
 62
     7
176
     1
 62
   257
176
     1
 90
        1
176
     1
 90
        1
176
     1
 40
1.0
176
     1
 90
        0
176
     1
 62
   257
176
     1
 40
1.0
176
     1
 90
        1
176
     1
 90
        6
176
     1
 90
        2
176
     1
 62
     7
176
     1
 90
        5
176
     1
 90
        0
176
     1
 90
        0
176
     1
290
     0
176
     1
 90
       13
176
     1
 40
0.0
176
     1
 90
        0
176
     1
290
     0
176
     1
290
     1
176
     1
290
     1
176
     1
290
     0
176
     1
290
     0
176
     1
290
     0
176
     1
290
     0
176
     1
290
     0
176
     1
290
     0
176
     1
 90
       50
176
     1
 40
0.0
176
     1
 40
1.0
176
     1
 90
        0
176
     1
 62
    18
420
        0
176
     1
 90
       50
176
     1
 90
        3
176
     1
 62
     5
420
      255
176
     1
290
     0
176
     1
 90
       50
176
     1
 90
       50
176
     1
 90
       50
176
     1
290
     0
176
     1
 90
       50
176
     1
 62
   256
176
     0
 40
1.0
176
     0
 90
        2
176
     1
  1
strokes_ogs.tif
176
     1
290
     0
176
     1
 40
1.0
176
     1
 40
1.0
176
     1
  0
VISUALSTYLE
  5
1001E
102
{ACAD_REACTORS
330
1001B
102
}
330
1001B
100
AcDbVisualStyle
  2

 70
     2
177
     3
291
     1
 70
    58
 90
        2
176
     1
 90
        2
176
     1
 90
        1
176
     1
 90
        2
176
     1
 40
0.6
176
     1
 40
30.0
176
     1
 62
     7
176
     1
 90
        0
176
     1
 90
        0
176
     1
 62
     7
176
     1
 62
   257
176
     1
 90
        1
176
     1
 90
        1
176
     1
 40
1.0
176
     1
 90
        0
176
     1
 62
     7
176
     1
 40
1.0
176
     1
 90
        1
176
     1
 90
        6
176
     1
 90
        2
176
     1
 62
     7
176
     1
 90
        5
176
     1
 90
        0
176
     1
 90
        0
176
     1
290
     0
176
     1
 90
       13
176
     1
 40
0.0
176
     1
 90
        0
176
     1
290
     0
176
     1
290
     1
176
     1
290
     1
176
     1
290
     0
176
     1
290
     0
176
     1
290
     0
176
     1
290
     0
176
     1
290
     0
176
     1
290
     0
176
     1
 90
       50
176
     1
 40
0.0
176
     1
 40
1.0
176
     1
 90
        0
176
     1
 62
    18
420
        0
176
     1
 90
       50
176
     1
 90
        3
176
     1
 62
     5
420
      255
176
     1
290
     0
176
     1
 90
       50
176
     1
 90
       50
176
     1
 90
       50
176
     1
290
     0
176
     1
 90
       50
176
     1
 62
   256
176
     0
 40
1.0
176
     0
 90
        2
176
     1
  1
strokes_ogs.tif
176
     1
290
     0
176
     1
 40
1.0
176
     1
 40
1.0
176
     1
  0
VISUALSTYLE
  5
1001F
102
{ACAD_REACTORS
330
1001B
102
}
330
1001B
100
AcDbVisualStyle
  2

 70
     3
177
     3
291
     1
 70
    58
 90
        2
176
     1
 90
        2
176
     1
 90
        1
176
     1
 90
        2
176
     1
 40
0.6
176
     1
 40
30.0
176
     1
 62
     7
176
     1
 90
        1
176
     1
 90
        0
176
     1
 62
     7
176
     1
 62
   257
176
     1
 90
        1
176
     1
 90
        1
176
     1
 40
1.0
176
     1
 90
        0
176
     1
 62
   257
176
     1
 40
1.0
176
     1
 90
        1
176
     1
 90
        6
176
     1
 90
        2
176
     1
 62
     7
176
     1
 90
        5
176
     1
 90
        0
176
     1
 90
        0
176
     1
290
     0
176
     1
 90
       13
176
     1
 40
0.0
176
     1
 90
        0
176
     1
290
     0
176
     1
290
     1
176
     1
290
     1
176
     1
290
     0
176
     1
290
     0
176
     1
290
     0
176
     1
290
     0
176
     1
290
     0
176
     1
290
     0
176
     1
 90
       50
176
     1
 40
0.0
176
     1
 40
1.0
176
     1
 90
        0
176
     1
 62
    18
420
        0
176
     1
 90
       50
176
     1
 90
        3
176
     1
 62
     5
420
      255
176
     1
290
     0
176
     1
 90
       50
176
     1
 90
       50
176
     1
 90
       50
176
     1
290
     0
176
     1
 90
       50
176
     1
 62
   256
176
     0
 40
1.0
176
     0
 90
        2
176
     1
  1
strokes_ogs.tif
176
     1
290
     0
176
     1
 40
1.0
176
     1
 40
1.0
176
     1
  0
VISUALSTYLE
  5
10023
102
{ACAD_REACTORS
330
1001B
102
}
330
1001B
100
AcDbVisualStyle
  2

 70
     6
177
     3
291
     0
 70
    58
 90
        1
176
     1
 90
        2
176
     1
 90
        2
176
     1
 90
        0
176
     1
 40
0.6
176
     1
 40
30.0
176
     1
 62
     7
176
     1
 90
        2
176
     1
 90
        2
176
     1
 62
     7
176
     1
 62
   257
176
     1
 90
        2
176
     1
 90
        1
176
     1
 40
40.0
176
     1
 90
        0
176
     1
 62
   257
176
     1
 40
1.0
176
     1
 90
        1
176
     1
 90
        6
176
     1
 90
        2
176
     1
 62
     7
176
     1
 90
        3
176
     1
 90
        0
176
     1
 90
        0
176
     1
290
     0
176
     1
 90
        1
176
     1
 40
0.0
176
     1
 90
        0
176
     1
290
     0
176
     1
290
     1
176
     1
290
     1
176
     1
290
     0
176
     1
290
     0
176
     1
290
     0
176
     1
290
     0
176
     1
290
     0
176
     1
290
     0
176
     1
 90
       50
176
     1
 40
0.0
176
     1
 40
1.0
176
     1
 90
        0
176
     1
 62
    18
420
        0
176
     1
 90
       50
176
     1
 90
        3
176
     1
 62
     5
420
      255
176
     1
290
     0
176
     1
 90
       50
176
     1
 90
       50
176
     1
 90
       50
176
     1
290
     0
176
     1
 90
       50
176
     1
 62
   256
176
     0
 40
1.0
176
     0
 90
        2
176
     1
  1
strokes_ogs.tif
176
     1
290
     0
176
     1
 40
1.0
176
     1
 40
1.0
176
     1
  0
VISUALSTYLE
  5
10031
102
{ACAD_REACTORS
330
1001B
102
}
330
1001B
100
AcDbVisualStyle
  2

 70
    20
177
     3
291
     1
 70
    58
 90
        2
176
     0
 90
        2
176
     0
 90
        0
176
     0
 90
        0
176
     0
 40
0.6
176
     0
 40
30.0
176
     0
 62
     7
176
     0
 90
        1
176
     0
 90
        4
176
     0
 62
     7
176
     0
 62
   257
176
     0
 90
        1
176
     0
 90
        1
176
     0
 40
1.0
176
     0
 90
       10
176
     2
 62
     7
176
     0
 40
1.0
176
     0
 90
        1
176
     0
 90
        6
176
     0
 90
        2
176
     0
 62
     7
176
     0
 90
        5
176
     0
 90
        0
176
     0
 90
        0
176
     0
290
     0
176
     0
 90
        1
176
     0
 40
0.0
176
     0
 90
        0
176
     0
290
     0
176
     1
290
     1
176
     1
290
     1
176
     1
290
     0
176
     1
290
     0
176
     1
290
     0
176
     1
290
     0
176
     1
290
     0
176
     1
290
     0
176
     1
 90
       50
176
     0
 40
0.0
176
     0
 40
1.0
176
     0
 90
        0
176
     0
 62
    18
420
        0
176
     0
 90
       50
176
     0
 90
        3
176
     0
 62
     5
420
      255
176
     0
290
     0
176
     1
 90
       50
176
     0
 90
       50
176
     0
 90
       50
176
     0
290
     0
176
     1
 90
       50
176
     0
 62
   256
176
     0
 40
1.0
176
     0
 90
        2
176
     0
  1
strokes_ogs.tif
176
     0
290
     0
176
     1
 40
1.0
176
     0
 40
1.0
176
     0
  0
VISUALSTYLE
  5
10029
102
{ACAD_REACTORS
330
1001B
102
}
330
1001B
100
AcDbVisualStyle
  2

 70
    14
177
     3
291
     1
 70
    58
 90
        2
176
     1
 90
        2
176
     1
 90
        0
176
     1
 90
        0
176
     1
 40
0.6
176
     1
 40
30.0
176
     1
 62
     7
176
     1
 90
        1
176
     1
 90
        4
176
     1
 62
     7
176
     1
 62
   257
176
     1
 90
        7
176
     1
 90
        7
176
     1
 40
1.0
176
     1
 90
        8
176
     1
 62
     7
176
     1
 40
1.0
176
     1
 90
        1
176
     1
 90
        6
176
     1
 90
        2
176
     1
 62
     7
176
     1
 90
        5
176
     1
 90
        0
176
     1
 90
        0
176
     1
290
     0
176
     1
 90
        1
176
     1
 40
0.0
176
     1
 90
        0
176
     1
290
     0
176
     1
290
     1
176
     1
290
     1
176
     1
290
     0
176
     1
290
     0
176
     1
290
     0
176
     1
290
     0
176
     1
290
     0
176
     1
290
     0
176
     1
 90
       50
176
     1
 40
0.0
176
     1
 40
1.0
176
     1
 90
        0
176
     1
 62
    18
420
        0
176
     1
 90
       50
176
     1
 90
        3
176
     1
 62
     5
420
      255
176
     1
290
     0
176
     1
 90
       50
176
     1
 90
       50
176
     1
 90
       50
176
     1
290
     0
176
     1
 90
       50
176
     1
 62
   256
176
     0
 40
1.0
176
     0
 90
        2
176
     1
  1
strokes_ogs.tif
176
     1
290
     0
176
     1
 40
1.0
176
     1
 40
1.0
176
     1
  0
VISUALSTYLE
  5
10032
102
{ACAD_REACTORS
330
1001B
102
}
330
1001B
100
AcDbVisualStyle
  2

 70
    21
177
     3
291
     1
 70
    58
 90
        2
176
     0
 90
        2
176
     0
 90
        0
176
     0
 90
        0
176
     0
 40
0.6
176
     0
 40
30.0
176
     0
 62
     7
176
     0
 90
        1
176
     0
 90
        4
176
     0
 62
     7
176
     0
 62
   257
176
     0
 90
        1
176
     0
 90
        1
176
     0
 40
1.0
176
     0
 90
        9
176
     2
 62
     7
176
     0
 40
1.0
176
     0
 90
        1
176
     0
 90
        6
176
     0
 90
        2
176
     0
 62
     7
176
     0
 90
        5
176
     0
 90
        0
176
     0
 90
        0
176
     0
290
     0
176
     0
 90
        1
176
     0
 40
0.0
176
     0
 90
        0
176
     0
290
     0
176
     1
290
     1
176
     1
290
     1
176
     1
290
     0
176
     1
290
     0
176
     1
290
     0
176
     1
290
     0
176
     1
290
     0
176
     1
290
     0
176
     1
 90
       50
176
     0
 40
0.0
176
     0
 40
1.0
176
     0
 90
        0
176
     0
 62
    18
420
        0
176
     0
 90
       50
176
     0
 90
        3
176
     0
 62
     5
420
      255
176
     0
290
     0
176
     1
 90
       50
176
     0
 90
       50
176
     0
 90
       50
176
     0
290
     0
176
     1
 90
       50
176
     0
 62
   256
176
     0
 40
1.0
176
     0
 90
        2
176
     0
  1
strokes_ogs.tif
176
     0
290
     0
176
     1
 40
1.0
176
     0
 40
1.0
176
     0
  0
VISUALSTYLE
  5
10025
102
{ACAD_REACTORS
330
1001B
102
}
330
1001B
100
AcDbVisualStyle
  2

 70
     8
177
     3
291
     0
 70
    58
 90
        2
176
     1
 90
        2
176
     1
 90
        0
176
     1
 90
        2
176
     1
 40
0.6
176
     1
 40
30.0
176
     1
 62
     7
176
     1
 90
        0
176
     1
 90
        0
176
     1
 62
     7
176
     1
 62
   257
176
     1
 90
        1
176
     1
 90
        1
176
     1
 40
1.0
176
     1
 90
        8
176
     1
 62
   257
176
     1
 40
1.0
176
     1
 90
        1
176
     1
 90
        6
176
     1
 90
        2
176
     1
 62
     7
176
     1
 90
        3
176
     1
 90
        0
176
     1
 90
        0
176
     1
290
     0
176
     1
 90
       13
176
     1
 40
0.0
176
     1
 90
        0
176
     1
290
     0
176
     1
290
     1
176
     1
290
     1
176
     1
290
     0
176
     1
290
     0
176
     1
290
     0
176
     1
290
     0
176
     1
290
     0
176
     1
290
     0
176
     1
 90
       50
176
     1
 40
0.0
176
     1
 40
1.0
176
     1
 90
        0
176
     1
 62
    18
420
        0
176
     1
 90
       50
176
     1
 90
        3
176
     1
 62
     5
420
      255
176
     1
290
     0
176
     1
 90
       50
176
     1
 90
       50
176
     1
 90
       50
176
     1
290
     0
176
     1
 90
       50
176
     1
 62
   256
176
     0
 40
1.0
176
     0
 90
        2
176
     1
  1
strokes_ogs.tif
176
     1
290
     0
176
     1
 40
1.0
176
     1
 40
1.0
176
     1
  0
VISUALSTYLE
  5
10030
102
{ACAD_REACTORS
330
1001B
102
}
330
1001B
100
AcDbVisualStyle
  2

 70
    27
177
     3
291
     0
 70
    58
 90
        2
176
     1
 90
        2
176
     1
 90
        1
176
     1
 90
        2
176
     1
 40
0.6
176
     1
 40
30.0
176
     1
 62
     7
176
     1
 90
        0
176
     1
 90
        4
176
     1
 62
     7
176
     1
 62
   257
176
     1
 90
        1
176
     1
 90
        1
176
     1
 40
1.0
176
     1
 90
        8
176
     1
 62
   257
176
     1
 40
1.0
176
     1
 90
        1
176
     1
 90
        6
176
     1
 90
        2
176
     1
 62
     8
176
     1
 90
        3
176
     1
 90
        0
176
     1
 90
        0
176
     1
290
     0
176
     1
 90
        5
176
     1
 40
0.0
176
     1
 90
        0
176
     1
290
     0
176
     1
290
     1
176
     1
290
     1
176
     1
290
     0
176
     1
290
     0
176
     1
290
     0
176
     1
290
     0
176
     1
290
     0
176
     1
290
     0
176
     1
 90
       50
176
     1
 40
0.0
176
     1
 40
1.0
176
     1
 90
        0
176
     1
 62
    18
420
        0
176
     1
 90
       50
176
     1
 90
        3
176
     1
 62
     5
420
      255
176
     1
290
     0
176
     1
 90
       50
176
     1
 90
       50
176
     1
 90
       50
176
     1
290
     0
176
     1
 90
       50
176
     1
 62
   256
176
     0
 40
1.0
176
     0
 90
        2
176
     1
  1
strokes_ogs.tif
176
     1
290
     0
176
     1
 40
1.0
176
     1
 40
1.0
176
     1
  0
VISUALSTYLE
  5
1002F
102
{ACAD_REACTORS
330
1001B
102
}
330
1001B
100
AcDbVisualStyle
  2

 70
    26
177
     3
291
     0
 70
    58
 90
        2
176
     1
 90
        2
176
     1
 90
        1
176
     1
 90
        2
176
     1
 40
0.6
176
     1
 40
30.0
176
     1
 62
     7
176
     1
 90
        1
176
     1
 90
        2
176
     1
 62
     7
176
     1
 62
   257
176
     1
 90
        2
176
     1
 90
        1
176
     1
 40
1.0
176
     1
 90
        8
176
     1
 62
   257
176
     1
 40
1.0
176
     1
 90
        1
176
     1
 90
        6
176
     1
 90
        2
176
     1
 62
     7
176
     1
 90
        3
176
     1
 90
        0
176
     1
 90
        0
176
     1
290
     0
176
     1
 90
        5
176
     1
 40
0.0
176
     1
 90
        0
176
     1
290
     0
176
     1
290
     1
176
     1
290
     1
176
     1
290
     0
176
     1
290
     0
176
     1
290
     0
176
     1
290
     0
176
     1
290
     0
176
     1
290
     0
176
     1
 90
       50
176
     1
 40
0.0
176
     1
 40
1.0
176
     1
 90
        0
176
     1
 62
    18
420
        0
176
     1
 90
       50
176
     1
 90
        3
176
     1
 62
     5
420
      255
176
     1
290
     0
176
     1
 90
       50
176
     1
 90
       50
176
     1
 90
       50
176
     1
290
     0
176
     1
 90
       50
176
     1
 62
   256
176
     0
 40
1.0
176
     0
 90
        2
176
     1
  1
strokes_ogs.tif
176
     1
290
     0
176
     1
 40
1.0
176
     1
 40
1.0
176
     1
  0
VISUALSTYLE
  5
1002C
102
{ACAD_REACTORS
330
1001B
102
}
330
1001B
100
AcDbVisualStyle
  2

 70
    23
177
     3
291
     0
 70
    58
 90
        2
176
     1
 90
        2
176
     1
 90
        3
176
     1
 90
        0
176
     1
 40
0.6
176
     1
 40
30.0
176
     1
 62
     7
176
     1
 90
        2
176
     1
 90
        2
176
     1
 62
     7
176
     1
 62
     7
176
     1
 90
        1
176
     1
 90
        1
176
     1
 40
40.0
176
     1
 90
        8
176
     1
 62
     7
176
     1
 40
1.0
176
     1
 90
        1
176
     1
 90
        6
176
     1
 90
        2
176
     1
 62
     7
176
     1
 90
        3
176
     1
 90
        0
176
     1
 90
        0
176
     1
290
     0
176
     1
 90
        1
176
     1
 40
0.0
176
     1
 90
        0
176
     1
290
     0
176
     1
290
     1
176
     1
290
     1
176
     1
290
     0
176
     1
290
     0
176
     1
290
     0
176
     1
290
     0
176
     1
290
     0
176
     1
290
     0
176
     1
 90
       50
176
     1
 40
0.0
176
     1
 40
1.0
176
     1
 90
        0
176
     1
 62
    18
420
        0
176
     1
 90
       50
176
     1
 90
        3
176
     1
 62
     5
420
      255
176
     1
290
     0
176
     1
 90
       50
176
     1
 90
       50
176
     1
 90
       50
176
     1
290
     0
176
     1
 90
       50
176
     1
 62
   256
176
     0
 40
1.0
176
     0
 90
        2
176
     1
  1
strokes_ogs.tif
176
     1
290
     0
176
     1
 40
1.0
176
     1
 40
1.0
176
     1
  0
VISUALSTYLE
  5
1002D
102
{ACAD_REACTORS
330
1001B
102
}
330
1001B
100
AcDbVisualStyle
  2

 70
    24
177
     3
291
     0
 70
    58
 90
        1
176
     1
 90
        2
176
     1
 90
        2
176
     1
 90
        0
176
     1
 40
0.6
176
     1
 40
30.0
176
     1
 62
     7
176
     1
 90
        2
176
     1
 90
        2
176
     1
 62
     7
176
     1
 62
     7
176
     1
 90
        1
176
     1
 90
        1
176
     1
 40
40.0
176
     1
 90
       11
176
     1
 62
     7
176
     1
 40
1.0
176
     1
 90
        1
176
     1
 90
        6
176
     1
 90
        2
176
     1
 62
     7
176
     1
 90
        6
176
     1
 90
        0
176
     1
 90
        0
176
     1
290
     0
176
     1
 90
        1
176
     1
 40
0.0
176
     1
 90
        0
176
     1
290
     0
176
     1
290
     1
176
     1
290
     1
176
     1
290
     0
176
     1
290
     0
176
     1
290
     0
176
     1
290
     0
176
     1
290
     0
176
     1
290
     0
176
     1
 90
       50
176
     1
 40
0.0
176
     1
 40
1.0
176
     1
 90
        0
176
     1
 62
    18
420
        0
176
     1
 90
       50
176
     1
 90
        3
176
     1
 62
     5
420
      255
176
     1
290
     0
176
     1
 90
       50
176
     1
 90
       50
176
     1
 90
       50
176
     1
290
     0
176
     1
 90
       50
176
     1
 62
   256
176
     0
 40
1.0
176
     0
 90
        2
176
     1
  1
strokes_ogs.tif
176
     1
290
     0
176
     1
 40
1.0
176
     1
 40
1.0
176
     1
  0
VISUALSTYLE
  5
10028
102
{ACAD_REACTORS
330
1001B
102
}
330
1001B
100
AcDbVisualStyle
  2

 70
    13
177
     3
291
     1
 70
    58
 90
        2
176
     1
 90
        2
176
     1
 90
        0
176
     1
 90
        0
176
     1
 40
0.6
176
     1
 40
30.0
176
     1
 62
     7
176
     1
 90
        1
176
     1
 90
        4
176
     1
 62
     7
176
     1
 62
   257
176
     1
 90
        1
176
     1
 90
        1
176
     1
 40
1.0
176
     1
 90
       12
176
     1
 62
     7
176
     1
 40
1.0
176
     1
 90
        1
176
     1
 90
        6
176
     1
 90
        2
176
     1
 62
     7
176
     1
 90
        5
176
     1
 90
        0
176
     1
 90
        0
176
     1
290
     0
176
     1
 90
        1
176
     1
 40
0.0
176
     1
 90
        0
176
     1
290
     0
176
     1
290
     1
176
     1
290
     1
176
     1
290
     0
176
     1
290
     0
176
     1
290
     0
176
     1
290
     0
176
     1
290
     0
176
     1
290
     0
176
     1
 90
       50
176
     1
 40
0.0
176
     1
 40
1.0
176
     1
 90
        0
176
     1
 62
    18
420
        0
176
     1
 90
       50
176
     1
 90
        3
176
     1
 62
     5
420
      255
176
     1
290
     0
176
     1
 90
       50
176
     1
 90
       50
176
     1
 90
       50
176
     1
290
     0
176
     1
 90
       50
176
     1
 62
   256
176
     0
 40
1.0
176
     0
 90
        2
176
     1
  1
strokes_ogs.tif
176
     1
290
     0
176
     1
 40
1.0
176
     1
 40
1.0
176
     1
  0
VISUALSTYLE
  5
10022
102
{ACAD_REACTORS
330
1001B
102
}
330
1001B
100
AcDbVisualStyle
  2

 70
     5
177
     3
291
     0
 70
    58
 90
        0
176
     1
 90
        2
176
     1
 90
        0
176
     1
 90
        0
176
     1
 40
0.6
176
     1
 40
30.0
176
     1
 62
     7
176
     1
 90
        1
176
     1
 90
        4
176
     1
 62
     7
176
     1
 62
   257
176
     1
 90
        1
176
     1
 90
        1
176
     1
 40
1.0
176
     1
 90
        0
176
     1
 62
   257
176
     1
 40
1.0
176
     1
 90
        1
176
     1
 90
        6
176
     1
 90
        2
176
     1
 62
     7
176
     1
 90
        3
176
     1
 90
        0
176
     1
 90
        0
176
     1
290
     0
176
     1
 90
        1
176
     1
 40
0.0
176
     1
 90
        0
176
     1
290
     0
176
     1
290
     1
176
     1
290
     1
176
     1
290
     0
176
     1
290
     0
176
     1
290
     0
176
     1
290
     0
176
     1
290
     0
176
     1
290
     0
176
     1
 90
       50
176
     1
 40
0.0
176
     1
 40
1.0
176
     1
 90
        0
176
     1
 62
    18
420
        0
176
     1
 90
       50
176
     1
 90
        3
176
     1
 62
     5
420
      255
176
     1
290
     0
176
     1
 90
       50
176
     1
 90
       50
176
     1
 90
       50
176
     1
290
     0
176
     1
 90
       50
176
     1
 62
   256
176
     0
 40
1.0
176
     0
 90
        2
176
     1
  1
strokes_ogs.tif
176
     1
290
     0
176
     1
 40
1.0
176
     1
 40
1.0
176
     1
  0
VISUALSTYLE
  5
1002E
102
{ACAD_REACTORS
330
1001B
102
}
330
1001B
100
AcDbVisualStyle
  2

 70
    25
177
     3
291
     0
 70
    58
 90
        2
176
     1
 90
        2
176
     1
 90
        1
176
     1
 90
        1
176
     1
 40
0.5
176
     1
 40
30.0
176
     1
 62
     7
176
     1
 90
        1
176
     1
 90
        0
176
     1
 62
     7
176
     1
 62
   257
176
     1
 90
        1
176
     1
 90
        1
176
     1
 40
1.0
176
     1
 90
        8
176
     1
 62
     7
176
     1
 40
1.0
176
     1
 90
        1
176
     1
 90
        6
176
     1
 90
        2
176
     1
 62
     7
176
     1
 90
        3
176
     1
 90
        0
176
     1
 90
        0
176
     1
290
     0
176
     1
 90
       13
176
     1
 40
0.0
176
     1
 90
        0
176
     1
290
     0
176
     1
290
     1
176
     1
290
     1
176
     1
290
     0
176
     1
290
     0
176
     1
290
     0
176
     1
290
     0
176
     1
290
     0
176
     1
290
     0
176
     1
 90
       50
176
     1
 40
0.0
176
     1
 40
1.0
176
     1
 90
        0
176
     1
 62
    18
420
        0
176
     1
 90
       50
176
     1
 90
        3
176
     1
 62
     5
420
      255
176
     1
290
     0
176
     1
 90
       50
176
     1
 90
       50
176
     1
 90
       50
176
     1
290
     0
176
     1
 90
       50
176
     1
 62
   256
176
     0
 40
1.0
176
     0
 90
        2
176
     1
  1
strokes_ogs.tif
176
     1
290
     0
176
     1
 40
1.0
176
     1
 40
1.0
176
     1
  0
DICTIONARYVAR
  5
10067
102
{ACAD_REACTORS
330
2D6
102
}
330
2D6
100
DictionaryVariables
280
     0
  1
1:1
  0
DICTIONARYVAR
  5
10064
102
{ACAD_REACTORS
330
2D6
102
}
330
2D6
100
DictionaryVariables
280
     0
  1
STANDARD
  0
DICTIONARYVAR
  5
10063
102
{ACAD_REACTORS
330
2D6
102
}
330
2D6
100
DictionaryVariables
280
     0
  1
STANDARD
  0
DICTIONARYVAR
  5
10065
102
{ACAD_REACTORS
330
2D6
102
}
330
2D6
100
DictionaryVariables
280
     0
  1
Imperial24
  0
DICTIONARYVAR
  5
10066
102
{ACAD_REACTORS
330
2D6
102
}
330
2D6
100
DictionaryVariables
280
     0
  1
Imperial24
  0
DICTIONARYVAR
  5
2D8
330
2D6
100
DictionaryVariables
280
     0
  1
1
  0
DICTIONARYVAR
  5
2D7
330
2D6
100
DictionaryVariables
280
     0
  1
0
  0
DICTIONARYVAR
  5
10069
102
{ACAD_REACTORS
330
2D6
102
}
330
2D6
100
DictionaryVariables
280
     0
  1
0
  0
DICTIONARYVAR
  5
1011082
102
{ACAD_REACTORS
330
2D6
102
}
330
2D6
100
DictionaryVariables
280
     0
  1
1
  0
DICTIONARYVAR
  5
1011083
102
{ACAD_REACTORS
330
2D6
102
}
330
2D6
100
DictionaryVariables
280
     0
  1
15
  0
DICTIONARYVAR
  5
1011081
102
{ACAD_REACTORS
330
2D6
102
}
330
2D6
100
DictionaryVariables
280
     0
  1
0
  0
DICTIONARYVAR
  5
1011080
102
{ACAD_REACTORS
330
2D6
102
}
330
2D6
100
DictionaryVariables
280
     0
  1
0
  0
DICTIONARYVAR
  5
10068
102
{ACAD_REACTORS
330
2D6
102
}
330
2D6
100
DictionaryVariables
280
     0
  1
127
  0
DICTIONARY
  5
101107D
330
1004E
100
AcDbDictionary
280
     1
281
     1
  3
ACAD_XREC_ROUNDTRIP
360
1011700
  0
DICTIONARY
  5
1000C
330
1000B
100
AcDbDictionary
280
     1
281
     1
  3
BUMPTILE
360
1000E
  3
DIFFUSETILE
360
1000D
  3
OPACITYTILE
360
10011
  3
REFLECTIONTILE
360
10010
  3
REFRACTIONTILE
360
10012
  3
SPECULARTILE
360
1000F
  0
DICTIONARY
  5
10004
330
10003
100
AcDbDictionary
280
     1
281
     1
  3
BUMPTILE
360
10006
  3
DIFFUSETILE
360
10005
  3
OPACITYTILE
360
10009
  3
REFLECTIONTILE
360
10008
  3
REFRACTIONTILE
360
1000A
  3
SPECULARTILE
360
10007
  0
DICTIONARY
  5
10014
330
10013
100
AcDbDictionary
280
     1
281
     1
  3
BUMPTILE
360
10016
  3
DIFFUSETILE
360
10015
  3
OPACITYTILE
360
10019
  3
REFLECTIONTILE
360
10018
  3
REFRACTIONTILE
360
1001A
  3
SPECULARTILE
360
10017
  0
DICTIONARY
  5
101107B
330
1004C
100
AcDbDictionary
280
     1
281
     1
  3
ACAD_XREC_ROUNDTRIP
360
10116FF
  0
DICTIONARY
  5
1006C
330
10036
100
AcDbDictionary
280
     1
281
     1
  3
ACAD_ROUNDTRIP_2008_TABLESTYLE_CELLSTYLEMAP
360
10116FE
  0
XRECORD
  5
1011700
102
{ACAD_REACTORS
330
101107D
102
}
330
101107D
100
AcDbXrecord
280
     1
102
DISPLAYNAME
  1
Imperial24
102
FLAGS
 90
        0
  0
XRECORD
  5
1000E
102
{ACAD_REACTORS
330
1000C
102
}
330
1000C
100
AcDbXrecord
280
     1
270
     1
271
     1
  0
XRECORD
  5
1000D
102
{ACAD_REACTORS
330
1000C
102
}
330
1000C
100
AcDbXrecord
280
     1
270
     1
271
     1
  0
XRECORD
  5
10011
102
{ACAD_REACTORS
330
1000C
102
}
330
1000C
100
AcDbXrecord
280
     1
270
     1
271
     1
  0
XRECORD
  5
10010
102
{ACAD_REACTORS
330
1000C
102
}
330
1000C
100
AcDbXrecord
280
     1
270
     1
271
     1
  0
XRECORD
  5
10012
102
{ACAD_REACTORS
330
1000C
102
}
330
1000C
100
AcDbXrecord
280
     1
270
     1
271
     1
  0
XRECORD
  5
1000F
102
{ACAD_REACTORS
330
1000C
102
}
330
1000C
100
AcDbXrecord
280
     1
270
     1
271
     1
  0
XRECORD
  5
10006
102
{ACAD_REACTORS
330
10004
102
}
330
10004
100
AcDbXrecord
280
     1
270
     1
271
     1
  0
XRECORD
  5
10005
102
{ACAD_REACTORS
330
10004
102
}
330
10004
100
AcDbXrecord
280
     1
270
     1
271
     1
  0
XRECORD
  5
10009
102
{ACAD_REACTORS
330
10004
102
}
330
10004
100
AcDbXrecord
280
     1
270
     1
271
     1
  0
XRECORD
  5
10008
102
{ACAD_REACTORS
330
10004
102
}
330
10004
100
AcDbXrecord
280
     1
270
     1
271
     1
  0
XRECORD
  5
1000A
102
{ACAD_REACTORS
330
10004
102
}
330
10004
100
AcDbXrecord
280
     1
270
     1
271
     1
  0
XRECORD
  5
10007
102
{ACAD_REACTORS
330
10004
102
}
330
10004
100
AcDbXrecord
280
     1
270
     1
271
     1
  0
XRECORD
  5
10016
102
{ACAD_REACTORS
330
10014
102
}
330
10014
100
AcDbXrecord
280
     1
270
     1
271
     1
  0
XRECORD
  5
10015
102
{ACAD_REACTORS
330
10014
102
}
330
10014
100
AcDbXrecord
280
     1
270
     1
271
     1
  0
XRECORD
  5
10019
102
{ACAD_REACTORS
330
10014
102
}
330
10014
100
AcDbXrecord
280
     1
270
     1
271
     1
  0
XRECORD
  5
10018
102
{ACAD_REACTORS
330
10014
102
}
330
10014
100
AcDbXrecord
280
     1
270
     1
271
     1
  0
XRECORD
  5
1001A
102
{ACAD_REACTORS
330
10014
102
}
330
10014
100
AcDbXrecord
280
     1
270
     1
271
     1
  0
XRECORD
  5
10017
102
{ACAD_REACTORS
330
10014
102
}
330
10014
100
AcDbXrecord
280
     1
270
     1
271
     1
  0
XRECORD
  5
10116FF
102
{ACAD_REACTORS
330
101107B
102
}
330
101107B
100
AcDbXrecord
280
     1
102
DISPLAYNAME
  1
Imperial24
102
FLAGS
 90
        0
  0
CELLSTYLEMAP
  5
10116FE
102
{ACAD_REACTORS
330
1006C
102
}
330
1006C
100
AcDbCellStyleMap
 90
        3
300
CELLSTYLE
  1
TABLEFORMAT_BEGIN
 90
        5
170
     1
 91
        0
 92
    32768
 62
   257
 93
        1
300
CONTENTFORMAT
  1
CONTENTFORMAT_BEGIN
 90
        0
 91
        0
 92
      512
 93
        0
300

 40
0.0
140
1.0
 94
        5
 62
     0
340
11
144
0.25
309
CONTENTFORMAT_END
171
     1
301
MARGIN
  1
CELLMARGIN_BEGIN
 40
0.06
 40
0.06
 40
0.06
 40
0.06
 40
0.18
 40
0.18
309
CELLMARGIN_END
 94
        6
 95
        1
302
GRIDFORMAT
  1
GRIDFORMAT_BEGIN
 90
        0
 91
        1
 62
     0
 92
       -2
340
0
 93
        0
 40
0.045
309
GRIDFORMAT_END
 95
        2
302
GRIDFORMAT
  1
GRIDFORMAT_BEGIN
 90
        0
 91
        1
 62
     0
 92
       -2
340
0
 93
        0
 40
0.045
309
GRIDFORMAT_END
 95
        4
302
GRIDFORMAT
  1
GRIDFORMAT_BEGIN
 90
        0
 91
        1
 62
     0
 92
       -2
340
0
 93
        0
 40
0.045
309
GRIDFORMAT_END
 95
        8
302
GRIDFORMAT
  1
GRIDFORMAT_BEGIN
 90
        0
 91
        1
 62
     0
 92
       -2
340
0
 93
        0
 40
0.045
309
GRIDFORMAT_END
 95
       16
302
GRIDFORMAT
  1
GRIDFORMAT_BEGIN
 90
        0
 91
        1
 62
     0
 92
       -2
340
0
 93
        0
 40
0.045
309
GRIDFORMAT_END
 95
       32
302
GRIDFORMAT
  1
GRIDFORMAT_BEGIN
 90
        0
 91
        1
 62
     0
 92
       -2
340
0
 93
        0
 40
0.045
309
GRIDFORMAT_END
309
TABLEFORMAT_END
  1
CELLSTYLE_BEGIN
 90
        1
 91
        1
300
_TITLE
309
CELLSTYLE_END
300
CELLSTYLE
  1
TABLEFORMAT_BEGIN
 90
        5
170
     1
 91
        0
 92
        0
 62
   257
 93
        1
300
CONTENTFORMAT
  1
CONTENTFORMAT_BEGIN
 90
        0
 91
        0
 92
      512
 93
        0
300

 40
0.0
140
1.0
 94
        5
 62
     0
340
11
144
0.18
309
CONTENTFORMAT_END
171
     1
301
MARGIN
  1
CELLMARGIN_BEGIN
 40
0.06
 40
0.06
 40
0.06
 40
0.06
 40
0.18
 40
0.18
309
CELLMARGIN_END
 94
        6
 95
        1
302
GRIDFORMAT
  1
GRIDFORMAT_BEGIN
 90
        0
 91
        1
 62
     0
 92
       -2
340
0
 93
        0
 40
0.045
309
GRIDFORMAT_END
 95
        2
302
GRIDFORMAT
  1
GRIDFORMAT_BEGIN
 90
        0
 91
        1
 62
     0
 92
       -2
340
0
 93
        0
 40
0.045
309
GRIDFORMAT_END
 95
        4
302
GRIDFORMAT
  1
GRIDFORMAT_BEGIN
 90
        0
 91
        1
 62
     0
 92
       -2
340
0
 93
        0
 40
0.045
309
GRIDFORMAT_END
 95
        8
302
GRIDFORMAT
  1
GRIDFORMAT_BEGIN
 90
        0
 91
        1
 62
     0
 92
       -2
340
0
 93
        0
 40
0.045
309
GRIDFORMAT_END
 95
       16
302
GRIDFORMAT
  1
GRIDFORMAT_BEGIN
 90
        0
 91
        1
 62
     0
 92
       -2
340
0
 93
        0
 40
0.045
309
GRIDFORMAT_END
 95
       32
302
GRIDFORMAT
  1
GRIDFORMAT_BEGIN
 90
        0
 91
        1
 62
     0
 92
       -2
340
0
 93
        0
 40
0.045
309
GRIDFORMAT_END
309
TABLEFORMAT_END
  1
CELLSTYLE_BEGIN
 90
        2
 91
        1
300
_HEADER
309
CELLSTYLE_END
300
CELLSTYLE
  1
TABLEFORMAT_BEGIN
 90
        5
170
     1
 91
        0
 92
        0
 62
   257
 93
        1
300
CONTENTFORMAT
  1
CONTENTFORMAT_BEGIN
 90
        0
 91
        0
 92
      512
 93
        0
300

 40
0.0
140
1.0
 94
        2
 62
     0
340
11
144
0.18
309
CONTENTFORMAT_END
171
     1
301
MARGIN
  1
CELLMARGIN_BEGIN
 40
0.06
 40
0.06
 40
0.06
 40
0.06
 40
0.18
 40
0.18
309
CELLMARGIN_END
 94
        6
 95
        1
302
GRIDFORMAT
  1
GRIDFORMAT_BEGIN
 90
        0
 91
        1
 62
     0
 92
       -2
340
0
 93
        0
 40
0.045
309
GRIDFORMAT_END
 95
        2
302
GRIDFORMAT
  1
GRIDFORMAT_BEGIN
 90
        0
 91
        1
 62
     0
 92
       -2
340
0
 93
        0
 40
0.045
309
GRIDFORMAT_END
 95
        4
302
GRIDFORMAT
  1
GRIDFORMAT_BEGIN
 90
        0
 91
        1
 62
     0
 92
       -2
340
0
 93
        0
 40
0.045
309
GRIDFORMAT_END
 95
        8
302
GRIDFORMAT
  1
GRIDFORMAT_BEGIN
 90
        0
 91
        1
 62
     0
 92
       -2
340
0
 93
        0
 40
0.045
309
GRIDFORMAT_END
 95
       16
302
GRIDFORMAT
  1
GRIDFORMAT_BEGIN
 90
        0
 91
        1
 62
     0
 92
       -2
340
0
 93
        0
 40
0.045
309
GRIDFORMAT_END
 95
       32
302
GRIDFORMAT
  1
GRIDFORMAT_BEGIN
 90
        0
 91
        1
 62
     0
 92
       -2
340
0
 93
        0
 40
0.045
309
GRIDFORMAT_END
309
TABLEFORMAT_END
  1
CELLSTYLE_BEGIN
 90
        3
 91
        2
300
_DATA
309
CELLSTYLE_END
  0
ENDSEC
  0
EOF
