  0
SECTION
  2
HEADER
  9
$ACADVER
  1
AC1027
  9
$ACADMAINTVER
 70
   125
  9
$DWGCODEPAGE
  3
ANSI_1252
  9
$LASTSAVEDBY
  1
Peter
  9
$REQUIREDVERSIONS
160
                 0
  9
$INSBASE
 10
0.0
 20
0.0
 30
0.0
  9
$EXTMIN
 10
27.68255700098841
 20
23.44061482793785
 30
0.0
  9
$EXTMAX
 10
330.5694617628933
 20
396.940614827938
 30
0.0
  9
$LIMMIN
 10
0.0
 20
0.0
  9
$LIMMAX
 10
12.0
 20
9.0
  9
$ORTHOMODE
 70
     0
  9
$REGENMODE
 70
     1
  9
$FILLMODE
 70
     1
  9
$QTEXTMODE
 70
     0
  9
$MIRRTEXT
 70
     0
  9
$LTSCALE
 40
1.0
  9
$ATTMODE
 70
     1
  9
$TEXTSIZE
 40
0.2
  9
$TRACEWID
 40
0.05
  9
$TEXTSTYLE
  7
Roman
  9
$CLAYER
  8
0
  9
$CELTYPE
  6
CONTINUOUS
  9
$CECOLOR
 62
   256
  9
$CELTSCALE
 40
1.0
  9
$DISPSILH
 70
     0
  9
$DIMSCALE
 40
1.0
  9
$DIMASZ
 40
0.18
  9
$DIMEXO
 40
0.0625
  9
$DIMDLI
 40
0.38
  9
$DIMRND
 40
0.0
  9
$DIMDLE
 40
0.0
  9
$DIMEXE
 40
0.18
  9
$DIMTP
 40
0.0
  9
$DIMTM
 40
0.0
  9
$DIMTXT
 40
0.18
  9
$DIMCEN
 40
0.09
  9
$DIMTSZ
 40
0.0
  9
$DIMTOL
 70
     0
  9
$DIMLIM
 70
     0
  9
$DIMTIH
 70
     1
  9
$DIMTOH
 70
     1
  9
$DIMSE1
 70
     0
  9
$DIMSE2
 70
     0
  9
$DIMTAD
 70
     0
  9
$DIMZIN
 70
     0
  9
$DIMBLK
  1

  9
$DIMASO
 70
     1
  9
$DIMSHO
 70
     1
  9
$DIMPOST
  1

  9
$DIMAPOST
  1

  9
$DIMALT
 70
     0
  9
$DIMALTD
 70
     2
  9
$DIMALTF
 40
25.4
  9
$DIMLFAC
 40
1.0
  9
$DIMTOFL
 70
     0
  9
$DIMTVP
 40
0.0
  9
$DIMTIX
 70
     0
  9
$DIMSOXD
 70
     0
  9
$DIMSAH
 70
     0
  9
$DIMBLK1
  1

  9
$DIMBLK2
  1

  9
$DIMSTYLE
  2
Standard
  9
$DIMCLRD
 70
     0
  9
$DIMCLRE
 70
     0
  9
$DIMCLRT
 70
     0
  9
$DIMTFAC
 40
1.0
  9
$DIMGAP
 40
0.09
  9
$DIMJUST
 70
     0
  9
$DIMSD1
 70
     0
  9
$DIMSD2
 70
     0
  9
$DIMTOLJ
 70
     1
  9
$DIMTZIN
 70
     0
  9
$DIMALTZ
 70
     0
  9
$DIMALTTZ
 70
     0
  9
$DIMUPT
 70
     0
  9
$DIMDEC
 70
     4
  9
$DIMTDEC
 70
     4
  9
$DIMALTU
 70
     2
  9
$DIMALTTD
 70
     2
  9
$DIMTXSTY
  7
Standard
  9
$DIMAUNIT
 70
     0
  9
$DIMADEC
 70
     0
  9
$DIMALTRND
 40
0.0
  9
$DIMAZIN
 70
     0
  9
$DIMDSEP
 70
    46
  9
$DIMATFIT
 70
     3
  9
$DIMFRAC
 70
     0
  9
$DIMLDRBLK
  1

  9
$DIMLUNIT
 70
     2
  9
$DIMLWD
 70
    -2
  9
$DIMLWE
 70
    -2
  9
$DIMTMOVE
 70
     0
  9
$DIMFXL
 40
1.0
  9
$DIMFXLON
 70
     0
  9
$DIMJOGANG
 40
0.7853981633974483
  9
$DIMTFILL
 70
     0
  9
$DIMTFILLCLR
 70
     0
  9
$DIMARCSYM
 70
     0
  9
$DIMLTYPE
  6

  9
$DIMLTEX1
  6

  9
$DIMLTEX2
  6

  9
$DIMTXTDIRECTION
 70
     0
  9
$LUNITS
 70
     2
  9
$LUPREC
 70
     4
  9
$SKETCHINC
 40
0.1
  9
$FILLETRAD
 40
0.0
  9
$AUNITS
 70
     0
  9
$AUPREC
 70
     0
  9
$MENU
  1
.
  9
$ELEVATION
 40
0.0
  9
$PELEVATION
 40
0.0
  9
$THICKNESS
 40
0.0
  9
$LIMCHECK
 70
     0
  9
$CHAMFERA
 40
0.0
  9
$CHAMFERB
 40
0.0
  9
$CHAMFERC
 40
0.0
  9
$CHAMFERD
 40
0.0
  9
$SKPOLY
 70
     0
  9
$TDCREATE
 40
2458354.663275463
  9
$TDUCREATE
 40
2458354.579942130
  9
$TDUPDATE
 40
2458946.715914352
  9
$TDUUPDATE
 40
2458946.632581018
  9
$TDINDWG
 40
0.0080555556
  9
$TDUSRTIMER
 40
0.0080555556
  9
$USRTIMER
 70
     1
  9
$ANGBASE
 50
0.0
  9
$ANGDIR
 70
     0
  9
$PDMODE
 70
     0
  9
$PDSIZE
 40
0.0
  9
$PLINEWID
 40
0.0
  9
$SPLFRAME
 70
     0
  9
$SPLINETYPE
 70
     6
  9
$SPLINESEGS
 70
     8
  9
$HANDSEED
  5
1011518
  9
$SURFTAB1
 70
     6
  9
$SURFTAB2
 70
     6
  9
$SURFTYPE
 70
     6
  9
$SURFU
 70
     6
  9
$SURFV
 70
     6
  9
$UCSBASE
  2

  9
$UCSNAME
  2

  9
$UCSORG
 10
0.0
 20
0.0
 30
0.0
  9
$UCSXDIR
 10
1.0
 20
0.0
 30
0.0
  9
$UCSYDIR
 10
0.0
 20
1.0
 30
0.0
  9
$UCSORTHOREF
  2

  9
$UCSORTHOVIEW
 70
     0
  9
$UCSORGTOP
 10
0.0
 20
0.0
 30
0.0
  9
$UCSORGBOTTOM
 10
0.0
 20
0.0
 30
0.0
  9
$UCSORGLEFT
 10
0.0
 20
0.0
 30
0.0
  9
$UCSORGRIGHT
 10
0.0
 20
0.0
 30
0.0
  9
$UCSORGFRONT
 10
0.0
 20
0.0
 30
0.0
  9
$UCSORGBACK
 10
0.0
 20
0.0
 30
0.0
  9
$PUCSBASE
  2

  9
$PUCSNAME
  2

  9
$PUCSORG
 10
0.0
 20
0.0
 30
0.0
  9
$PUCSXDIR
 10
1.0
 20
0.0
 30
0.0
  9
$PUCSYDIR
 10
0.0
 20
1.0
 30
0.0
  9
$PUCSORTHOREF
  2

  9
$PUCSORTHOVIEW
 70
     0
  9
$PUCSORGTOP
 10
0.0
 20
0.0
 30
0.0
  9
$PUCSORGBOTTOM
 10
0.0
 20
0.0
 30
0.0
  9
$PUCSORGLEFT
 10
0.0
 20
0.0
 30
0.0
  9
$PUCSORGRIGHT
 10
0.0
 20
0.0
 30
0.0
  9
$PUCSORGFRONT
 10
0.0
 20
0.0
 30
0.0
  9
$PUCSORGBACK
 10
0.0
 20
0.0
 30
0.0
  9
$USERI1
 70
     0
  9
$USERI2
 70
     0
  9
$USERI3
 70
     0
  9
$USERI4
 70
     0
  9
$USERI5
 70
     0
  9
$USERR1
 40
0.0
  9
$USERR2
 40
0.0
  9
$USERR3
 40
0.0
  9
$USERR4
 40
0.0
  9
$USERR5
 40
0.0
  9
$WORLDVIEW
 70
     1
  9
$SHADEDGE
 70
     3
  9
$SHADEDIF
 70
    70
  9
$TILEMODE
 70
     1
  9
$MAXACTVP
 70
    64
  9
$PINSBASE
 10
0.0
 20
0.0
 30
0.0
  9
$PLIMCHECK
 70
     0
  9
$PEXTMIN
 10
1.000000000000000E+20
 20
1.000000000000000E+20
 30
1.000000000000000E+20
  9
$PEXTMAX
 10
-1.000000000000000E+20
 20
-1.000000000000000E+20
 30
-1.000000000000000E+20
  9
$PLIMMIN
 10
0.0
 20
0.0
  9
$PLIMMAX
 10
12.0
 20
9.0
  9
$UNITMODE
 70
     0
  9
$VISRETAIN
 70
     1
  9
$PLINEGEN
 70
     0
  9
$PSLTSCALE
 70
     1
  9
$TREEDEPTH
 70
  3020
  9
$CMLSTYLE
  2
Standard
  9
$CMLJUST
 70
     0
  9
$CMLSCALE
 40
1.0
  9
$PROXYGRAPHICS
 70
     1
  9
$MEASUREMENT
 70
     0
  9
$CELWEIGHT
370
    -1
  9
$ENDCAPS
280
     0
  9
$JOINSTYLE
280
     0
  9
$LWDISPLAY
290
     0
  9
$INSUNITS
 70
     1
  9
$HYPERLINKBASE
  1

  9
$STYLESHEET
  1

  9
$XEDIT
290
     1
  9
$CEPSNTYPE
380
     0
  9
$PSTYLEMODE
290
     1
  9
$FINGERPRINTGUID
  2
{1DB9D1DE-789F-E248-BE97-F7CD108A34F9}
  9
$VERSIONGUID
  2
{1A016808-B9DD-E844-B83D-EFE0BE97DAD9}
  9
$EXTNAMES
290
     1
  9
$PSVPSCALE
 40
0.0
  9
$OLESTARTUP
290
     0
  9
$SORTENTS
280
   127
  9
$INDEXCTL
280
     0
  9
$HIDETEXT
280
     0
  9
$XCLIPFRAME
280
     2
  9
$HALOGAP
280
     0
  9
$OBSCOLOR
 70
   257
  9
$OBSLTYPE
280
     0
  9
$INTERSECTIONDISPLAY
280
     0
  9
$INTERSECTIONCOLOR
 70
   257
  9
$DIMASSOC
280
     1
  9
$PROJECTNAME
  1

  9
$CAMERADISPLAY
290
     0
  9
$LENSLENGTH
 40
50.0
  9
$CAMERAHEIGHT
 40
0.0
  9
$STEPSPERSEC
 40
2.0
  9
$STEPSIZE
 40
6.0
  9
$3DDWFPREC
 40
2.0
  9
$PSOLWIDTH
 40
0.25
  9
$PSOLHEIGHT
 40
4.0
  9
$LOFTANG1
 40
1.570796326794896
  9
$LOFTANG2
 40
1.570796326794896
  9
$LOFTMAG1
 40
0.0
  9
$LOFTMAG2
 40
0.0
  9
$LOFTPARAM
 70
     7
  9
$LOFTNORMALS
280
     1
  9
$LATITUDE
 40
37.795
  9
$LONGITUDE
 40
-122.394
  9
$NORTHDIRECTION
 40
0.0
  9
$TIMEZONE
 70
 -8000
  9
$LIGHTGLYPHDISPLAY
280
     1
  9
$TILEMODELIGHTSYNCH
280
     1
  9
$CMATERIAL
347
10003
  9
$SOLIDHIST
280
     0
  9
$SHOWHIST
280
     1
  9
$DWFFRAME
280
     2
  9
$DGNFRAME
280
     0
  9
$REALWORLDSCALE
290
     1
  9
$INTERFERECOLOR
 62
     1
  9
$INTERFEREOBJVS
345
10025
  9
$INTERFEREVPVS
346
10022
  9
$CSHADOW
280
     0
  9
$SHADOWPLANELOCATION
 40
0.0
  0
ENDSEC
  0
SECTION
  2
CLASSES
  0
CLASS
  1
ACDBDICTIONARYWDFLT
  2
AcDbDictionaryWithDefault
  3
ObjectDBX Classes
 90
        0
 91
        1
280
     0
281
     0
  0
CLASS
  1
DICTIONARYVAR
  2
AcDbDictionaryVar
  3
ObjectDBX Classes
 90
        0
 91
       13
280
     0
281
     0
  0
CLASS
  1
MATERIAL
  2
AcDbMaterial
  3
ObjectDBX Classes
 90
     1153
 91
        3
280
     0
281
     0
  0
CLASS
  1
VISUALSTYLE
  2
AcDbVisualStyle
  3
ObjectDBX Classes
 90
     4095
 91
       24
280
     0
281
     0
  0
CLASS
  1
TABLESTYLE
  2
AcDbTableStyle
  3
ObjectDBX Classes
 90
     4095
 91
        1
280
     0
281
     0
  0
CLASS
  1
SCALE
  2
AcDbScale
  3
ObjectDBX Classes
 90
     1153
 91
       17
280
     0
281
     0
  0
CLASS
  1
MLEADERSTYLE
  2
AcDbMLeaderStyle
  3
ACDB_MLEADERSTYLE_CLASS
 90
     4095
 91
        1
280
     0
281
     0
  0
CLASS
  1
ACDBSECTIONVIEWSTYLE
  2
AcDbSectionViewStyle
  3
ObjectDBX Classes
 90
     1025
 91
        1
280
     0
281
     0
  0
CLASS
  1
ACDBDETAILVIEWSTYLE
  2
AcDbDetailViewStyle
  3
ObjectDBX Classes
 90
     1025
 91
        1
280
     0
281
     0
  0
CLASS
  1
CELLSTYLEMAP
  2
AcDbCellStyleMap
  3
ObjectDBX Classes
 90
     1152
 91
        1
280
     0
281
     0
  0
ENDSEC
  0
SECTION
  2
TABLES
  0
TABLE
  2
VPORT
  5
8
102
{ACAD_XDICTIONARY
360
100FC
102
}
330
0
100
AcDbSymbolTable
 70
     1
1001
ACAD
1000
DbSaveVer
1071
        5
  0
VPORT
  5
30
330
8
100
AcDbSymbolTableRecord
100
AcDbViewportTableRecord
  2
*Active
 70
     0
 10
0.0
 20
0.0
 11
1.0
 21
1.0
 12
179.1305372483271
 22
216.708966452362
 13
0.0
 23
0.0
 14
0.0
 24
0.0
 15
10.0
 25
10.0
 16
0.0
 26
0.0
 36
1.0
 17
0.0
 27
0.0
 37
0.0
 40
376.2301142982437
 41
2.283154121863799
 42
50.0
 43
0.0
 44
0.0
 50
0.0
 51
0.0
 71
     0
 72
   100
 73
     1
 74
     3
 75
     1
 76
     1
 77
     0
 78
     0
281
     0
 65
     1
110
0.0
120
0.0
130
0.0
111
1.0
121
0.0
131
0.0
112
0.0
122
1.0
132
0.0
 79
     0
146
0.0
348
10021
 60
     3
 61
     5
292
     1
282
     1
141
0.0
142
0.0
 63
   250
421
  3355443
1001
ACAD_NAV_VCDISPLAY
1070
     3
  0
ENDTAB
  0
TABLE
  2
LTYPE
  5
5
330
0
100
AcDbSymbolTable
 70
    23
  0
LTYPE
  5
14
330
5
100
AcDbSymbolTableRecord
100
AcDbLinetypeTableRecord
  2
BYBLOCK
 70
     0
  3

 72
    65
 73
     0
 40
0.0
  0
LTYPE
  5
15
330
5
100
AcDbSymbolTableRecord
100
AcDbLinetypeTableRecord
  2
BYLAYER
 70
     0
  3

 72
    65
 73
     0
 40
0.0
  0
LTYPE
  5
16
330
5
100
AcDbSymbolTableRecord
100
AcDbLinetypeTableRecord
  2
CONTINUOUS
 70
     0
  3
Solid line
 72
    65
 73
     0
 40
0.0
  0
LTYPE
  5
31
330
5
100
AcDbSymbolTableRecord
100
AcDbLinetypeTableRecord
  2
ACAD_ISO02W100
 70
     0
  3
ISO Dashed __ __ __ __ __ __ __ __ __ __ _
 72
    65
 73
     2
 40
15.0
 49
12.0
 74
     0
 49
-3.0
 74
     0
  0
LTYPE
  5
32
330
5
100
AcDbSymbolTableRecord
100
AcDbLinetypeTableRecord
  2
ACAD_ISO03W100
 70
     0
  3
ISO Dashed with Distance __    __    __    _
 72
    65
 73
     2
 40
30.0
 49
12.0
 74
     0
 49
-18.0
 74
     0
  0
LTYPE
  5
33
330
5
100
AcDbSymbolTableRecord
100
AcDbLinetypeTableRecord
  2
ACAD_ISO04W100
 70
     0
  3
ISO Long Dashed Dotted ____ . ____ . __
 72
    65
 73
     4
 40
30.0
 49
24.0
 74
     0
 49
-3.0
 74
     0
 49
0.0
 74
     0
 49
-3.0
 74
     0
  0
LTYPE
  5
34
330
5
100
AcDbSymbolTableRecord
100
AcDbLinetypeTableRecord
  2
ACAD_ISO05W100
 70
     0
  3
ISO Long Dashed Double Dotted ____ .. __
 72
    65
 73
     6
 40
33.0
 49
24.0
 74
     0
 49
-3.0
 74
     0
 49
0.0
 74
     0
 49
-3.0
 74
     0
 49
0.0
 74
     0
 49
-3.0
 74
     0
  0
LTYPE
  5
35
330
5
100
AcDbSymbolTableRecord
100
AcDbLinetypeTableRecord
  2
BORDER
 70
     0
  3
Border __ __ . __ __ . __ __ . __ __ . __ __ .
 72
    65
 73
     6
 40
44.45
 49
12.7
 74
     0
 49
-6.349999999999998
 74
     0
 49
12.7
 74
     0
 49
-6.349999999999998
 74
     0
 49
0.0
 74
     0
 49
-6.349999999999998
 74
     0
  0
LTYPE
  5
36
330
5
100
AcDbSymbolTableRecord
100
AcDbLinetypeTableRecord
  2
BORDER2
 70
     0
  3
Border (.5x) __.__.__.__.__.__.__.__.__.__.__.
 72
    65
 73
     6
 40
22.225
 49
6.349999999999998
 74
     0
 49
-3.174999999999998
 74
     0
 49
6.349999999999998
 74
     0
 49
-3.174999999999998
 74
     0
 49
0.0
 74
     0
 49
-3.174999999999998
 74
     0
  0
LTYPE
  5
37
330
5
100
AcDbSymbolTableRecord
100
AcDbLinetypeTableRecord
  2
BORDERX2
 70
     0
  3
Border (2x) ____  ____  .  ____  ____  .  ___
 72
    65
 73
     6
 40
88.9
 49
25.4
 74
     0
 49
-12.7
 74
     0
 49
25.4
 74
     0
 49
-12.7
 74
     0
 49
0.0
 74
     0
 49
-12.7
 74
     0
  0
LTYPE
  5
38
330
5
100
AcDbSymbolTableRecord
100
AcDbLinetypeTableRecord
  2
CENTER
 70
     0
  3
Center ____ _ ____ _ ____ _ ____ _ ____ _ ____
 72
    65
 73
     4
 40
50.8
 49
31.75
 74
     0
 49
-6.349999999999998
 74
     0
 49
6.349999999999998
 74
     0
 49
-6.349999999999998
 74
     0
  0
LTYPE
  5
39
330
5
100
AcDbSymbolTableRecord
100
AcDbLinetypeTableRecord
  2
CENTER2
 70
     0
  3
Center (.5x) ___ _ ___ _ ___ _ ___ _ ___ _ ___
 72
    65
 73
     4
 40
28.575
 49
19.05
 74
     0
 49
-3.174999999999998
 74
     0
 49
3.174999999999998
 74
     0
 49
-3.174999999999998
 74
     0
  0
LTYPE
  5
3A
330
5
100
AcDbSymbolTableRecord
100
AcDbLinetypeTableRecord
  2
CENTERX2
 70
     0
  3
Center (2x) ________  __  ________  __  _____
 72
    65
 73
     4
 40
101.6
 49
63.5
 74
     0
 49
-12.7
 74
     0
 49
12.7
 74
     0
 49
-12.7
 74
     0
  0
LTYPE
  5
3B
330
5
100
AcDbSymbolTableRecord
100
AcDbLinetypeTableRecord
  2
DASHDOT
 70
     0
  3
Dash dot __ . __ . __ . __ . __ . __ . __ . __
 72
    65
 73
     4
 40
25.4
 49
12.7
 74
     0
 49
-6.349999999999998
 74
     0
 49
0.0
 74
     0
 49
-6.349999999999998
 74
     0
  0
LTYPE
  5
3C
330
5
100
AcDbSymbolTableRecord
100
AcDbLinetypeTableRecord
  2
DASHDOT2
 70
     0
  3
Dash dot (.5x) _._._._._._._._._._._._._._._.
 72
    65
 73
     4
 40
12.7
 49
6.349999999999998
 74
     0
 49
-3.174999999999998
 74
     0
 49
0.0
 74
     0
 49
-3.174999999999998
 74
     0
  0
LTYPE
  5
3D
330
5
100
AcDbSymbolTableRecord
100
AcDbLinetypeTableRecord
  2
DASHDOTX2
 70
     0
  3
Dash dot (2x) ____  .  ____  .  ____  .  ___
 72
    65
 73
     4
 40
50.8
 49
25.4
 74
     0
 49
-12.7
 74
     0
 49
0.0
 74
     0
 49
-12.7
 74
     0
  0
LTYPE
  5
3E
330
5
100
AcDbSymbolTableRecord
100
AcDbLinetypeTableRecord
  2
DASHED
 70
     0
  3
Dashed __ __ __ __ __ __ __ __ __ __ __ __ __ _
 72
    65
 73
     2
 40
19.05
 49
12.7
 74
     0
 49
-6.349999999999998
 74
     0
  0
LTYPE
  5
3F
330
5
100
AcDbSymbolTableRecord
100
AcDbLinetypeTableRecord
  2
DASHED2
 70
     0
  3
Dashed (.5x) _ _ _ _ _ _ _ _ _ _ _ _ _ _ _ _ _
 72
    65
 73
     2
 40
9.525
 49
6.349999999999998
 74
     0
 49
-3.174999999999998
 74
     0
  0
LTYPE
  5
40
330
5
100
AcDbSymbolTableRecord
100
AcDbLinetypeTableRecord
  2
DASHEDX2
 70
     0
  3
Dashed (2x) ____  ____  ____  ____  ____  ___
 72
    65
 73
     2
 40
38.1
 49
25.4
 74
     0
 49
-12.7
 74
     0
  0
LTYPE
  5
41
330
5
100
AcDbSymbolTableRecord
100
AcDbLinetypeTableRecord
  2
DIVIDE
 70
     0
  3
Divide ____ . . ____ . . ____ . . ____ . . ____
 72
    65
 73
     6
 40
31.75
 49
12.7
 74
     0
 49
-6.349999999999998
 74
     0
 49
0.0
 74
     0
 49
-6.349999999999998
 74
     0
 49
0.0
 74
     0
 49
-6.349999999999998
 74
     0
  0
LTYPE
  5
42
330
5
100
AcDbSymbolTableRecord
100
AcDbLinetypeTableRecord
  2
DIVIDE2
 70
     0
  3
Divide (.5x) __..__..__..__..__..__..__..__.._
 72
    65
 73
     6
 40
15.875
 49
6.349999999999998
 74
     0
 49
-3.174999999999998
 74
     0
 49
0.0
 74
     0
 49
-3.174999999999998
 74
     0
 49
0.0
 74
     0
 49
-3.174999999999998
 74
     0
  0
LTYPE
  5
43
330
5
100
AcDbSymbolTableRecord
100
AcDbLinetypeTableRecord
  2
DIVIDEX2
 70
     0
  3
Divide (2x) ________  .  .  ________  .  .  _
 72
    65
 73
     6
 40
63.5
 49
25.4
 74
     0
 49
-12.7
 74
     0
 49
0.0
 74
     0
 49
-12.7
 74
     0
 49
0.0
 74
     0
 49
-12.7
 74
     0
  0
LTYPE
  5
44
330
5
100
AcDbSymbolTableRecord
100
AcDbLinetypeTableRecord
  2
DOT
 70
     0
  3
Dot . . . . . . . . . . . . . . . . . . . . . .
 72
    65
 73
     2
 40
6.349999999999998
 49
0.0
 74
     0
 49
-6.349999999999998
 74
     0
  0
LTYPE
  5
45
330
5
100
AcDbSymbolTableRecord
100
AcDbLinetypeTableRecord
  2
DOT2
 70
     0
  3
Dot (.5x) .....................................
 72
    65
 73
     2
 40
3.174999999999998
 49
0.0
 74
     0
 49
-3.174999999999998
 74
     0
  0
LTYPE
  5
46
330
5
100
AcDbSymbolTableRecord
100
AcDbLinetypeTableRecord
  2
DOTX2
 70
     0
  3
Dot (2x) .  .  .  .  .  .  .  .  .  .  .  .  .
 72
    65
 73
     2
 40
12.7
 49
0.0
 74
     0
 49
-12.7
 74
     0
  0
ENDTAB
  0
TABLE
  2
LAYER
  5
2
102
{ACAD_XDICTIONARY
360
101018B
102
}
330
0
100
AcDbSymbolTable
 70
     5
  0
LAYER
  5
10
102
{ACAD_XDICTIONARY
360
10059
102
}
330
2
100
AcDbSymbolTableRecord
100
AcDbLayerTableRecord
  2
0
 70
     0
 62
   250
  6
CONTINUOUS
370
   100
390
F
347
10013
348
0
  0
LAYER
  5
47
102
{ACAD_XDICTIONARY
360
1005B
102
}
330
2
100
AcDbSymbolTableRecord
100
AcDbLayerTableRecord
  2
H
 70
     0
 62
     7
  6
CONTINUOUS
370
   100
390
F
347
10013
348
0
  0
LAYER
  5
48
102
{ACAD_XDICTIONARY
360
1005D
102
}
330
2
100
AcDbSymbolTableRecord
100
AcDbLayerTableRecord
  2
P
 70
     0
 62
   250
  6
CONTINUOUS
370
   100
390
F
347
10013
348
0
  0
LAYER
  5
49
102
{ACAD_XDICTIONARY
360
1005F
102
}
330
2
100
AcDbSymbolTableRecord
100
AcDbLayerTableRecord
  2
Text
 70
     0
 62
   250
  6
CONTINUOUS
370
   100
390
F
347
10013
348
0
  0
LAYER
  5
4A
102
{ACAD_XDICTIONARY
360
10061
102
}
330
2
100
AcDbSymbolTableRecord
100
AcDbLayerTableRecord
  2
Images
 70
     0
 62
   250
  6
CONTINUOUS
370
   100
390
F
347
10013
348
0
  0
ENDTAB
  0
TABLE
  2
STYLE
  5
3
330
0
100
AcDbSymbolTable
 70
     2
  0
STYLE
  5
11
330
3
100
AcDbSymbolTableRecord
100
AcDbTextStyleTableRecord
  2
Standard
 70
     0
 40
0.0
 41
0.75
 50
0.0
 71
     0
 42
2.5
  3
txt
  4

  0
STYLE
  5
10001
330
3
100
AcDbSymbolTableRecord
100
AcDbTextStyleTableRecord
  2
Roman
 70
     0
 40
0.0
 41
1.0
 50
0.0
 71
     0
 42
0.2
  3

  4

  0
ENDTAB
  0
TABLE
  2
VIEW
  5
6
330
0
100
AcDbSymbolTable
 70
     0
  0
ENDTAB
  0
TABLE
  2
UCS
  5
7
330
0
100
AcDbSymbolTable
 70
     0
  0
ENDTAB
  0
TABLE
  2
APPID
  5
9
330
0
100
AcDbSymbolTable
 70
     4
  0
APPID
  5
12
330
9
100
AcDbSymbolTableRecord
100
AcDbRegAppTableRecord
  2
ACAD
 70
     0
  0
APPID
  5
10052
330
9
100
AcDbSymbolTableRecord
100
AcDbRegAppTableRecord
  2
ACAD_EXEMPT_FROM_CAD_STANDARDS
 70
     0
  0
APPID
  5
1006B
330
9
100
AcDbSymbolTableRecord
100
AcDbRegAppTableRecord
  2
ACAD_NAV_VCDISPLAY
 70
     0
  0
APPID
  5
100AA
330
9
100
AcDbSymbolTableRecord
100
AcDbRegAppTableRecord
  2
ACAD_MLEADERVER
 70
     0
  0
ENDTAB
  0
TABLE
  2
DIMSTYLE
  5
A
330
0
100
AcDbSymbolTable
 70
     1
100
AcDbDimStyleTable
 71
     1
340
27
  0
DIMSTYLE
105
27
330
A
100
AcDbSymbolTableRecord
100
AcDbDimStyleTableRecord
  2
Standard
 70
     0
 41
1.0
 42
1.0
 43
3.75
 44
1.0
 73
     0
 74
     0
 77
     1
 78
     8
140
1.0
141
2.5
143
0.03937007874016
147
1.0
171
     3
172
     1
271
     2
272
     2
274
     3
278
    44
283
     0
284
     8
340
11
  0
ENDTAB
  0
TABLE
  2
BLOCK_RECORD
  5
1
330
0
100
AcDbSymbolTable
 70
     1
  0
BLOCK_RECORD
  5
1F
330
1
100
AcDbSymbolTableRecord
100
AcDbBlockTableRecord
  2
*Model_Space
340
22
 70
     0
280
     1
281
     0
  0
BLOCK_RECORD
  5
1B
330
1
100
AcDbSymbolTableRecord
100
AcDbBlockTableRecord
  2
*Paper_Space
340
1E
 70
     0
280
     1
281
     0
  0
BLOCK_RECORD
  5
23
330
1
100
AcDbSymbolTableRecord
100
AcDbBlockTableRecord
  2
*Paper_Space0
340
26
 70
     0
280
     1
281
     0
  0
ENDTAB
  0
ENDSEC
  0
SECTION
  2
BLOCKS
  0
BLOCK
  5
20
330
1F
100
AcDbEntity
  8
0
100
AcDbBlockBegin
  2
*Model_Space
 70
     0
 10
0.0
 20
0.0
 30
0.0
  3
*Model_Space
  1

  0
ENDBLK
  5
21
330
1F
100
AcDbEntity
  8
0
100
AcDbBlockEnd
  0
BLOCK
  5
1C
330
1B
100
AcDbEntity
 67
     1
  8
0
100
AcDbBlockBegin
  2
*Paper_Space
 70
     0
 10
0.0
 20
0.0
 30
0.0
  3
*Paper_Space
  1

  0
ENDBLK
  5
1D
330
1B
100
AcDbEntity
 67
     1
  8
0
100
AcDbBlockEnd
  0
BLOCK
  5
24
330
23
100
AcDbEntity
 67
     1
  8
0
100
AcDbBlockBegin
  2
*Paper_Space0
 70
     0
 10
0.0
 20
0.0
 30
0.0
  3
*Paper_Space0
  1

  0
ENDBLK
  5
25
330
23
100
AcDbEntity
 67
     1
  8
0
100
AcDbBlockEnd
  0
ENDSEC
  0
SECTION
  2
ENTITIES
  0
MTEXT
  5
52
330
1F
100
AcDbEntity
  8
Text
  6
Continuous
 62
     0
100
AcDbMText
 10
170.5
 20
36.58333333333331
 30
0.0
 40
3.25
 41
3.5
 46
0.0
 71
     4
 72
     5
  1
{\fHelveticaNeueLTPro|b0|i0|c1|p15; }
 73
     2
 44
1.0
  0
MTEXT
  5
64
330
1F
100
AcDbEntity
  8
Text
  6
Continuous
 62
     0
100
AcDbMText
 10
55.16666666666665
 20
52.16666666666668
 30
0.0
 40
3.0
 41
3.25
 46
0.0
 71
     4
 72
     5
  1
{\fHelveticaNeueLTPro|b0|i0|c1|p15; }
 73
     2
 44
1.0
  0
MTEXT
  5
6A
330
1F
100
AcDbEntity
  8
Text
  6
Continuous
 62
     0
100
AcDbMText
 10
65.33333333333333
 20
52.16666666666668
 30
0.0
 40
3.0
 41
3.25
 46
0.0
 71
     4
 72
     5
  1
{\fHelveticaNeueLTPro|b0|i0|c1|p15; }
 73
     2
 44
1.0
  0
MTEXT
  5
6E
330
1F
100
AcDbEntity
  8
Text
  6
Continuous
 62
     0
100
AcDbMText
 10
71.08333333333333
 20
52.16666666666668
 30
0.0
 40
3.0
 41
3.25
 46
0.0
 71
     4
 72
     5
  1
{\fHelveticaNeueLTPro|b0|i0|c1|p15; }
 73
     2
 44
1.0
  0
MTEXT
  5
7B
330
1F
100
AcDbEntity
  8
Text
  6
Continuous
 62
     0
100
AcDbMText
 10
93.16666666666668
 20
52.16666666666668
 30
0.0
 40
3.0
 41
3.25
 46
0.0
 71
     4
 72
     5
  1
{\fHelveticaNeueLTPro|b0|i0|c1|p15; }
 73
     2
 44
1.0
  0
MTEXT
  5
85
330
1F
100
AcDbEntity
  8
Text
  6
Continuous
 62
     0
100
AcDbMText
 10
108.75
 20
52.16666666666668
 30
0.0
 40
3.0
 41
3.25
 46
0.0
 71
     4
 72
     5
  1
{\fHelveticaNeueLTPro|b0|i0|c1|p15; }
 73
     2
 44
1.0
  0
MTEXT
  5
89
330
1F
100
AcDbEntity
  8
Text
  6
Continuous
 62
     0
100
AcDbMText
 10
115.3333333333333
 20
52.16666666666668
 30
0.0
 40
3.0
 41
3.25
 46
0.0
 71
     4
 72
     5
  1
{\fHelveticaNeueLTPro|b0|i0|c1|p15; }
 73
     2
 44
1.0
  0
MTEXT
  5
92
330
1F
100
AcDbEntity
  8
Text
  6
Continuous
 62
     0
100
AcDbMText
 10
128.9166666666666
 20
52.16666666666668
 30
0.0
 40
3.0
 41
3.25
 46
0.0
 71
     4
 72
     5
  1
{\fHelveticaNeueLTPro|b0|i0|c1|p15; }
 73
     2
 44
1.0
  0
MTEXT
  5
98
330
1F
100
AcDbEntity
  8
Text
  6
Continuous
 62
     0
100
AcDbMText
 10
137.75
 20
52.16666666666668
 30
0.0
 40
3.0
 41
3.25
 46
0.0
 71
     4
 72
     5
  1
{\fHelveticaNeueLTPro|b0|i0|c1|p15; }
 73
     2
 44
1.0
  0
MTEXT
  5
E3
330
1F
100
AcDbEntity
  8
Text
  6
Continuous
 62
     7
100
AcDbMText
 10
66.16666666666667
 20
36.41666666666669
 30
0.0
 40
3.75
 41
4.0
 46
0.0
 71
     4
 72
     5
  1
{\fHelveticaNeueLTPro|b0|i0|c1|p15; }
 73
     2
 44
1.0
  0
MTEXT
  5
E7
330
1F
100
AcDbEntity
  8
Text
  6
Continuous
 62
     7
100
AcDbMText
 10
74.33333333333333
 20
36.41666666666669
 30
0.0
 40
3.75
 41
4.0
 46
0.0
 71
     4
 72
     5
  1
{\fHelveticaNeueLTPro|b0|i0|c1|p15; }
 73
     2
 44
1.0
  0
MTEXT
  5
EB
330
1F
100
AcDbEntity
  8
Text
  6
Continuous
 62
     7
100
AcDbMText
 10
82.33333333333332
 20
36.41666666666669
 30
0.0
 40
3.75
 41
4.0
 46
0.0
 71
     4
 72
     5
  1
{\fHelveticaNeueLTPro|b0|i0|c1|p15; }
 73
     2
 44
1.0
  0
MTEXT
  5
F9
330
1F
100
AcDbEntity
  8
Text
  6
Continuous
 62
     0
100
AcDbMText
 10
273.25
 20
389.1666666666666
 30
0.0
 40
3.75
 41
4.0
 46
0.0
 71
     4
 72
     5
  1
{\fHelveticaNeueLTPro|b0|i0|c1|p15; }
 73
     2
 44
1.0
  0
MTEXT
  5
FA
330
1F
100
AcDbEntity
  8
Text
  6
Continuous
 62
     0
100
AcDbMText
 10
177.1666666666666
 20
389.4166666666666
 30
0.0
 40
3.75
 41
4.0
 46
0.0
 71
     4
 72
     5
  1
{\fHelveticaNeueLTPro|b0|i0|c1|p15; }
 73
     2
 44
1.0
  0
MTEXT
  5
10112D0
330
1F
100
AcDbEntity
  8
Text
  6
Continuous
 62
     0
100
AcDbMText
 10
27.76589033432174
 20
370.8572814946045
 30
0.0
 40
7.75
 41
144.0
 46
0.0
 71
     4
 72
     5
  1
{\fHelveticaNeueLTPro|b0|i0|c1|p15;Detailskizze 5.108}
 73
     2
 44
1.0
  0
MTEXT
  5
10112D1
330
1F
100
AcDbEntity
  8
Text
  6
Continuous
 62
     0
100
AcDbMText
 10
27.76589033432174
 20
361.8572814946045
 30
0.0
 40
7.75
 41
496.0
 46
0.0
 71
     4
 72
     5
  1
{\fStandardCTStencil|b1|i0|c1|p15;Bodenablauf mit horizontalem Abfluss - Abdichtung mit DICHT PA}
 73
     2
 44
1.0
  0
MTEXT
  5
10112D2
330
1F
100
AcDbEntity
  8
Text
  6
Continuous
 62
     0
100
AcDbMText
 10
27.76589033432174
 20
352.2739481612711
 30
0.0
 40
7.75
 41
224.0
 46
0.0
 71
     4
 72
     5
  1
{\fStandardCTStencil|b1|i0|c1|p15;hohe chemische Beanspruchung}
 73
     2
 44
1.0
  0
MTEXT
  5
10112D3
330
1F
100
AcDbEntity
  8
Text
  6
Continuous
 62
     0
100
AcDbMText
 10
27.84922366765507
 20
52.19061482793785
 30
0.0
 40
3.0
 41
3.25
 46
0.0
 71
     4
 72
     5
  1
{\fHelveticaNeueLTPro|b0|i0|c1|p15;D}
 73
     2
 44
1.0
  0
MTEXT
  5
10112D4
330
1F
100
AcDbEntity
  8
Text
  6
Continuous
 62
     0
100
AcDbMText
 10
30.18255700098841
 20
52.19061482793785
 30
0.0
 40
3.0
 41
3.25
 46
0.0
 71
     4
 72
     5
  1
{\fHelveticaNeueLTPro|b0|i0|c1|p15;e}
 73
     2
 44
1.0
  0
MTEXT
  5
10112D5
330
1F
100
AcDbEntity
  8
Text
  6
Continuous
 62
     0
100
AcDbMText
 10
31.93255700098841
 20
52.19061482793785
 30
0.0
 40
3.0
 41
3.25
 46
0.0
 71
     4
 72
     5
  1
{\fHelveticaNeueLTPro|b0|i0|c1|p15;t}
 73
     2
 44
1.0
  0
MTEXT
  5
10112D6
330
1F
100
AcDbEntity
  8
Text
  6
Continuous
 62
     0
100
AcDbMText
 10
33.01589033432174
 20
52.19061482793785
 30
0.0
 40
3.0
 41
3.25
 46
0.0
 71
     4
 72
     5
  1
{\fHelveticaNeueLTPro|b0|i0|c1|p15;a}
 73
     2
 44
1.0
  0
MTEXT
  5
10112D7
330
1F
100
AcDbEntity
  8
Text
  6
Continuous
 62
     0
100
AcDbMText
 10
34.84922366765508
 20
52.19061482793785
 30
0.0
 40
3.0
 41
3.25
 46
0.0
 71
     4
 72
     5
  1
{\fHelveticaNeueLTPro|b0|i0|c1|p15;i}
 73
     2
 44
1.0
  0
MTEXT
  5
10112D8
330
1F
100
AcDbEntity
  8
Text
  6
Continuous
 62
     0
100
AcDbMText
 10
35.59922366765507
 20
52.19061482793785
 30
0.0
 40
3.0
 41
3.25
 46
0.0
 71
     4
 72
     5
  1
{\fHelveticaNeueLTPro|b0|i0|c1|p15;l}
 73
     2
 44
1.0
  0
MTEXT
  5
10112D9
330
1F
100
AcDbEntity
  8
Text
  6
Continuous
 62
     0
100
AcDbMText
 10
36.34922366765508
 20
52.19061482793785
 30
0.0
 40
3.0
 41
3.25
 46
0.0
 71
     4
 72
     5
  1
{\fHelveticaNeueLTPro|b0|i0|c1|p15;z}
 73
     2
 44
1.0
  0
MTEXT
  5
10112DA
330
1F
100
AcDbEntity
  8
Text
  6
Continuous
 62
     0
100
AcDbMText
 10
37.9325570009884
 20
52.19061482793785
 30
0.0
 40
3.0
 41
3.25
 46
0.0
 71
     4
 72
     5
  1
{\fHelveticaNeueLTPro|b0|i0|c1|p15;e}
 73
     2
 44
1.0
  0
MTEXT
  5
10112DB
330
1F
100
AcDbEntity
  8
Text
  6
Continuous
 62
     0
100
AcDbMText
 10
39.6825570009884
 20
52.19061482793785
 30
0.0
 40
3.0
 41
3.25
 46
0.0
 71
     4
 72
     5
  1
{\fHelveticaNeueLTPro|b0|i0|c1|p15;i}
 73
     2
 44
1.0
  0
MTEXT
  5
10112DC
330
1F
100
AcDbEntity
  8
Text
  6
Continuous
 62
     0
100
AcDbMText
 10
40.51589033432174
 20
52.19061482793785
 30
0.0
 40
3.0
 41
3.25
 46
0.0
 71
     4
 72
     5
  1
{\fHelveticaNeueLTPro|b0|i0|c1|p15;c}
 73
     2
 44
1.0
  0
MTEXT
  5
10112DD
330
1F
100
AcDbEntity
  8
Text
  6
Continuous
 62
     0
100
AcDbMText
 10
42.26589033432174
 20
52.19061482793785
 30
0.0
 40
3.0
 41
3.25
 46
0.0
 71
     4
 72
     5
  1
{\fHelveticaNeueLTPro|b0|i0|c1|p15;h}
 73
     2
 44
1.0
  0
MTEXT
  5
10112DE
330
1F
100
AcDbEntity
  8
Text
  6
Continuous
 62
     0
100
AcDbMText
 10
44.09922366765507
 20
52.19061482793785
 30
0.0
 40
3.0
 41
3.25
 46
0.0
 71
     4
 72
     5
  1
{\fHelveticaNeueLTPro|b0|i0|c1|p15;n}
 73
     2
 44
1.0
  0
MTEXT
  5
10112DF
330
1F
100
AcDbEntity
  8
Text
  6
Continuous
 62
     0
100
AcDbMText
 10
45.9325570009884
 20
52.19061482793785
 30
0.0
 40
3.0
 41
3.25
 46
0.0
 71
     4
 72
     5
  1
{\fHelveticaNeueLTPro|b0|i0|c1|p15;u}
 73
     2
 44
1.0
  0
MTEXT
  5
10112E0
330
1F
100
AcDbEntity
  8
Text
  6
Continuous
 62
     0
100
AcDbMText
 10
47.76589033432173
 20
52.19061482793785
 30
0.0
 40
3.0
 41
3.25
 46
0.0
 71
     4
 72
     5
  1
{\fHelveticaNeueLTPro|b0|i0|c1|p15;n}
 73
     2
 44
1.0
  0
MTEXT
  5
10112E1
330
1F
100
AcDbEntity
  8
Text
  6
Continuous
 62
     0
100
AcDbMText
 10
49.6825570009884
 20
52.19061482793785
 30
0.0
 40
3.0
 41
3.25
 46
0.0
 71
     4
 72
     5
  1
{\fHelveticaNeueLTPro|b0|i0|c1|p15;g}
 73
     2
 44
1.0
  0
MTEXT
  5
10112E2
330
1F
100
AcDbEntity
  8
Text
  6
Continuous
 62
     0
100
AcDbMText
 10
51.51589033432173
 20
52.19061482793785
 30
0.0
 40
3.0
 41
3.25
 46
0.0
 71
     4
 72
     5
  1
{\fHelveticaNeueLTPro|b0|i0|c1|p15;e}
 73
     2
 44
1.0
  0
MTEXT
  5
10112E3
330
1F
100
AcDbEntity
  8
Text
  6
Continuous
 62
     0
100
AcDbMText
 10
53.34922366765507
 20
52.19061482793785
 30
0.0
 40
3.0
 41
3.25
 46
0.0
 71
     4
 72
     5
  1
{\fHelveticaNeueLTPro|b0|i0|c1|p15;n}
 73
     2
 44
1.0
  0
MTEXT
  5
10112E4
330
1F
100
AcDbEntity
  8
Text
  6
Continuous
 62
     0
100
AcDbMText
 10
56.09922366765507
 20
52.19061482793785
 30
0.0
 40
3.0
 41
3.25
 46
0.0
 71
     4
 72
     5
  1
{\fHelveticaNeueLTPro|b0|i0|c1|p15;h}
 73
     2
 44
1.0
  0
MTEXT
  5
10112E5
330
1F
100
AcDbEntity
  8
Text
  6
Continuous
 62
     0
100
AcDbMText
 10
57.9325570009884
 20
52.19061482793785
 30
0.0
 40
3.0
 41
3.25
 46
0.0
 71
     4
 72
     5
  1
{\fHelveticaNeueLTPro|b0|i0|c1|p15;a}
 73
     2
 44
1.0
  0
MTEXT
  5
10112E6
330
1F
100
AcDbEntity
  8
Text
  6
Continuous
 62
     0
100
AcDbMText
 10
59.76589033432174
 20
52.19061482793785
 30
0.0
 40
3.0
 41
3.25
 46
0.0
 71
     4
 72
     5
  1
{\fHelveticaNeueLTPro|b0|i0|c1|p15;b}
 73
     2
 44
1.0
  0
MTEXT
  5
10112E7
330
1F
100
AcDbEntity
  8
Text
  6
Continuous
 62
     0
100
AcDbMText
 10
61.6825570009884
 20
52.19061482793785
 30
0.0
 40
3.0
 41
3.25
 46
0.0
 71
     4
 72
     5
  1
{\fHelveticaNeueLTPro|b0|i0|c1|p15;e}
 73
     2
 44
1.0
  0
MTEXT
  5
10112E8
330
1F
100
AcDbEntity
  8
Text
  6
Continuous
 62
     0
100
AcDbMText
 10
63.51589033432174
 20
52.19061482793785
 30
0.0
 40
3.0
 41
3.25
 46
0.0
 71
     4
 72
     5
  1
{\fHelveticaNeueLTPro|b0|i0|c1|p15;n}
 73
     2
 44
1.0
  0
MTEXT
  5
10112E9
330
1F
100
AcDbEntity
  8
Text
  6
Continuous
 62
     0
100
AcDbMText
 10
66.26589033432174
 20
52.19061482793785
 30
0.0
 40
3.0
 41
3.25
 46
0.0
 71
     4
 72
     5
  1
{\fHelveticaNeueLTPro|b0|i0|c1|p15;n}
 73
     2
 44
1.0
  0
MTEXT
  5
10112EA
330
1F
100
AcDbEntity
  8
Text
  6
Continuous
 62
     0
100
AcDbMText
 10
68.09922366765507
 20
52.19061482793785
 30
0.0
 40
3.0
 41
3.25
 46
0.0
 71
     4
 72
     5
  1
{\fHelveticaNeueLTPro|b0|i0|c1|p15;u}
 73
     2
 44
1.0
  0
MTEXT
  5
10112EB
330
1F
100
AcDbEntity
  8
Text
  6
Continuous
 62
     0
100
AcDbMText
 10
69.93255700098841
 20
52.19061482793785
 30
0.0
 40
3.0
 41
3.25
 46
0.0
 71
     4
 72
     5
  1
{\fHelveticaNeueLTPro|b0|i0|c1|p15;r}
 73
     2
 44
1.0
  0
MTEXT
  5
10112EC
330
1F
100
AcDbEntity
  8
Text
  6
Continuous
 62
     0
100
AcDbMText
 10
72.01589033432174
 20
52.19061482793785
 30
0.0
 40
3.0
 41
3.25
 46
0.0
 71
     4
 72
     5
  1
{\fHelveticaNeueLTPro|b0|i0|c1|p15;e}
 73
     2
 44
1.0
  0
MTEXT
  5
10112ED
330
1F
100
AcDbEntity
  8
Text
  6
Continuous
 62
     0
100
AcDbMText
 10
73.84922366765507
 20
52.19061482793785
 30
0.0
 40
3.0
 41
3.25
 46
0.0
 71
     4
 72
     5
  1
{\fHelveticaNeueLTPro|b0|i0|c1|p15;m}
 73
     2
 44
1.0
  0
MTEXT
  5
10112EE
330
1F
100
AcDbEntity
  8
Text
  6
Continuous
 62
     0
100
AcDbMText
 10
76.59922366765506
 20
52.19061482793785
 30
0.0
 40
3.0
 41
3.25
 46
0.0
 71
     4
 72
     5
  1
{\fHelveticaNeueLTPro|b0|i0|c1|p15;p}
 73
     2
 44
1.0
  0
MTEXT
  5
10112EF
330
1F
100
AcDbEntity
  8
Text
  6
Continuous
 62
     0
100
AcDbMText
 10
78.59922366765506
 20
52.19061482793785
 30
0.0
 40
3.0
 41
3.25
 46
0.0
 71
     4
 72
     5
  1
{\fHelveticaNeueLTPro|b0|i0|c1|p15;f}
 73
     2
 44
1.0
  0
MTEXT
  5
10112F0
330
1F
100
AcDbEntity
  8
Text
  6
Continuous
 62
     0
100
AcDbMText
 10
79.59922366765507
 20
52.19061482793785
 30
0.0
 40
3.0
 41
3.25
 46
0.0
 71
     4
 72
     5
  1
{\fHelveticaNeueLTPro|b0|i0|c1|p15;e}
 73
     2
 44
1.0
  0
MTEXT
  5
10112F1
330
1F
100
AcDbEntity
  8
Text
  6
Continuous
 62
     0
100
AcDbMText
 10
81.34922366765506
 20
52.19061482793785
 30
0.0
 40
3.0
 41
3.25
 46
0.0
 71
     4
 72
     5
  1
{\fHelveticaNeueLTPro|b0|i0|c1|p15;h}
 73
     2
 44
1.0
  0
MTEXT
  5
10112F2
330
1F
100
AcDbEntity
  8
Text
  6
Continuous
 62
     0
100
AcDbMText
 10
83.26589033432174
 20
52.19061482793785
 30
0.0
 40
3.0
 41
3.25
 46
0.0
 71
     4
 72
     5
  1
{\fHelveticaNeueLTPro|b0|i0|c1|p15;l}
 73
     2
 44
1.0
  0
MTEXT
  5
10112F3
330
1F
100
AcDbEntity
  8
Text
  6
Continuous
 62
     0
100
AcDbMText
 10
84.01589033432173
 20
52.19061482793785
 30
0.0
 40
3.0
 41
3.25
 46
0.0
 71
     4
 72
     5
  1
{\fHelveticaNeueLTPro|b0|i0|c1|p15;e}
 73
     2
 44
1.0
  0
MTEXT
  5
10112F4
330
1F
100
AcDbEntity
  8
Text
  6
Continuous
 62
     0
100
AcDbMText
 10
85.76589033432174
 20
52.19061482793785
 30
0.0
 40
3.0
 41
3.25
 46
0.0
 71
     4
 72
     5
  1
{\fHelveticaNeueLTPro|b0|i0|c1|p15;n}
 73
     2
 44
1.0
  0
MTEXT
  5
10112F5
330
1F
100
AcDbEntity
  8
Text
  6
Continuous
 62
     0
100
AcDbMText
 10
87.59922366765506
 20
52.19061482793785
 30
0.0
 40
3.0
 41
3.25
 46
0.0
 71
     4
 72
     5
  1
{\fHelveticaNeueLTPro|b0|i0|c1|p15;d}
 73
     2
 44
1.0
  0
MTEXT
  5
10112F6
330
1F
100
AcDbEntity
  8
Text
  6
Continuous
 62
     0
100
AcDbMText
 10
89.59922366765507
 20
52.19061482793785
 30
0.0
 40
3.0
 41
3.25
 46
0.0
 71
     4
 72
     5
  1
{\fHelveticaNeueLTPro|b0|i0|c1|p15;e}
 73
     2
 44
1.0
  0
MTEXT
  5
10112F7
330
1F
100
AcDbEntity
  8
Text
  6
Continuous
 62
     0
100
AcDbMText
 10
91.34922366765506
 20
52.19061482793785
 30
0.0
 40
3.0
 41
3.25
 46
0.0
 71
     4
 72
     5
  1
{\fHelveticaNeueLTPro|b0|i0|c1|p15;n}
 73
     2
 44
1.0
  0
MTEXT
  5
10112F8
330
1F
100
AcDbEntity
  8
Text
  6
Continuous
 62
     0
100
AcDbMText
 10
94.18255700098841
 20
52.19061482793785
 30
0.0
 40
3.0
 41
3.25
 46
0.0
 71
     4
 72
     5
  1
{\fHelveticaNeueLTPro|b0|i0|c1|p15;C}
 73
     2
 44
1.0
  0
MTEXT
  5
10112F9
330
1F
100
AcDbEntity
  8
Text
  6
Continuous
 62
     0
100
AcDbMText
 10
96.51589033432173
 20
52.19061482793785
 30
0.0
 40
3.0
 41
3.25
 46
0.0
 71
     4
 72
     5
  1
{\fHelveticaNeueLTPro|b0|i0|c1|p15;h}
 73
     2
 44
1.0
  0
MTEXT
  5
10112FA
330
1F
100
AcDbEntity
  8
Text
  6
Continuous
 62
     0
100
AcDbMText
 10
98.34922366765507
 20
52.19061482793785
 30
0.0
 40
3.0
 41
3.25
 46
0.0
 71
     4
 72
     5
  1
{\fHelveticaNeueLTPro|b0|i0|c1|p15;a}
 73
     2
 44
1.0
  0
MTEXT
  5
10112FB
330
1F
100
AcDbEntity
  8
Text
  6
Continuous
 62
     0
100
AcDbMText
 10
100.1825570009884
 20
52.19061482793785
 30
0.0
 40
3.0
 41
3.25
 46
0.0
 71
     4
 72
     5
  1
{\fHelveticaNeueLTPro|b0|i0|c1|p15;r}
 73
     2
 44
1.0
  0
MTEXT
  5
10112FC
330
1F
100
AcDbEntity
  8
Text
  6
Continuous
 62
     0
100
AcDbMText
 10
101.2658903343217
 20
52.19061482793785
 30
0.0
 40
3.0
 41
3.25
 46
0.0
 71
     4
 72
     5
  1
{\fHelveticaNeueLTPro|b0|i0|c1|p15;a}
 73
     2
 44
1.0
  0
MTEXT
  5
10112FD
330
1F
100
AcDbEntity
  8
Text
  6
Continuous
 62
     0
100
AcDbMText
 10
103.099223667655
 20
52.19061482793785
 30
0.0
 40
3.0
 41
3.25
 46
0.0
 71
     4
 72
     5
  1
{\fHelveticaNeueLTPro|b0|i0|c1|p15;k}
 73
     2
 44
1.0
  0
MTEXT
  5
10112FE
330
1F
100
AcDbEntity
  8
Text
  6
Continuous
 62
     0
100
AcDbMText
 10
104.7658903343217
 20
52.19061482793785
 30
0.0
 40
3.0
 41
3.25
 46
0.0
 71
     4
 72
     5
  1
{\fHelveticaNeueLTPro|b0|i0|c1|p15;t}
 73
     2
 44
1.0
  0
MTEXT
  5
10112FF
330
1F
100
AcDbEntity
  8
Text
  6
Continuous
 62
     0
100
AcDbMText
 10
105.8492236676551
 20
52.19061482793785
 30
0.0
 40
3.0
 41
3.25
 46
0.0
 71
     4
 72
     5
  1
{\fHelveticaNeueLTPro|b0|i0|c1|p15;e}
 73
     2
 44
1.0
  0
MTEXT
  5
1011300
330
1F
100
AcDbEntity
  8
Text
  6
Continuous
 62
     0
100
AcDbMText
 10
107.599223667655
 20
52.19061482793785
 30
0.0
 40
3.0
 41
3.25
 46
0.0
 71
     4
 72
     5
  1
{\fHelveticaNeueLTPro|b0|i0|c1|p15;r}
 73
     2
 44
1.0
  0
MTEXT
  5
1011301
330
1F
100
AcDbEntity
  8
Text
  6
Continuous
 62
     0
100
AcDbMText
 10
109.6825570009884
 20
52.19061482793785
 30
0.0
 40
3.0
 41
3.25
 46
0.0
 71
     4
 72
     5
  1
{\fHelveticaNeueLTPro|b0|i0|c1|p15;u}
 73
     2
 44
1.0
  0
MTEXT
  5
1011302
330
1F
100
AcDbEntity
  8
Text
  6
Continuous
 62
     0
100
AcDbMText
 10
111.5158903343217
 20
52.19061482793785
 30
0.0
 40
3.0
 41
3.25
 46
0.0
 71
     4
 72
     5
  1
{\fHelveticaNeueLTPro|b0|i0|c1|p15;n}
 73
     2
 44
1.0
  0
MTEXT
  5
1011303
330
1F
100
AcDbEntity
  8
Text
  6
Continuous
 62
     0
100
AcDbMText
 10
113.349223667655
 20
52.19061482793785
 30
0.0
 40
3.0
 41
3.25
 46
0.0
 71
     4
 72
     5
  1
{\fHelveticaNeueLTPro|b0|i0|c1|p15;d}
 73
     2
 44
1.0
  0
MTEXT
  5
1011304
330
1F
100
AcDbEntity
  8
Text
  6
Continuous
 62
     0
100
AcDbMText
 10
116.2658903343217
 20
52.19061482793785
 30
0.0
 40
3.0
 41
3.25
 46
0.0
 71
     4
 72
     5
  1
{\fHelveticaNeueLTPro|b0|i0|c1|p15;e}
 73
     2
 44
1.0
  0
MTEXT
  5
1011305
330
1F
100
AcDbEntity
  8
Text
  6
Continuous
 62
     0
100
AcDbMText
 10
118.099223667655
 20
52.19061482793785
 30
0.0
 40
3.0
 41
3.25
 46
0.0
 71
     4
 72
     5
  1
{\fHelveticaNeueLTPro|b0|i0|c1|p15;r}
 73
     2
 44
1.0
  0
MTEXT
  5
1011306
330
1F
100
AcDbEntity
  8
Text
  6
Continuous
 62
     0
100
AcDbMText
 10
119.1825570009884
 20
52.19061482793785
 30
0.0
 40
3.0
 41
3.25
 46
0.0
 71
     4
 72
     5
  1
{\fHelveticaNeueLTPro|b0|i0|c1|p15;s}
 73
     2
 44
1.0
  0
MTEXT
  5
1011307
330
1F
100
AcDbEntity
  8
Text
  6
Continuous
 62
     0
100
AcDbMText
 10
120.849223667655
 20
52.19061482793785
 30
0.0
 40
3.0
 41
3.25
 46
0.0
 71
     4
 72
     5
  1
{\fHelveticaNeueLTPro|b0|i0|c1|p15;e}
 73
     2
 44
1.0
  0
MTEXT
  5
1011308
330
1F
100
AcDbEntity
  8
Text
  6
Continuous
 62
     0
100
AcDbMText
 10
122.6825570009884
 20
52.19061482793785
 30
0.0
 40
3.0
 41
3.25
 46
0.0
 71
     4
 72
     5
  1
{\fHelveticaNeueLTPro|b0|i0|c1|p15;t}
 73
     2
 44
1.0
  0
MTEXT
  5
1011309
330
1F
100
AcDbEntity
  8
Text
  6
Continuous
 62
     0
100
AcDbMText
 10
123.6825570009884
 20
52.19061482793785
 30
0.0
 40
3.0
 41
3.25
 46
0.0
 71
     4
 72
     5
  1
{\fHelveticaNeueLTPro|b0|i0|c1|p15;z}
 73
     2
 44
1.0
  0
MTEXT
  5
101130A
330
1F
100
AcDbEntity
  8
Text
  6
Continuous
 62
     0
100
AcDbMText
 10
125.2658903343217
 20
52.19061482793785
 30
0.0
 40
3.0
 41
3.25
 46
0.0
 71
     4
 72
     5
  1
{\fHelveticaNeueLTPro|b0|i0|c1|p15;e}
 73
     2
 44
1.0
  0
MTEXT
  5
101130B
330
1F
100
AcDbEntity
  8
Text
  6
Continuous
 62
     0
100
AcDbMText
 10
127.099223667655
 20
52.19061482793785
 30
0.0
 40
3.0
 41
3.25
 46
0.0
 71
     4
 72
     5
  1
{\fHelveticaNeueLTPro|b0|i0|c1|p15;n}
 73
     2
 44
1.0
  0
MTEXT
  5
101130C
330
1F
100
AcDbEntity
  8
Text
  6
Continuous
 62
     0
100
AcDbMText
 10
129.849223667655
 20
52.19061482793785
 30
0.0
 40
3.0
 41
3.25
 46
0.0
 71
     4
 72
     5
  1
{\fHelveticaNeueLTPro|b0|i0|c1|p15;k}
 73
     2
 44
1.0
  0
MTEXT
  5
101130D
330
1F
100
AcDbEntity
  8
Text
  6
Continuous
 62
     0
100
AcDbMText
 10
131.5992236676551
 20
52.19061482793785
 30
0.0
 40
3.0
 41
3.25
 46
0.0
 71
     4
 72
     5
  1
{\fHelveticaNeueLTPro|b0|i0|c1|p15;e}
 73
     2
 44
1.0
  0
MTEXT
  5
101130E
330
1F
100
AcDbEntity
  8
Text
  6
Continuous
 62
     0
100
AcDbMText
 10
133.3492236676551
 20
52.19061482793785
 30
0.0
 40
3.0
 41
3.25
 46
0.0
 71
     4
 72
     5
  1
{\fHelveticaNeueLTPro|b0|i0|c1|p15;i}
 73
     2
 44
1.0
  0
MTEXT
  5
101130F
330
1F
100
AcDbEntity
  8
Text
  6
Continuous
 62
     0
100
AcDbMText
 10
134.1825570009884
 20
52.19061482793785
 30
0.0
 40
3.0
 41
3.25
 46
0.0
 71
     4
 72
     5
  1
{\fHelveticaNeueLTPro|b0|i0|c1|p15;n}
 73
     2
 44
1.0
  0
MTEXT
  5
1011310
330
1F
100
AcDbEntity
  8
Text
  6
Continuous
 62
     0
100
AcDbMText
 10
136.0158903343217
 20
52.19061482793785
 30
0.0
 40
3.0
 41
3.25
 46
0.0
 71
     4
 72
     5
  1
{\fHelveticaNeueLTPro|b0|i0|c1|p15;e}
 73
     2
 44
1.0
  0
MTEXT
  5
1011311
330
1F
100
AcDbEntity
  8
Text
  6
Continuous
 62
     0
100
AcDbMText
 10
138.6825570009884
 20
52.19061482793785
 30
0.0
 40
3.0
 41
3.25
 46
0.0
 71
     4
 72
     5
  1
{\fHelveticaNeueLTPro|b0|i0|c1|p15;F}
 73
     2
 44
1.0
  0
MTEXT
  5
1011312
330
1F
100
AcDbEntity
  8
Text
  6
Continuous
 62
     0
100
AcDbMText
 10
140.5992236676551
 20
52.19061482793785
 30
0.0
 40
3.0
 41
3.25
 46
0.0
 71
     4
 72
     5
  1
{\fHelveticaNeueLTPro|b0|i0|c1|p15;a}
 73
     2
 44
1.0
  0
MTEXT
  5
1011313
330
1F
100
AcDbEntity
  8
Text
  6
Continuous
 62
     0
100
AcDbMText
 10
142.4325570009884
 20
52.19061482793785
 30
0.0
 40
3.0
 41
3.25
 46
0.0
 71
     4
 72
     5
  1
{\fHelveticaNeueLTPro|b0|i0|c1|p15;c}
 73
     2
 44
1.0
  0
MTEXT
  5
1011314
330
1F
100
AcDbEntity
  8
Text
  6
Continuous
 62
     0
100
AcDbMText
 10
144.1825570009884
 20
52.19061482793785
 30
0.0
 40
3.0
 41
3.25
 46
0.0
 71
     4
 72
     5
  1
{\fHelveticaNeueLTPro|b0|i0|c1|p15;h}
 73
     2
 44
1.0
  0
MTEXT
  5
1011315
330
1F
100
AcDbEntity
  8
Text
  6
Continuous
 62
     0
100
AcDbMText
 10
146.0158903343217
 20
52.19061482793785
 30
0.0
 40
3.0
 41
3.25
 46
0.0
 71
     4
 72
     5
  1
{\fHelveticaNeueLTPro|b0|i0|c1|p15;p}
 73
     2
 44
1.0
  0
MTEXT
  5
1011316
330
1F
100
AcDbEntity
  8
Text
  6
Continuous
 62
     0
100
AcDbMText
 10
148.0158903343217
 20
52.19061482793785
 30
0.0
 40
3.0
 41
3.25
 46
0.0
 71
     4
 72
     5
  1
{\fHelveticaNeueLTPro|b0|i0|c1|p15;l}
 73
     2
 44
1.0
  0
MTEXT
  5
1011317
330
1F
100
AcDbEntity
  8
Text
  6
Continuous
 62
     0
100
AcDbMText
 10
148.7658903343217
 20
52.19061482793785
 30
0.0
 40
3.0
 41
3.25
 46
0.0
 71
     4
 72
     5
  1
{\fHelveticaNeueLTPro|b0|i0|c1|p15;a}
 73
     2
 44
1.0
  0
MTEXT
  5
1011318
330
1F
100
AcDbEntity
  8
Text
  6
Continuous
 62
     0
100
AcDbMText
 10
150.5158903343217
 20
52.19061482793785
 30
0.0
 40
3.0
 41
3.25
 46
0.0
 71
     4
 72
     5
  1
{\fHelveticaNeueLTPro|b0|i0|c1|p15;n}
 73
     2
 44
1.0
  0
MTEXT
  5
1011319
330
1F
100
AcDbEntity
  8
Text
  6
Continuous
 62
     0
100
AcDbMText
 10
152.3492236676551
 20
52.19061482793785
 30
0.0
 40
3.0
 41
3.25
 46
0.0
 71
     4
 72
     5
  1
{\fHelveticaNeueLTPro|b0|i0|c1|p15;u}
 73
     2
 44
1.0
  0
MTEXT
  5
101131A
330
1F
100
AcDbEntity
  8
Text
  6
Continuous
 62
     0
100
AcDbMText
 10
154.2658903343217
 20
52.19061482793785
 30
0.0
 40
3.0
 41
3.25
 46
0.0
 71
     4
 72
     5
  1
{\fHelveticaNeueLTPro|b0|i0|c1|p15;n}
 73
     2
 44
1.0
  0
MTEXT
  5
101131B
330
1F
100
AcDbEntity
  8
Text
  6
Continuous
 62
     0
100
AcDbMText
 10
156.0992236676551
 20
52.19061482793785
 30
0.0
 40
3.0
 41
3.25
 46
0.0
 71
     4
 72
     5
  1
{\fHelveticaNeueLTPro|b0|i0|c1|p15;g}
 73
     2
 44
1.0
  0
MTEXT
  5
101131C
330
1F
100
AcDbEntity
  8
Text
  6
Continuous
 62
     0
100
AcDbMText
 10
158.0158903343217
 20
52.19061482793785
 30
0.0
 40
3.0
 41
3.25
 46
0.0
 71
     4
 72
     5
  1
{\fHelveticaNeueLTPro|b0|i0|c1|p15;!}
 73
     2
 44
1.0
  0
MTEXT
  5
101131D
330
1F
100
AcDbEntity
  8
Text
  6
Continuous
 62
     7
100
AcDbMText
 10
36.51589033432174
 20
29.44061482793785
 30
0.0
 40
3.0
 41
3.25
 46
0.0
 71
     4
 72
     5
  1
{\fHelveticaNeueLTPro|b0|i0|c1|p15;w}
 73
     2
 44
1.0
  0
MTEXT
  5
101131E
330
1F
100
AcDbEntity
  8
Text
  6
Continuous
 62
     7
100
AcDbMText
 10
39.01589033432174
 20
29.44061482793785
 30
0.0
 40
3.0
 41
3.25
 46
0.0
 71
     4
 72
     5
  1
{\fHelveticaNeueLTPro|b0|i0|c1|p15;w}
 73
     2
 44
1.0
  0
MTEXT
  5
101131F
330
1F
100
AcDbEntity
  8
Text
  6
Continuous
 62
     7
100
AcDbMText
 10
41.51589033432173
 20
29.44061482793785
 30
0.0
 40
3.0
 41
3.25
 46
0.0
 71
     4
 72
     5
  1
{\fHelveticaNeueLTPro|b0|i0|c1|p15;w}
 73
     2
 44
1.0
  0
MTEXT
  5
1011320
330
1F
100
AcDbEntity
  8
Text
  6
Continuous
 62
     7
100
AcDbMText
 10
44.01589033432173
 20
29.44061482793785
 30
0.0
 40
3.0
 41
3.25
 46
0.0
 71
     4
 72
     5
  1
{\fHelveticaNeueLTPro|b0|i0|c1|p15;.}
 73
     2
 44
1.0
  0
MTEXT
  5
1011321
330
1F
100
AcDbEntity
  8
Text
  6
Continuous
 62
     7
100
AcDbMText
 10
44.9325570009884
 20
29.44061482793785
 30
0.0
 40
3.0
 41
3.25
 46
0.0
 71
     4
 72
     5
  1
{\fHelveticaNeueLTPro|b0|i0|c1|p15;s}
 73
     2
 44
1.0
  0
MTEXT
  5
1011322
330
1F
100
AcDbEntity
  8
Text
  6
Continuous
 62
     7
100
AcDbMText
 10
46.59922366765507
 20
29.44061482793785
 30
0.0
 40
3.0
 41
3.25
 46
0.0
 71
     4
 72
     5
  1
{\fHelveticaNeueLTPro|b0|i0|c1|p15;t}
 73
     2
 44
1.0
  0
MTEXT
  5
1011323
330
1F
100
AcDbEntity
  8
Text
  6
Continuous
 62
     7
100
AcDbMText
 10
47.6825570009884
 20
29.44061482793785
 30
0.0
 40
3.0
 41
3.25
 46
0.0
 71
     4
 72
     5
  1
{\fHelveticaNeueLTPro|b0|i0|c1|p15;r}
 73
     2
 44
1.0
  0
MTEXT
  5
1011324
330
1F
100
AcDbEntity
  8
Text
  6
Continuous
 62
     7
100
AcDbMText
 10
48.76589033432174
 20
29.44061482793785
 30
0.0
 40
3.0
 41
3.25
 46
0.0
 71
     4
 72
     5
  1
{\fHelveticaNeueLTPro|b0|i0|c1|p15;a}
 73
     2
 44
1.0
  0
MTEXT
  5
1011325
330
1F
100
AcDbEntity
  8
Text
  6
Continuous
 62
     7
100
AcDbMText
 10
50.59922366765507
 20
29.44061482793785
 30
0.0
 40
3.0
 41
3.25
 46
0.0
 71
     4
 72
     5
  1
{\fHelveticaNeueLTPro|b0|i0|c1|p15;s}
 73
     2
 44
1.0
  0
MTEXT
  5
1011326
330
1F
100
AcDbEntity
  8
Text
  6
Continuous
 62
     7
100
AcDbMText
 10
52.26589033432174
 20
29.44061482793785
 30
0.0
 40
3.0
 41
3.25
 46
0.0
 71
     4
 72
     5
  1
{\fHelveticaNeueLTPro|b0|i0|c1|p15;s}
 73
     2
 44
1.0
  0
MTEXT
  5
1011327
330
1F
100
AcDbEntity
  8
Text
  6
Continuous
 62
     7
100
AcDbMText
 10
53.93255700098841
 20
29.44061482793785
 30
0.0
 40
3.0
 41
3.25
 46
0.0
 71
     4
 72
     5
  1
{\fHelveticaNeueLTPro|b0|i0|c1|p15;e}
 73
     2
 44
1.0
  0
MTEXT
  5
1011328
330
1F
100
AcDbEntity
  8
Text
  6
Continuous
 62
     7
100
AcDbMText
 10
55.6825570009884
 20
29.44061482793785
 30
0.0
 40
3.0
 41
3.25
 46
0.0
 71
     4
 72
     5
  1
{\fHelveticaNeueLTPro|b0|i0|c1|p15;r}
 73
     2
 44
1.0
  0
MTEXT
  5
1011329
330
1F
100
AcDbEntity
  8
Text
  6
Continuous
 62
     7
100
AcDbMText
 10
56.76589033432174
 20
29.44061482793785
 30
0.0
 40
3.0
 41
3.25
 46
0.0
 71
     4
 72
     5
  1
{\fHelveticaNeueLTPro|b0|i0|c1|p15;-}
 73
     2
 44
1.0
  0
MTEXT
  5
101132A
330
1F
100
AcDbEntity
  8
Text
  6
Continuous
 62
     7
100
AcDbMText
 10
58.09922366765507
 20
29.44061482793785
 30
0.0
 40
3.0
 41
3.25
 46
0.0
 71
     4
 72
     5
  1
{\fHelveticaNeueLTPro|b0|i0|c1|p15;s}
 73
     2
 44
1.0
  0
MTEXT
  5
101132B
330
1F
100
AcDbEntity
  8
Text
  6
Continuous
 62
     7
100
AcDbMText
 10
59.76589033432174
 20
29.44061482793785
 30
0.0
 40
3.0
 41
3.25
 46
0.0
 71
     4
 72
     5
  1
{\fHelveticaNeueLTPro|b0|i0|c1|p15;y}
 73
     2
 44
1.0
  0
MTEXT
  5
101132C
330
1F
100
AcDbEntity
  8
Text
  6
Continuous
 62
     7
100
AcDbMText
 10
61.43255700098841
 20
29.44061482793785
 30
0.0
 40
3.0
 41
3.25
 46
0.0
 71
     4
 72
     5
  1
{\fHelveticaNeueLTPro|b0|i0|c1|p15;s}
 73
     2
 44
1.0
  0
MTEXT
  5
101132D
330
1F
100
AcDbEntity
  8
Text
  6
Continuous
 62
     7
100
AcDbMText
 10
63.09922366765507
 20
29.44061482793785
 30
0.0
 40
3.0
 41
3.25
 46
0.0
 71
     4
 72
     5
  1
{\fHelveticaNeueLTPro|b0|i0|c1|p15;t}
 73
     2
 44
1.0
  0
MTEXT
  5
101132E
330
1F
100
AcDbEntity
  8
Text
  6
Continuous
 62
     7
100
AcDbMText
 10
64.18255700098841
 20
29.44061482793785
 30
0.0
 40
3.0
 41
3.25
 46
0.0
 71
     4
 72
     5
  1
{\fHelveticaNeueLTPro|b0|i0|c1|p15;e}
 73
     2
 44
1.0
  0
MTEXT
  5
101132F
330
1F
100
AcDbEntity
  8
Text
  6
Continuous
 62
     7
100
AcDbMText
 10
65.93255700098841
 20
29.44061482793785
 30
0.0
 40
3.0
 41
3.25
 46
0.0
 71
     4
 72
     5
  1
{\fHelveticaNeueLTPro|b0|i0|c1|p15;m}
 73
     2
 44
1.0
  0
MTEXT
  5
1011330
330
1F
100
AcDbEntity
  8
Text
  6
Continuous
 62
     7
100
AcDbMText
 10
68.76589033432174
 20
29.44061482793785
 30
0.0
 40
3.0
 41
3.25
 46
0.0
 71
     4
 72
     5
  1
{\fHelveticaNeueLTPro|b0|i0|c1|p15;e}
 73
     2
 44
1.0
  0
MTEXT
  5
1011331
330
1F
100
AcDbEntity
  8
Text
  6
Continuous
 62
     7
100
AcDbMText
 10
70.51589033432174
 20
29.44061482793785
 30
0.0
 40
3.0
 41
3.25
 46
0.0
 71
     4
 72
     5
  1
{\fHelveticaNeueLTPro|b0|i0|c1|p15;.}
 73
     2
 44
1.0
  0
MTEXT
  5
1011332
330
1F
100
AcDbEntity
  8
Text
  6
Continuous
 62
     7
100
AcDbMText
 10
71.51589033432173
 20
29.44061482793785
 30
0.0
 40
3.0
 41
3.25
 46
0.0
 71
     4
 72
     5
  1
{\fHelveticaNeueLTPro|b0|i0|c1|p15;d}
 73
     2
 44
1.0
  0
MTEXT
  5
1011333
330
1F
100
AcDbEntity
  8
Text
  6
Continuous
 62
     7
100
AcDbMText
 10
73.43255700098841
 20
29.44061482793785
 30
0.0
 40
3.0
 41
3.25
 46
0.0
 71
     4
 72
     5
  1
{\fHelveticaNeueLTPro|b0|i0|c1|p15;e}
 73
     2
 44
1.0
  0
MTEXT
  5
1011334
330
1F
100
AcDbEntity
  8
Text
  6
Continuous
 62
     7
100
AcDbMText
 10
36.51589033432174
 20
25.44061482793785
 30
0.0
 40
3.0
 41
3.25
 46
0.0
 71
     4
 72
     5
  1
{\fHelveticaNeueLTPro|b0|i0|c1|p15;i}
 73
     2
 44
1.0
  0
MTEXT
  5
1011335
330
1F
100
AcDbEntity
  8
Text
  6
Continuous
 62
     7
100
AcDbMText
 10
37.26589033432174
 20
25.44061482793785
 30
0.0
 40
3.0
 41
3.25
 46
0.0
 71
     4
 72
     5
  1
{\fHelveticaNeueLTPro|b0|i0|c1|p15;n}
 73
     2
 44
1.0
  0
MTEXT
  5
1011336
330
1F
100
AcDbEntity
  8
Text
  6
Continuous
 62
     7
100
AcDbMText
 10
39.09922366765508
 20
25.44061482793785
 30
0.0
 40
3.0
 41
3.25
 46
0.0
 71
     4
 72
     5
  1
{\fHelveticaNeueLTPro|b0|i0|c1|p15;f}
 73
     2
 44
1.0
  0
MTEXT
  5
1011337
330
1F
100
AcDbEntity
  8
Text
  6
Continuous
 62
     7
100
AcDbMText
 10
40.09922366765507
 20
25.44061482793785
 30
0.0
 40
3.0
 41
3.25
 46
0.0
 71
     4
 72
     5
  1
{\fHelveticaNeueLTPro|b0|i0|c1|p15;o}
 73
     2
 44
1.0
  0
MTEXT
  5
1011338
330
1F
100
AcDbEntity
  8
Text
  6
Continuous
 62
     7
100
AcDbMText
 10
42.01589033432173
 20
25.44061482793785
 30
0.0
 40
3.0
 41
3.25
 46
0.0
 71
     4
 72
     5
  1
{\fHelveticaNeueLTPro|b0|i0|c1|p15;@}
 73
     2
 44
1.0
  0
MTEXT
  5
1011339
330
1F
100
AcDbEntity
  8
Text
  6
Continuous
 62
     7
100
AcDbMText
 10
44.6825570009884
 20
25.44061482793785
 30
0.0
 40
3.0
 41
3.25
 46
0.0
 71
     4
 72
     5
  1
{\fHelveticaNeueLTPro|b0|i0|c1|p15;s}
 73
     2
 44
1.0
  0
MTEXT
  5
101133A
330
1F
100
AcDbEntity
  8
Text
  6
Continuous
 62
     7
100
AcDbMText
 10
46.34922366765507
 20
25.44061482793785
 30
0.0
 40
3.0
 41
3.25
 46
0.0
 71
     4
 72
     5
  1
{\fHelveticaNeueLTPro|b0|i0|c1|p15;t}
 73
     2
 44
1.0
  0
MTEXT
  5
101133B
330
1F
100
AcDbEntity
  8
Text
  6
Continuous
 62
     7
100
AcDbMText
 10
47.34922366765507
 20
25.44061482793785
 30
0.0
 40
3.0
 41
3.25
 46
0.0
 71
     4
 72
     5
  1
{\fHelveticaNeueLTPro|b0|i0|c1|p15;r}
 73
     2
 44
1.0
  0
MTEXT
  5
101133C
330
1F
100
AcDbEntity
  8
Text
  6
Continuous
 62
     7
100
AcDbMText
 10
48.51589033432174
 20
25.44061482793785
 30
0.0
 40
3.0
 41
3.25
 46
0.0
 71
     4
 72
     5
  1
{\fHelveticaNeueLTPro|b0|i0|c1|p15;a}
 73
     2
 44
1.0
  0
MTEXT
  5
101133D
330
1F
100
AcDbEntity
  8
Text
  6
Continuous
 62
     7
100
AcDbMText
 10
50.26589033432173
 20
25.44061482793785
 30
0.0
 40
3.0
 41
3.25
 46
0.0
 71
     4
 72
     5
  1
{\fHelveticaNeueLTPro|b0|i0|c1|p15;s}
 73
     2
 44
1.0
  0
MTEXT
  5
101133E
330
1F
100
AcDbEntity
  8
Text
  6
Continuous
 62
     7
100
AcDbMText
 10
51.9325570009884
 20
25.44061482793785
 30
0.0
 40
3.0
 41
3.25
 46
0.0
 71
     4
 72
     5
  1
{\fHelveticaNeueLTPro|b0|i0|c1|p15;s}
 73
     2
 44
1.0
  0
MTEXT
  5
101133F
330
1F
100
AcDbEntity
  8
Text
  6
Continuous
 62
     7
100
AcDbMText
 10
53.59922366765507
 20
25.44061482793785
 30
0.0
 40
3.0
 41
3.25
 46
0.0
 71
     4
 72
     5
  1
{\fHelveticaNeueLTPro|b0|i0|c1|p15;e}
 73
     2
 44
1.0
  0
MTEXT
  5
1011340
330
1F
100
AcDbEntity
  8
Text
  6
Continuous
 62
     7
100
AcDbMText
 10
55.34922366765507
 20
25.44061482793785
 30
0.0
 40
3.0
 41
3.25
 46
0.0
 71
     4
 72
     5
  1
{\fHelveticaNeueLTPro|b0|i0|c1|p15;r}
 73
     2
 44
1.0
  0
MTEXT
  5
1011341
330
1F
100
AcDbEntity
  8
Text
  6
Continuous
 62
     7
100
AcDbMText
 10
56.51589033432173
 20
25.44061482793785
 30
0.0
 40
3.0
 41
3.25
 46
0.0
 71
     4
 72
     5
  1
{\fHelveticaNeueLTPro|b0|i0|c1|p15;-}
 73
     2
 44
1.0
  0
MTEXT
  5
1011342
330
1F
100
AcDbEntity
  8
Text
  6
Continuous
 62
     7
100
AcDbMText
 10
57.84922366765507
 20
25.44061482793785
 30
0.0
 40
3.0
 41
3.25
 46
0.0
 71
     4
 72
     5
  1
{\fHelveticaNeueLTPro|b0|i0|c1|p15;s}
 73
     2
 44
1.0
  0
MTEXT
  5
1011343
330
1F
100
AcDbEntity
  8
Text
  6
Continuous
 62
     7
100
AcDbMText
 10
59.4325570009884
 20
25.44061482793785
 30
0.0
 40
3.0
 41
3.25
 46
0.0
 71
     4
 72
     5
  1
{\fHelveticaNeueLTPro|b0|i0|c1|p15;y}
 73
     2
 44
1.0
  0
MTEXT
  5
1011344
330
1F
100
AcDbEntity
  8
Text
  6
Continuous
 62
     7
100
AcDbMText
 10
61.09922366765507
 20
25.44061482793785
 30
0.0
 40
3.0
 41
3.25
 46
0.0
 71
     4
 72
     5
  1
{\fHelveticaNeueLTPro|b0|i0|c1|p15;s}
 73
     2
 44
1.0
  0
MTEXT
  5
1011345
330
1F
100
AcDbEntity
  8
Text
  6
Continuous
 62
     7
100
AcDbMText
 10
62.76589033432173
 20
25.44061482793785
 30
0.0
 40
3.0
 41
3.25
 46
0.0
 71
     4
 72
     5
  1
{\fHelveticaNeueLTPro|b0|i0|c1|p15;t}
 73
     2
 44
1.0
  0
MTEXT
  5
1011346
330
1F
100
AcDbEntity
  8
Text
  6
Continuous
 62
     7
100
AcDbMText
 10
63.84922366765508
 20
25.44061482793785
 30
0.0
 40
3.0
 41
3.25
 46
0.0
 71
     4
 72
     5
  1
{\fHelveticaNeueLTPro|b0|i0|c1|p15;e}
 73
     2
 44
1.0
  0
MTEXT
  5
1011347
330
1F
100
AcDbEntity
  8
Text
  6
Continuous
 62
     7
100
AcDbMText
 10
65.68255700098841
 20
25.44061482793785
 30
0.0
 40
3.0
 41
3.25
 46
0.0
 71
     4
 72
     5
  1
{\fHelveticaNeueLTPro|b0|i0|c1|p15;m}
 73
     2
 44
1.0
  0
MTEXT
  5
1011348
330
1F
100
AcDbEntity
  8
Text
  6
Continuous
 62
     7
100
AcDbMText
 10
68.43255700098841
 20
25.44061482793785
 30
0.0
 40
3.0
 41
3.25
 46
0.0
 71
     4
 72
     5
  1
{\fHelveticaNeueLTPro|b0|i0|c1|p15;e}
 73
     2
 44
1.0
  0
MTEXT
  5
1011349
330
1F
100
AcDbEntity
  8
Text
  6
Continuous
 62
     7
100
AcDbMText
 10
70.26589033432173
 20
25.44061482793785
 30
0.0
 40
3.0
 41
3.25
 46
0.0
 71
     4
 72
     5
  1
{\fHelveticaNeueLTPro|b0|i0|c1|p15;.}
 73
     2
 44
1.0
  0
MTEXT
  5
101134A
330
1F
100
AcDbEntity
  8
Text
  6
Continuous
 62
     7
100
AcDbMText
 10
71.18255700098841
 20
25.44061482793785
 30
0.0
 40
3.0
 41
3.25
 46
0.0
 71
     4
 72
     5
  1
{\fHelveticaNeueLTPro|b0|i0|c1|p15;d}
 73
     2
 44
1.0
  0
MTEXT
  5
101134B
330
1F
100
AcDbEntity
  8
Text
  6
Continuous
 62
     7
100
AcDbMText
 10
73.18255700098841
 20
25.44061482793785
 30
0.0
 40
3.0
 41
3.25
 46
0.0
 71
     4
 72
     5
  1
{\fHelveticaNeueLTPro|b0|i0|c1|p15;e}
 73
     2
 44
1.0
  0
MTEXT
  5
101134C
330
1F
100
AcDbEntity
  8
Text
  6
Continuous
 62
     7
100
AcDbMText
 10
36.18255700098841
 20
36.44061482793785
 30
0.0
 40
3.75
 41
4.0
 46
0.0
 71
     4
 72
     5
  1
{\fHelveticaNeueLTPro|b0|i0|c1|p15;S}
 73
     2
 44
1.0
  0
MTEXT
  5
101134D
330
1F
100
AcDbEntity
  8
Text
  6
Continuous
 62
     7
100
AcDbMText
 10
38.84922366765508
 20
36.44061482793785
 30
0.0
 40
3.75
 41
4.0
 46
0.0
 71
     4
 72
     5
  1
{\fHelveticaNeueLTPro|b0|i0|c1|p15;e}
 73
     2
 44
1.0
  0
MTEXT
  5
101134E
330
1F
100
AcDbEntity
  8
Text
  6
Continuous
 62
     7
100
AcDbMText
 10
41.1825570009884
 20
36.44061482793785
 30
0.0
 40
3.75
 41
4.0
 46
0.0
 71
     4
 72
     5
  1
{\fHelveticaNeueLTPro|b0|i0|c1|p15;r}
 73
     2
 44
1.0
  0
MTEXT
  5
101134F
330
1F
100
AcDbEntity
  8
Text
  6
Continuous
 62
     7
100
AcDbMText
 10
42.76589033432173
 20
36.44061482793785
 30
0.0
 40
3.75
 41
4.0
 46
0.0
 71
     4
 72
     5
  1
{\fHelveticaNeueLTPro|b0|i0|c1|p15;v}
 73
     2
 44
1.0
  0
MTEXT
  5
1011350
330
1F
100
AcDbEntity
  8
Text
  6
Continuous
 62
     7
100
AcDbMText
 10
44.9325570009884
 20
36.44061482793785
 30
0.0
 40
3.75
 41
4.0
 46
0.0
 71
     4
 72
     5
  1
{\fHelveticaNeueLTPro|b0|i0|c1|p15;i}
 73
     2
 44
1.0
  0
MTEXT
  5
1011351
330
1F
100
AcDbEntity
  8
Text
  6
Continuous
 62
     7
100
AcDbMText
 10
46.01589033432174
 20
36.44061482793785
 30
0.0
 40
3.75
 41
4.0
 46
0.0
 71
     4
 72
     5
  1
{\fHelveticaNeueLTPro|b0|i0|c1|p15;c}
 73
     2
 44
1.0
  0
MTEXT
  5
1011352
330
1F
100
AcDbEntity
  8
Text
  6
Continuous
 62
     7
100
AcDbMText
 10
48.34922366765507
 20
36.44061482793785
 30
0.0
 40
3.75
 41
4.0
 46
0.0
 71
     4
 72
     5
  1
{\fHelveticaNeueLTPro|b0|i0|c1|p15;e}
 73
     2
 44
1.0
  0
MTEXT
  5
1011353
330
1F
100
AcDbEntity
  8
Text
  6
Continuous
 62
     7
100
AcDbMText
 10
50.6825570009884
 20
36.44061482793785
 30
0.0
 40
3.75
 41
4.0
 46
0.0
 71
     4
 72
     5
  1
{\fHelveticaNeueLTPro|b0|i0|c1|p15;-}
 73
     2
 44
1.0
  0
MTEXT
  5
1011354
330
1F
100
AcDbEntity
  8
Text
  6
Continuous
 62
     7
100
AcDbMText
 10
52.34922366765507
 20
36.44061482793785
 30
0.0
 40
3.75
 41
4.0
 46
0.0
 71
     4
 72
     5
  1
{\fHelveticaNeueLTPro|b0|i0|c1|p15;H}
 73
     2
 44
1.0
  0
MTEXT
  5
1011355
330
1F
100
AcDbEntity
  8
Text
  6
Continuous
 62
     7
100
AcDbMText
 10
55.34922366765507
 20
36.44061482793785
 30
0.0
 40
3.75
 41
4.0
 46
0.0
 71
     4
 72
     5
  1
{\fHelveticaNeueLTPro|b0|i0|c1|p15;o}
 73
     2
 44
1.0
  0
MTEXT
  5
1011356
330
1F
100
AcDbEntity
  8
Text
  6
Continuous
 62
     7
100
AcDbMText
 10
57.84922366765507
 20
36.44061482793785
 30
0.0
 40
3.75
 41
4.0
 46
0.0
 71
     4
 72
     5
  1
{\fHelveticaNeueLTPro|b0|i0|c1|p15;t}
 73
     2
 44
1.0
  0
MTEXT
  5
1011357
330
1F
100
AcDbEntity
  8
Text
  6
Continuous
 62
     7
100
AcDbMText
 10
59.26589033432174
 20
36.44061482793785
 30
0.0
 40
3.75
 41
4.0
 46
0.0
 71
     4
 72
     5
  1
{\fHelveticaNeueLTPro|b0|i0|c1|p15;l}
 73
     2
 44
1.0
  0
MTEXT
  5
1011358
330
1F
100
AcDbEntity
  8
Text
  6
Continuous
 62
     7
100
AcDbMText
 10
60.34922366765507
 20
36.44061482793785
 30
0.0
 40
3.75
 41
4.0
 46
0.0
 71
     4
 72
     5
  1
{\fHelveticaNeueLTPro|b0|i0|c1|p15;i}
 73
     2
 44
1.0
  0
MTEXT
  5
1011359
330
1F
100
AcDbEntity
  8
Text
  6
Continuous
 62
     7
100
AcDbMText
 10
61.43255700098841
 20
36.44061482793785
 30
0.0
 40
3.75
 41
4.0
 46
0.0
 71
     4
 72
     5
  1
{\fHelveticaNeueLTPro|b0|i0|c1|p15;n}
 73
     2
 44
1.0
  0
MTEXT
  5
101135A
330
1F
100
AcDbEntity
  8
Text
  6
Continuous
 62
     7
100
AcDbMText
 10
63.84922366765508
 20
36.44061482793785
 30
0.0
 40
3.75
 41
4.0
 46
0.0
 71
     4
 72
     5
  1
{\fHelveticaNeueLTPro|b0|i0|c1|p15;e}
 73
     2
 44
1.0
  0
MTEXT
  5
101135B
330
1F
100
AcDbEntity
  8
Text
  6
Continuous
 62
     7
100
AcDbMText
 10
67.34922366765506
 20
36.44061482793785
 30
0.0
 40
3.75
 41
4.0
 46
0.0
 71
     4
 72
     5
  1
{\fHelveticaNeueLTPro|b0|i0|c1|p15;+}
 73
     2
 44
1.0
  0
MTEXT
  5
101135C
330
1F
100
AcDbEntity
  8
Text
  6
Continuous
 62
     7
100
AcDbMText
 10
69.84922366765506
 20
36.44061482793785
 30
0.0
 40
3.75
 41
4.0
 46
0.0
 71
     4
 72
     5
  1
{\fHelveticaNeueLTPro|b0|i0|c1|p15;4}
 73
     2
 44
1.0
  0
MTEXT
  5
101135D
330
1F
100
AcDbEntity
  8
Text
  6
Continuous
 62
     7
100
AcDbMText
 10
72.09922366765507
 20
36.44061482793785
 30
0.0
 40
3.75
 41
4.0
 46
0.0
 71
     4
 72
     5
  1
{\fHelveticaNeueLTPro|b0|i0|c1|p15;9}
 73
     2
 44
1.0
  0
MTEXT
  5
101135E
330
1F
100
AcDbEntity
  8
Text
  6
Continuous
 62
     7
100
AcDbMText
 10
75.51589033432174
 20
36.44061482793785
 30
0.0
 40
3.75
 41
4.0
 46
0.0
 71
     4
 72
     5
  1
{\fHelveticaNeueLTPro|b0|i0|c1|p15;5}
 73
     2
 44
1.0
  0
MTEXT
  5
101135F
330
1F
100
AcDbEntity
  8
Text
  6
Continuous
 62
     7
100
AcDbMText
 10
77.76589033432173
 20
36.44061482793785
 30
0.0
 40
3.75
 41
4.0
 46
0.0
 71
     4
 72
     5
  1
{\fHelveticaNeueLTPro|b0|i0|c1|p15;4}
 73
     2
 44
1.0
  0
MTEXT
  5
1011360
330
1F
100
AcDbEntity
  8
Text
  6
Continuous
 62
     7
100
AcDbMText
 10
80.09922366765506
 20
36.44061482793785
 30
0.0
 40
3.75
 41
4.0
 46
0.0
 71
     4
 72
     5
  1
{\fHelveticaNeueLTPro|b0|i0|c1|p15;1}
 73
     2
 44
1.0
  0
MTEXT
  5
1011361
330
1F
100
AcDbEntity
  8
Text
  6
Continuous
 62
     7
100
AcDbMText
 10
83.51589033432174
 20
36.44061482793785
 30
0.0
 40
3.75
 41
4.0
 46
0.0
 71
     4
 72
     5
  1
{\fHelveticaNeueLTPro|b0|i0|c1|p15;6}
 73
     2
 44
1.0
  0
MTEXT
  5
1011362
330
1F
100
AcDbEntity
  8
Text
  6
Continuous
 62
     7
100
AcDbMText
 10
85.76589033432174
 20
36.44061482793785
 30
0.0
 40
3.75
 41
4.0
 46
0.0
 71
     4
 72
     5
  1
{\fHelveticaNeueLTPro|b0|i0|c1|p15;0}
 73
     2
 44
1.0
  0
MTEXT
  5
1011363
330
1F
100
AcDbEntity
  8
Text
  6
Continuous
 62
     7
100
AcDbMText
 10
88.01589033432174
 20
36.44061482793785
 30
0.0
 40
3.75
 41
4.0
 46
0.0
 71
     4
 72
     5
  1
{\fHelveticaNeueLTPro|b0|i0|c1|p15;1}
 73
     2
 44
1.0
  0
MTEXT
  5
1011364
330
1F
100
AcDbEntity
  8
Text
  6
Continuous
 62
     7
100
AcDbMText
 10
90.26589033432173
 20
36.44061482793785
 30
0.0
 40
3.75
 41
4.0
 46
0.0
 71
     4
 72
     5
  1
{\fHelveticaNeueLTPro|b0|i0|c1|p15;-}
 73
     2
 44
1.0
  0
MTEXT
  5
1011365
330
1F
100
AcDbEntity
  8
Text
  6
Continuous
 62
     7
100
AcDbMText
 10
91.93255700098841
 20
36.44061482793785
 30
0.0
 40
3.75
 41
4.0
 46
0.0
 71
     4
 72
     5
  1
{\fHelveticaNeueLTPro|b0|i0|c1|p15;2}
 73
     2
 44
1.0
  0
MTEXT
  5
1011366
330
1F
100
AcDbEntity
  8
Text
  6
Continuous
 62
     7
100
AcDbMText
 10
94.26589033432174
 20
36.44061482793785
 30
0.0
 40
3.75
 41
4.0
 46
0.0
 71
     4
 72
     5
  1
{\fHelveticaNeueLTPro|b0|i0|c1|p15;3}
 73
     2
 44
1.0
  0
MTEXT
  5
1011367
330
1F
100
AcDbEntity
  8
Text
  6
Continuous
 62
     7
100
AcDbMText
 10
96.51589033432173
 20
36.44061482793785
 30
0.0
 40
3.75
 41
4.0
 46
0.0
 71
     4
 72
     5
  1
{\fHelveticaNeueLTPro|b0|i0|c1|p15;5}
 73
     2
 44
1.0
  0
LWPOLYLINE
  5
1011368
330
1F
100
AcDbEntity
  8
P
  6
Continuous
 62
     0
100
AcDbPolyline
 90
        2
 70
     0
 43
0.0
 10
28.34922366765507
 20
43.44061482793785
 10
280.5992236676551
 20
43.44061482793785
  0
LWPOLYLINE
  5
1011369
330
1F
100
AcDbEntity
  8
P
  6
Continuous
 62
     0
100
AcDbPolyline
 90
        2
 70
     0
 43
0.0
 10
102.5158903343217
 20
380.3572814946045
 10
243.3492236676551
 20
380.3572814946045
  0
MTEXT
  5
101136A
330
1F
100
AcDbEntity
  8
Text
  6
Continuous
 62
     0
100
AcDbMText
 10
102.349223667655
 20
394.4406148279378
 30
0.0
 40
3.75
 41
32.0
 46
0.0
 71
     4
 72
     5
  1
{\fHelveticaNeueLTPro|b0|i0|c1|p15;Variante}
 73
     2
 44
1.0
  0
MTEXT
  5
101136B
330
1F
100
AcDbEntity
  8
Text
  6
Continuous
 62
     0
100
AcDbMText
 10
102.349223667655
 20
389.1906148279378
 30
0.0
 40
3.75
 41
24.0
 46
0.0
 71
     4
 72
     5
  1
{\fHelveticaNeueLTPro|b0|i0|c1|p15;Fliese}
 73
     2
 44
1.0
  0
LWPOLYLINE
  5
101136C
330
1F
100
AcDbEntity
  8
P
  6
Continuous
 62
     0
100
AcDbPolyline
 90
        2
 70
     0
 43
0.0
 10
245.5158903343217
 20
380.3572814946045
 10
280.6825570009884
 20
380.3572814946045
  0
MTEXT
  5
101136D
330
1F
100
AcDbEntity
  8
Text
  6
Continuous
 62
     0
100
AcDbMText
 10
245.5158903343217
 20
389.1906148279378
 30
0.0
 40
3.75
 41
56.0
 46
0.0
 71
     4
 72
     5
  1
{\fHelveticaNeueLTPro|b0|i0|c1|p15;Stand 12.2018 }
 73
     2
 44
1.0
  0
LWPOLYLINE
  5
101136E
330
1F
100
AcDbEntity
  8
P
  6
Continuous
 62
     0
100
AcDbPolyline
 90
        2
 70
     0
 43
0.0
 10
28.34922366765507
 20
380.3572814946045
 10
100.4325570009884
 20
380.3572814946045
  0
MTEXT
  5
101136F
330
1F
100
AcDbEntity
  8
Text
  6
Continuous
 62
     0
100
AcDbMText
 10
27.68255700098841
 20
394.4406148279378
 30
0.0
 40
3.75
 41
40.0
 46
0.0
 71
     4
 72
     5
  1
{\fHelveticaNeueLTPro|b0|i0|c1|p15;System 5  }
 73
     2
 44
1.0
  0
MTEXT
  5
1011370
330
1F
100
AcDbEntity
  8
Text
  6
Continuous
 62
     0
100
AcDbMText
 10
27.68255700098841
 20
389.1906148279378
 30
0.0
 40
3.75
 41
84.0
 46
0.0
 71
     4
 72
     5
  1
{\fHelveticaNeueLTPro|b0|i0|c1|p15;Industrie und Gewerbe}
 73
     2
 44
1.0
  0
MTEXT
  5
1011371
330
1F
100
AcDbEntity
  8
Text
  6
Continuous
 62
     0
100
AcDbMText
 10
37.1825570009884
 20
130.9406148279378
 30
0.0
 40
3.75
 41
184.0
 46
0.0
 71
     4
 72
     5
  1
{\fHelveticaNeueLTPro|b0|i0|c1|p15;Bodenablauf mit systemeigener Bodenmanschette }
 73
     2
 44
1.0
  0
MTEXT
  5
1011372
330
1F
100
AcDbEntity
  8
Text
  6
Continuous
 62
     0
100
AcDbMText
 10
37.1825570009884
 20
125.1906148279378
 30
0.0
 40
3.0
 41
71.5
 46
0.0
 71
     4
 72
     5
  1
{\fHelveticaNeueLTPro|b0|i0|c1|p15;DICHT PA PU-Abdichtung}
 73
     2
 44
1.0
  0
MTEXT
  5
1011373
330
1F
100
AcDbEntity
  8
Text
  6
Continuous
 62
     7
100
AcDbMText
 10
30.18255700098841
 20
130.8572814946044
 30
0.0
 40
3.25
 41
3.5
 46
0.0
 71
     4
 72
     5
  1
{\fHelveticaNeueLTPro|b0|i0|c1|p15;3}
 73
     2
 44
1.0
  0
MTEXT
  5
1011374
330
1F
100
AcDbEntity
  8
Text
  6
Continuous
 62
     0
100
AcDbMText
 10
37.1825570009884
 20
116.2739481612711
 30
0.0
 40
3.75
 41
92.0
 46
0.0
 71
     4
 72
     5
  1
{\fHelveticaNeueLTPro|b0|i0|c1|p15;Lastverteilungsschicht }
 73
     2
 44
1.0
  0
MTEXT
  5
1011375
330
1F
100
AcDbEntity
  8
Text
  6
Continuous
 62
     7
100
AcDbMText
 10
30.18255700098841
 20
115.6072814946045
 30
0.0
 40
3.25
 41
3.5
 46
0.0
 71
     4
 72
     5
  1
{\fHelveticaNeueLTPro|b0|i0|c1|p15;4}
 73
     2
 44
1.0
  0
MTEXT
  5
1011376
330
1F
100
AcDbEntity
  8
Text
  6
Continuous
 62
     0
100
AcDbMText
 10
37.1825570009884
 20
104.7739481612711
 30
0.0
 40
3.75
 41
28.0
 46
0.0
 71
     4
 72
     5
  1
{\fHelveticaNeueLTPro|b0|i0|c1|p15;Kleber }
 73
     2
 44
1.0
  0
MTEXT
  5
1011377
330
1F
100
AcDbEntity
  8
Text
  6
Continuous
 62
     0
100
AcDbMText
 10
37.1825570009884
 20
99.52394816127117
 30
0.0
 40
3.0
 41
117.0
 46
0.0
 71
     4
 72
     5
  1
{\fHelveticaNeueLTPro|b0|i0|c1|p15;FLEX MEKF Multi Epoxid Kleber + Fuge}
 73
     2
 44
1.0
  0
MTEXT
  5
1011378
330
1F
100
AcDbEntity
  8
Text
  6
Continuous
 62
     7
100
AcDbMText
 10
30.18255700098841
 20
104.8572814946044
 30
0.0
 40
3.25
 41
3.5
 46
0.0
 71
     4
 72
     5
  1
{\fHelveticaNeueLTPro|b0|i0|c1|p15;5}
 73
     2
 44
1.0
  0
MTEXT
  5
1011379
330
1F
100
AcDbEntity
  8
Text
  6
Continuous
 62
     0
100
AcDbMText
 10
37.1825570009884
 20
155.9406148279378
 30
0.0
 40
3.75
 41
124.0
 46
0.0
 71
     4
 72
     5
  1
{\fHelveticaNeueLTPro|b0|i0|c0|p15;Untergrund (fest und tragfähig)}
 73
     2
 44
1.0
  0
MTEXT
  5
101137A
330
1F
100
AcDbEntity
  8
Text
  6
Continuous
 62
     0
100
AcDbMText
 10
37.09922366765507
 20
150.1906148279378
 30
0.0
 40
3.0
 41
26.0
 46
0.0
 71
     4
 72
     5
  1
{\fHelveticaNeueLTPro|b0|i0|c1|p15;Boden:  }
 73
     2
 44
1.0
  0
MTEXT
  5
101137B
330
1F
100
AcDbEntity
  8
Text
  6
Continuous
 62
     0
100
AcDbMText
 10
49.84922366765507
 20
150.1906148279378
 30
0.0
 40
3.0
 41
16.25
 46
0.0
 71
     4
 72
     5
  1
{\fHelveticaNeueLTPro|b0|i0|c1|p15;Beton}
 73
     2
 44
1.0
  0
MTEXT
  5
101137C
330
1F
100
AcDbEntity
  8
Text
  6
Continuous
 62
     7
100
AcDbMText
 10
30.18255700098841
 20
155.9406148279378
 30
0.0
 40
3.25
 41
3.5
 46
0.0
 71
     4
 72
     5
  1
{\fHelveticaNeueLTPro|b0|i0|c1|p15;1}
 73
     2
 44
1.0
  0
MTEXT
  5
101137D
330
1F
100
AcDbEntity
  8
Text
  6
Continuous
 62
     0
100
AcDbMText
 10
37.1825570009884
 20
142.4406148279378
 30
0.0
 40
3.75
 41
48.0
 46
0.0
 71
     4
 72
     5
  1
{\fHelveticaNeueLTPro|b0|i0|c0|p15;Wärmedämmung}
 73
     2
 44
1.0
  0
MTEXT
  5
101137E
330
1F
100
AcDbEntity
  8
Text
  6
Continuous
 62
     7
100
AcDbMText
 10
30.18255700098841
 20
142.4406148279378
 30
0.0
 40
3.25
 41
3.5
 46
0.0
 71
     4
 72
     5
  1
{\fHelveticaNeueLTPro|b0|i0|c1|p15;2}
 73
     2
 44
1.0
  0
MTEXT
  5
101137F
330
1F
100
AcDbEntity
  8
Text
  6
Continuous
 62
     0
100
AcDbMText
 10
37.1825570009884
 20
90.85728149460448
 30
0.0
 40
3.75
 41
64.0
 46
0.0
 71
     4
 72
     5
  1
{\fHelveticaNeueLTPro|b0|i0|c1|p15;Fliesenbelag neu}
 73
     2
 44
1.0
  0
MTEXT
  5
1011380
330
1F
100
AcDbEntity
  8
Text
  6
Continuous
 62
     7
100
AcDbMText
 10
30.18255700098841
 20
90.19061482793786
 30
0.0
 40
3.25
 41
3.5
 46
0.0
 71
     4
 72
     5
  1
{\fHelveticaNeueLTPro|b0|i0|c1|p15;6}
 73
     2
 44
1.0
  0
LWPOLYLINE
  5
1011381
330
1F
100
AcDbEntity
  8
P
  6
Continuous
 62
     0
100
AcDbPolyline
 90
        2
 70
     0
 43
0.0
 10
215.5992236676551
 20
312.3572814946045
 10
215.5992236676551
 20
283.7739481612711
  0
MTEXT
  5
1011382
330
1F
100
AcDbEntity
  8
Text
  6
Continuous
 62
     0
100
AcDbMText
 10
214.5992236676551
 20
317.1072814946045
 30
0.0
 40
3.25
 41
3.5
 46
0.0
 71
     4
 72
     5
  1
{\fHelveticaNeueLTPro|b0|i0|c1|p15;5}
 73
     2
 44
1.0
  0
LWPOLYLINE
  5
1011383
330
1F
100
AcDbEntity
  8
P
  6
Continuous
 62
     0
100
AcDbPolyline
 90
        2
 70
     0
 43
0.0
 10
201.1825570009884
 20
253.0239481612712
 10
255.7658903343217
 20
253.0239481612712
  0
LWPOLYLINE
  5
1011384
330
1F
100
AcDbEntity
  8
P
  6
Continuous
 62
     0
100
AcDbPolyline
 90
        2
 70
     0
 43
0.0
 10
226.5992236676551
 20
286.3572814946044
 10
255.7658903343217
 20
287.6906148279378
  0
LWPOLYLINE
  5
1011385
330
1F
100
AcDbEntity
  8
P
  6
Continuous
 62
     0
100
AcDbPolyline
 90
        2
 70
     0
 43
0.0
 10
205.2658903343217
 20
194.1072814946044
 10
142.5992236676551
 20
194.1072814946044
  0
LWPOLYLINE
  5
1011386
330
1F
100
AcDbEntity
  8
P
  6
Continuous
 62
     0
100
AcDbPolyline
 90
        2
 70
     0
 43
0.0
 10
205.2658903343217
 20
194.1072814946044
 10
255.7658903343217
 20
194.1072814946044
  0
LWPOLYLINE
  5
1011387
330
1F
100
AcDbEntity
  8
P
  6
Continuous
 62
     0
100
AcDbPolyline
 90
        2
 70
     0
 43
0.0
 10
152.7658903343217
 20
285.1072814946044
 10
152.7658903343217
 20
280.5239481612712
  0
LWPOLYLINE
  5
1011388
330
1F
100
AcDbEntity
  8
P
  6
Continuous
 62
     0
100
AcDbPolyline
 90
        2
 70
     0
 43
0.0
 10
190.5158903343217
 20
240.9406148279378
 10
190.5158903343217
 20
242.0239481612711
  0
LWPOLYLINE
  5
1011389
330
1F
100
AcDbEntity
  8
P
  6
Continuous
 62
     0
100
AcDbPolyline
 90
        2
 70
     0
 43
0.0
 10
188.7658903343217
 20
294.6906148279378
 10
255.7658903343217
 20
297.7739481612712
  0
LWPOLYLINE
  5
101138A
330
1F
100
AcDbEntity
  8
P
  6
Continuous
 62
     0
100
AcDbPolyline
 90
        2
 70
     0
 43
0.0
 10
189.1825570009883
 20
287.7739481612712
 10
255.7658903343217
 20
290.8572814946044
  0
LWPOLYLINE
  5
101138B
330
1F
100
AcDbEntity
  8
P
  6
Continuous
 62
     0
100
AcDbPolyline
 90
        2
 70
     0
 43
0.0
 10
188.7658903343217
 20
294.6906148279378
 10
189.1825570009883
 20
287.7739481612712
  0
LWPOLYLINE
  5
101138C
330
1F
100
AcDbEntity
  8
P
  6
Continuous
 62
     0
100
AcDbPolyline
 90
        2
 70
     0
 43
0.0
 10
192.2658903343217
 20
285.1072814946044
 10
192.8492236676551
 20
280.5239481612712
  0
LWPOLYLINE
  5
101138D
330
1F
100
AcDbEntity
  8
P
  6
Continuous
 62
     0
100
AcDbPolyline
 90
        2
 70
     0
 43
0.0
 10
183.5992236676551
 20
279.5239481612711
 10
189.4325570009883
 20
279.5239481612711
  0
LWPOLYLINE
  5
101138E
330
1F
100
AcDbEntity
  8
P
  6
Continuous
 62
     0
100
AcDbPolyline
 90
        2
 70
     0
 43
0.0
 10
84.09922366765504
 20
253.0239481612712
 10
29.43255700098843
 20
253.0239481612712
  0
LWPOLYLINE
  5
101138F
330
1F
100
AcDbEntity
  8
P
  6
Continuous
 62
     0
100
AcDbPolyline
 90
        2
 70
     0
 43
0.0
 10
58.68255700098842
 20
286.3572814946044
 10
29.43255700098843
 20
287.6906148279378
  0
LWPOLYLINE
  5
1011390
330
1F
100
AcDbEntity
  8
P
  6
Continuous
 62
     0
100
AcDbPolyline
 90
        2
 70
     0
 43
0.0
 10
79.93255700098842
 20
194.1072814946044
 10
142.5992236676551
 20
194.1072814946044
  0
LWPOLYLINE
  5
1011391
330
1F
100
AcDbEntity
  8
P
  6
Continuous
 62
     0
100
AcDbPolyline
 90
        2
 70
     0
 43
0.0
 10
79.93255700098842
 20
194.1072814946044
 10
29.43255700098843
 20
194.1072814946044
  0
LWPOLYLINE
  5
1011392
330
1F
100
AcDbEntity
  8
P
  6
Continuous
 62
     0
100
AcDbPolyline
 90
        2
 70
     0
 43
0.0
 10
132.5158903343217
 20
285.1072814946044
 10
132.5158903343217
 20
280.5239481612712
  0
LWPOLYLINE
  5
1011393
330
1F
100
AcDbEntity
  8
P
  6
Continuous
 62
     0
100
AcDbPolyline
 90
        2
 70
     0
 43
0.0
 10
96.51589033432173
 20
294.6906148279378
 10
29.43255700098843
 20
297.7739481612712
  0
LWPOLYLINE
  5
1011394
330
1F
100
AcDbEntity
  8
P
  6
Continuous
 62
     0
100
AcDbPolyline
 90
        2
 70
     0
 43
0.0
 10
96.01589033432174
 20
287.7739481612712
 10
29.43255700098843
 20
290.8572814946044
  0
LWPOLYLINE
  5
1011395
330
1F
100
AcDbEntity
  8
P
  6
Continuous
 62
     0
100
AcDbPolyline
 90
        2
 70
     0
 43
0.0
 10
96.51589033432173
 20
294.6906148279378
 10
96.01589033432174
 20
287.7739481612712
  0
LWPOLYLINE
  5
1011396
330
1F
100
AcDbEntity
  8
P
  6
DASHDOT
 62
     0
100
AcDbPolyline
 90
        2
 70
     0
 43
0.0
 10
29.43255700098843
 20
172.2739481612711
 10
255.7658903343217
 20
172.2739481612711
  0
LWPOLYLINE
  5
1011397
330
1F
100
AcDbEntity
  8
P
  6
Continuous
 62
     0
100
AcDbPolyline
 90
        2
 70
     0
 43
0.0
 10
192.2658903343217
 20
285.1072814946044
 10
142.5992236676551
 20
285.1072814946044
  0
LWPOLYLINE
  5
1011398
330
1F
100
AcDbEntity
  8
P
  6
Continuous
 62
     0
100
AcDbPolyline
 90
        2
 70
     0
 43
0.0
 10
201.1825570009884
 20
277.9406148279378
 10
201.1825570009884
 20
236.4406148279378
  0
LWPOLYLINE
  5
1011399
330
1F
100
AcDbEntity
  8
P
  6
Continuous
 62
     0
100
AcDbPolyline
 90
        2
 70
     0
 43
0.0
 10
255.7658903343217
 20
241.6072814946045
 10
231.4325570009884
 20
241.6072814946045
  0
LWPOLYLINE
  5
101139A
330
1F
100
AcDbEntity
  8
P
  6
Continuous
 62
     0
100
AcDbPolyline
 90
        2
 70
     0
 43
0.0
 10
228.6825570009884
 20
241.6072814946045
 10
215.1825570009884
 20
241.6072814946045
  0
LWPOLYLINE
  5
101139B
330
1F
100
AcDbEntity
  8
P
  6
Continuous
 62
     0
100
AcDbPolyline
 90
        2
 70
     0
 43
0.0
 10
215.1825570009884
 20
245.6906148279378
 10
223.3492236676551
 20
245.6906148279378
  0
LWPOLYLINE
  5
101139C
330
1F
100
AcDbEntity
  8
P
  6
Continuous
 62
     0
100
AcDbPolyline
 90
        2
 70
     0
 43
0.0
 10
223.3492236676551
 20
245.6906148279378
 10
223.8492236676551
 20
250.2739481612711
  0
LWPOLYLINE
  5
101139D
330
1F
100
AcDbEntity
  8
P
  6
Continuous
 62
     0
100
AcDbPolyline
 90
        2
 70
     0
 43
0.0
 10
223.8492236676551
 20
250.2739481612711
 10
228.6825570009884
 20
250.2739481612711
  0
LWPOLYLINE
  5
101139E
330
1F
100
AcDbEntity
  8
P
  6
Continuous
 62
     0
100
AcDbPolyline
 90
        2
 70
     0
 43
0.0
 10
231.4325570009884
 20
250.2739481612711
 10
243.6825570009883
 20
250.2739481612711
  0
LWPOLYLINE
  5
101139F
330
1F
100
AcDbEntity
  8
P
  6
Continuous
 62
     0
100
AcDbPolyline
 90
        2
 70
     0
 43
0.0
 10
243.6825570009883
 20
250.2739481612711
 10
243.6825570009883
 20
253.0239481612712
  0
LWPOLYLINE
  5
10113A0
330
1F
100
AcDbEntity
  8
P
  6
Continuous
 62
     0
100
AcDbPolyline
 90
        2
 70
     0
 43
0.0
 10
238.6825570009884
 20
250.2739481612711
 10
238.6825570009884
 20
253.0239481612712
  0
LWPOLYLINE
  5
10113A1
330
1F
100
AcDbEntity
  8
P
  6
Continuous
 62
     0
100
AcDbPolyline
 90
        2
 70
     0
 43
0.0
 10
237.2658903343217
 20
250.2739481612711
 10
237.2658903343217
 20
253.0239481612712
  0
LWPOLYLINE
  5
10113A2
330
1F
100
AcDbEntity
  8
P
  6
Continuous
 62
     0
100
AcDbPolyline
 90
        2
 70
     0
 43
0.0
 10
234.5992236676551
 20
250.2739481612711
 10
234.5992236676551
 20
253.0239481612712
  0
LWPOLYLINE
  5
10113A3
330
1F
100
AcDbEntity
  8
P
  6
Continuous
 62
     0
100
AcDbPolyline
 90
        2
 70
     0
 43
0.0
 10
221.8492236676551
 20
249.4406148279378
 10
221.8492236676551
 20
253.0239481612712
  0
LWPOLYLINE
  5
10113A4
330
1F
100
AcDbEntity
  8
P
  6
Continuous
 62
     0
100
AcDbPolyline
 90
        2
 70
     0
 43
0.0
 10
217.0992236676551
 20
253.0239481612712
 10
217.0992236676551
 20
249.4406148279378
  0
LWPOLYLINE
  5
10113A5
330
1F
100
AcDbEntity
  8
P
  6
Continuous
 62
     0
100
AcDbPolyline
 90
        2
 70
     0
 43
0.0
 10
221.8492236676551
 20
249.4406148279378
 10
213.4325570009884
 20
249.4406148279378
  0
LWPOLYLINE
  5
10113A6
330
1F
100
AcDbEntity
  8
P
  6
Continuous
 62
     0
100
AcDbPolyline
 90
        2
 70
     0
 43
0.0
 10
213.4325570009884
 20
249.4406148279378
 10
210.5992236676551
 20
247.1072814946045
  0
LWPOLYLINE
  5
10113A7
330
1F
100
AcDbEntity
  8
P
  6
Continuous
 62
     0
100
AcDbPolyline
 90
        2
 70
     0
 43
0.0
 10
210.5992236676551
 20
247.1072814946045
 10
206.8492236676551
 20
247.1072814946045
  0
LWPOLYLINE
  5
10113A8
330
1F
100
AcDbEntity
  8
P
  6
Continuous
 62
     0
100
AcDbPolyline
 90
        2
 70
     0
 43
0.0
 10
206.8492236676551
 20
247.1072814946045
 10
202.9325570009884
 20
242.7739481612712
  0
LWPOLYLINE
  5
10113A9
330
1F
100
AcDbEntity
  8
P
  6
Continuous
 62
     0
100
AcDbPolyline
 90
        2
 70
     0
 43
0.0
 10
202.9325570009884
 20
242.7739481612712
 10
201.1825570009884
 20
242.7739481612712
  0
LWPOLYLINE
  5
10113AA
330
1F
100
AcDbEntity
  8
P
  6
Continuous
 62
     0
100
AcDbPolyline
 90
        2
 70
     0
 43
0.0
 10
201.1825570009884
 20
244.5239481612712
 10
205.5992236676551
 20
248.9406148279378
  0
LWPOLYLINE
  5
10113AB
330
1F
100
AcDbEntity
  8
P
  6
Continuous
 62
     0
100
AcDbPolyline
 90
        2
 70
     0
 43
0.0
 10
217.0158903343217
 20
250.6906148279378
 10
208.2658903343217
 20
250.6906148279378
  0
LWPOLYLINE
  5
10113AC
330
1F
100
AcDbEntity
  8
P
  6
Continuous
 62
     0
100
AcDbPolyline
 90
        2
 70
     0
 43
0.0
 10
208.2658903343217
 20
250.6906148279378
 10
207.0158903343217
 20
248.4406148279378
  0
LWPOLYLINE
  5
10113AD
330
1F
100
AcDbEntity
  8
P
  6
Continuous
 62
     0
100
AcDbPolyline
 90
        2
 70
     0
 43
0.0
 10
207.0158903343217
 20
248.4406148279378
 10
205.5158903343218
 20
248.4406148279378
  0
LWPOLYLINE
  5
10113AE
330
1F
100
AcDbEntity
  8
P
  6
Continuous
 62
     0
100
AcDbPolyline
 90
        2
 70
     0
 43
0.0
 10
205.5158903343218
 20
248.4406148279378
 10
205.5158903343218
 20
253.1072814946045
  0
LWPOLYLINE
  5
10113AF
330
1F
100
AcDbEntity
  8
P
  6
Continuous
 62
     0
100
AcDbPolyline
 90
        2
 70
     0
 43
0.0
 10
208.2658903343217
 20
250.6906148279378
 10
208.2658903343217
 20
253.0239481612712
  0
LWPOLYLINE
  5
10113B0
330
1F
100
AcDbEntity
  8
P
  6
Continuous
 62
     0
100
AcDbPolyline
 90
        2
 70
     0
 43
0.0
 10
211.6825570009884
 20
250.6906148279378
 10
211.6825570009884
 20
253.0239481612712
  0
LWPOLYLINE
  5
10113B1
330
1F
100
AcDbEntity
  8
P
  6
Continuous
 62
     0
100
AcDbPolyline
 90
        2
 70
     0
 43
0.0
 10
204.0158903343217
 20
253.0239481612712
 10
201.1825570009884
 20
245.6906148279378
  0
LWPOLYLINE
  5
10113B2
330
1F
100
AcDbEntity
  8
P
  6
Continuous
 62
     0
100
AcDbPolyline
 90
        2
 70
     0
 43
0.0
 10
255.7658903343217
 20
239.7739481612711
 10
211.1825570009884
 20
239.7739481612711
  0
LWPOLYLINE
  5
10113B3
330
1F
100
AcDbEntity
  8
P
  6
Continuous
 62
     0
100
AcDbPolyline
 90
        2
 70
     0
 43
0.0
 10
213.0158903343217
 20
250.6906148279378
 10
211.1825570009884
 20
239.7739481612711
  0
LWPOLYLINE
  5
10113B4
330
1F
100
AcDbEntity
  8
P
  6
Continuous
 62
     0
100
AcDbPolyline
 90
        2
 70
     0
 43
0.0
 10
201.1825570009884
 20
277.9406148279378
 10
220.6825570009883
 20
279.1072814946044
  0
LWPOLYLINE
  5
10113B5
330
1F
100
AcDbEntity
  8
P
  6
Continuous
 62
     0
100
AcDbPolyline
 90
        2
 70
     0
 43
0.0
 10
220.6825570009883
 20
279.1072814946044
 10
227.5158903343217
 20
283.6072814946044
  0
LWPOLYLINE
  5
10113B6
330
1F
100
AcDbEntity
  8
P
  6
Continuous
 62
     0
100
AcDbPolyline
 90
        2
 70
     0
 43
0.0
 10
227.5992236676551
 20
283.6072814946044
 10
255.7658903343217
 20
284.9406148279378
  0
LWPOLYLINE
  5
10113B7
330
1F
100
AcDbEntity
  8
P
  6
Continuous
 62
     0
100
AcDbPolyline
 90
        2
 70
     0
 43
0.0
 10
197.8492236676551
 20
277.2739481612711
 10
197.8492236676551
 20
233.9406148279378
  0
LWPOLYLINE
  5
10113B8
330
1F
100
AcDbEntity
  8
P
  6
Continuous
 62
     0
100
AcDbPolyline
 90
        2
 70
     0
 43
0.0
 10
197.8492236676551
 20
233.9406148279378
 10
176.5158903343217
 20
233.9406148279378
  0
LWPOLYLINE
  5
10113B9
330
1F
100
AcDbEntity
  8
P
  6
Continuous
 62
     0
100
AcDbPolyline
 90
        2
 70
     0
 43
0.0
 10
201.6825570009884
 20
280.9406148279378
 10
219.6825570009884
 20
281.7739481612711
  0
LWPOLYLINE
  5
10113BA
330
1F
100
AcDbEntity
  8
P
  6
Continuous
 62
     0
100
AcDbPolyline
 90
        2
 70
     0
 43
0.0
 10
219.6825570009884
 20
281.7739481612711
 10
226.5992236676551
 20
286.3572814946044
  0
LWPOLYLINE
  5
10113BB
330
1F
100
AcDbEntity
  8
P
  6
Continuous
 62
     0
100
AcDbPolyline
 90
       17
 70
     0
 43
0.0
 10
197.8492236676551
 20
233.9406148279378
 10
198.0992236676551
 20
233.8572814946045
 10
198.4325570009883
 20
233.9406148279378
 10
198.6825570009884
 20
233.9406148279378
 10
199.0158903343217
 20
234.0239481612712
 10
199.2658903343217
 20
234.1072814946045
 10
199.5158903343217
 20
234.2739481612712
 10
199.7658903343217
 20
234.3572814946045
 10
200.0158903343217
 20
234.5239481612712
 10
200.1825570009884
 20
234.6906148279378
 10
200.4325570009884
 20
234.9406148279378
 10
200.5992236676551
 20
235.1072814946045
 10
200.7658903343217
 20
235.3572814946045
 10
200.9325570009884
 20
235.6072814946045
 10
201.0158903343217
 20
235.9406148279378
 10
201.0992236676551
 20
236.1906148279378
 10
201.1825570009884
 20
236.4406148279378
  0
LWPOLYLINE
  5
10113BC
330
1F
100
AcDbEntity
  8
P
  6
Continuous
 62
     0
100
AcDbPolyline
 90
       33
 70
     0
 43
0.0
 10
204.8492236676551
 20
196.6072814946045
 10
205.1825570009884
 20
196.6072814946045
 10
205.5158903343218
 20
196.6906148279378
 10
205.7658903343217
 20
196.6906148279378
 10
206.0992236676551
 20
196.7739481612711
 10
206.3492236676551
 20
196.8572814946045
 10
206.6825570009884
 20
196.9406148279378
 10
206.9325570009884
 20
197.0239481612711
 10
207.2658903343217
 20
197.1072814946045
 10
207.5158903343218
 20
197.2739481612711
 10
207.7658903343218
 20
197.4406148279378
 10
208.0158903343217
 20
197.5239481612711
 10
208.2658903343217
 20
197.6906148279378
 10
208.5158903343217
 20
197.8572814946044
 10
208.7658903343217
 20
198.1072814946045
 10
209.0158903343217
 20
198.2739481612711
 10
209.1825570009884
 20
198.4406148279378
 10
209.4325570009884
 20
198.6906148279378
 10
209.5992236676551
 20
198.9406148279378
 10
209.7658903343218
 20
199.1072814946044
 10
210.0158903343217
 20
199.3572814946045
 10
210.1825570009884
 20
199.6072814946045
 10
210.3492236676551
 20
199.8572814946045
 10
210.4325570009883
 20
200.1072814946045
 10
210.5992236676551
 20
200.4406148279378
 10
210.6825570009884
 20
200.6906148279378
 10
210.8492236676551
 20
200.9406148279378
 10
210.9325570009884
 20
201.2739481612712
 10
211.0158903343217
 20
201.5239481612712
 10
211.0992236676551
 20
201.8572814946045
 10
211.0992236676551
 20
202.1072814946045
 10
211.1825570009884
 20
202.4406148279378
 10
211.1825570009884
 20
202.7739481612712
  0
LWPOLYLINE
  5
10113BD
330
1F
100
AcDbEntity
  8
P
  6
Continuous
 62
     0
100
AcDbPolyline
 90
       33
 70
     0
 43
0.0
 10
205.2658903343217
 20
194.1072814946044
 10
205.6825570009884
 20
194.1072814946044
 10
206.0992236676551
 20
194.1906148279378
 10
206.5158903343217
 20
194.1906148279378
 10
206.9325570009884
 20
194.2739481612711
 10
207.2658903343217
 20
194.3572814946044
 10
207.6825570009884
 20
194.4406148279378
 10
208.0158903343217
 20
194.5239481612711
 10
208.4325570009883
 20
194.6906148279378
 10
208.7658903343217
 20
194.8572814946045
 10
209.0992236676551
 20
195.0239481612712
 10
209.4325570009884
 20
195.1906148279378
 10
209.7658903343218
 20
195.3572814946044
 10
210.0992236676551
 20
195.6072814946045
 10
210.4325570009883
 20
195.7739481612711
 10
210.7658903343217
 20
196.0239481612711
 10
211.0158903343217
 20
196.2739481612711
 10
211.2658903343217
 20
196.6072814946045
 10
211.5158903343217
 20
196.8572814946045
 10
211.7658903343218
 20
197.1072814946045
 10
212.0158903343217
 20
197.4406148279378
 10
212.2658903343217
 20
197.7739481612711
 10
212.4325570009883
 20
198.1072814946045
 10
212.6825570009884
 20
198.4406148279378
 10
212.8492236676551
 20
198.7739481612711
 10
213.0158903343217
 20
199.1072814946044
 10
213.0992236676551
 20
199.5239481612711
 10
213.2658903343217
 20
199.8572814946045
 10
213.3492236676551
 20
200.2739481612711
 10
213.4325570009884
 20
200.6072814946045
 10
213.5158903343217
 20
201.0239481612712
 10
213.5158903343217
 20
201.4406148279378
 10
213.5992236676551
 20
201.8572814946045
  0
LWPOLYLINE
  5
10113BE
330
1F
100
AcDbEntity
  8
P
  6
Continuous
 62
     0
100
AcDbPolyline
 90
        2
 70
     0
 43
0.0
 10
213.5992236676551
 20
201.8572814946045
 10
255.7658903343217
 20
201.8572814946045
  0
LWPOLYLINE
  5
10113BF
330
1F
100
AcDbEntity
  8
P
  6
Continuous
 62
     0
100
AcDbPolyline
 90
        2
 70
     0
 43
0.0
 10
211.2658903343217
 20
203.8572814946045
 10
255.7658903343217
 20
203.8572814946045
  0
LWPOLYLINE
  5
10113C0
330
1F
100
AcDbEntity
  8
P
  6
Continuous
 62
     0
100
AcDbPolyline
 90
        2
 70
     0
 43
0.0
 10
204.8492236676551
 20
196.6072814946045
 10
142.5992236676551
 20
196.6072814946045
  0
LWPOLYLINE
  5
10113C1
330
1F
100
AcDbEntity
  8
P
  6
Continuous
 62
     0
100
AcDbPolyline
 90
        2
 70
     0
 43
0.0
 10
163.8492236676551
 20
261.2739481612712
 10
163.8492236676551
 20
228.1072814946045
  0
LWPOLYLINE
  5
10113C2
330
1F
100
AcDbEntity
  8
P
  6
Continuous
 62
     0
100
AcDbPolyline
 90
        2
 70
     0
 43
0.0
 10
163.8492236676551
 20
228.1072814946045
 10
142.5992236676551
 20
228.1072814946045
  0
LWPOLYLINE
  5
10113C3
330
1F
100
AcDbEntity
  8
P
  6
Continuous
 62
     0
100
AcDbPolyline
 90
        2
 70
     0
 43
0.0
 10
161.1825570009884
 20
228.1072814946045
 10
161.1825570009884
 20
261.1906148279378
  0
LWPOLYLINE
  5
10113C4
330
1F
100
AcDbEntity
  8
P
  6
Continuous
 62
     0
100
AcDbPolyline
 90
        2
 70
     0
 43
0.0
 10
192.8492236676551
 20
280.5239481612712
 10
142.5992236676551
 20
280.5239481612712
  0
LWPOLYLINE
  5
10113C5
330
1F
100
AcDbEntity
  8
P
  6
Continuous
 62
     0
100
AcDbPolyline
 90
        2
 70
     0
 43
0.0
 10
142.5992236676551
 20
278.1906148279378
 10
181.2658903343217
 20
278.1906148279378
  0
LWPOLYLINE
  5
10113C6
330
1F
100
AcDbEntity
  8
P
  6
Continuous
 62
     0
100
AcDbPolyline
 90
        2
 70
     0
 43
0.0
 10
181.2658903343217
 20
278.1906148279378
 10
181.2658903343217
 20
270.1906148279378
  0
LWPOLYLINE
  5
10113C7
330
1F
100
AcDbEntity
  8
P
  6
Continuous
 62
     0
100
AcDbPolyline
 90
        2
 70
     0
 43
0.0
 10
142.5992236676551
 20
269.6906148279378
 10
180.6825570009883
 20
269.6906148279378
  0
LWPOLYLINE
  5
10113C8
330
1F
100
AcDbEntity
  8
P
  6
Continuous
 62
     0
100
AcDbPolyline
 90
        2
 70
     0
 43
0.0
 10
163.9325570009883
 20
261.7739481612712
 10
176.5158903343217
 20
261.7739481612712
  0
LWPOLYLINE
  5
10113C9
330
1F
100
AcDbEntity
  8
P
  6
Continuous
 62
     0
100
AcDbPolyline
 90
        2
 70
     0
 43
0.0
 10
174.5158903343217
 20
261.7739481612712
 10
174.5158903343217
 20
216.1906148279378
  0
LWPOLYLINE
  5
10113CA
330
1F
100
AcDbEntity
  8
P
  6
Continuous
 62
     0
100
AcDbPolyline
 90
        2
 70
     0
 43
0.0
 10
176.5158903343217
 20
216.2739481612712
 10
176.5158903343217
 20
261.7739481612712
  0
LWPOLYLINE
  5
10113CB
330
1F
100
AcDbEntity
  8
P
  6
Continuous
 62
     0
100
AcDbPolyline
 90
        2
 70
     0
 43
0.0
 10
172.7658903343217
 20
261.7739481612712
 10
181.2658903343217
 20
270.1906148279378
  0
LWPOLYLINE
  5
10113CC
330
1F
100
AcDbEntity
  8
P
  6
Continuous
 62
     0
100
AcDbPolyline
 90
        2
 70
     0
 43
0.0
 10
178.4325570009883
 20
264.5239481612712
 10
187.1825570009884
 20
264.5239481612712
  0
LWPOLYLINE
  5
10113CD
330
1F
100
AcDbEntity
  8
P
  6
Continuous
 62
     0
100
AcDbPolyline
 90
        2
 70
     0
 43
0.0
 10
187.1825570009884
 20
264.5239481612712
 10
187.1825570009884
 20
273.1072814946044
  0
LWPOLYLINE
  5
10113CE
330
1F
100
AcDbEntity
  8
P
  6
Continuous
 62
     0
100
AcDbPolyline
 90
        2
 70
     0
 43
0.0
 10
187.1825570009884
 20
273.1072814946044
 10
189.4325570009883
 20
273.1072814946044
  0
LWPOLYLINE
  5
10113CF
330
1F
100
AcDbEntity
  8
P
  6
Continuous
 62
     0
100
AcDbPolyline
 90
        2
 70
     0
 43
0.0
 10
189.4325570009883
 20
287.7739481612712
 10
189.4325570009883
 20
242.1072814946045
  0
LWPOLYLINE
  5
10113D0
330
1F
100
AcDbEntity
  8
P
  6
Continuous
 62
     0
100
AcDbPolyline
 90
        2
 70
     0
 43
0.0
 10
189.4325570009883
 20
242.1072814946045
 10
176.5158903343217
 20
242.1072814946045
  0
LWPOLYLINE
  5
10113D1
330
1F
100
AcDbEntity
  8
P
  6
Continuous
 62
     0
100
AcDbPolyline
 90
        2
 70
     0
 43
0.0
 10
176.5158903343217
 20
240.9406148279378
 10
190.5158903343217
 20
240.9406148279378
  0
LWPOLYLINE
  5
10113D2
330
1F
100
AcDbEntity
  8
P
  6
Continuous
 62
     0
100
AcDbPolyline
 90
        2
 70
     0
 43
0.0
 10
190.5158903343217
 20
242.0239481612711
 10
197.8492236676551
 20
244.0239481612711
  0
LWPOLYLINE
  5
10113D3
330
1F
100
AcDbEntity
  8
P
  6
Continuous
 62
     0
100
AcDbPolyline
 90
        2
 70
     0
 43
0.0
 10
190.5158903343217
 20
244.1072814946045
 10
197.8492236676551
 20
244.1072814946045
  0
LWPOLYLINE
  5
10113D4
330
1F
100
AcDbEntity
  8
P
  6
Continuous
 62
     0
100
AcDbPolyline
 90
        2
 70
     0
 43
0.0
 10
190.5158903343217
 20
242.0239481612711
 10
190.5158903343217
 20
264.9406148279378
  0
LWPOLYLINE
  5
10113D5
330
1F
100
AcDbEntity
  8
P
  6
Continuous
 62
     0
100
AcDbPolyline
 90
        2
 70
     0
 43
0.0
 10
190.5158903343217
 20
264.9406148279378
 10
197.8492236676551
 20
264.9406148279378
  0
LWPOLYLINE
  5
10113D6
330
1F
100
AcDbEntity
  8
P
  6
Continuous
 62
     0
100
AcDbPolyline
 90
        2
 70
     0
 43
0.0
 10
190.5158903343217
 20
248.7739481612712
 10
197.8492236676551
 20
250.7739481612712
  0
LWPOLYLINE
  5
10113D7
330
1F
100
AcDbEntity
  8
P
  6
Continuous
 62
     0
100
AcDbPolyline
 90
        2
 70
     0
 43
0.0
 10
190.5158903343217
 20
250.8572814946045
 10
197.8492236676551
 20
250.8572814946045
  0
LWPOLYLINE
  5
10113D8
330
1F
100
AcDbEntity
  8
P
  6
Continuous
 62
     0
100
AcDbPolyline
 90
        2
 70
     0
 43
0.0
 10
190.5158903343217
 20
256.1906148279378
 10
197.8492236676551
 20
258.1906148279378
  0
LWPOLYLINE
  5
10113D9
330
1F
100
AcDbEntity
  8
P
  6
Continuous
 62
     0
100
AcDbPolyline
 90
        2
 70
     0
 43
0.0
 10
190.5158903343217
 20
258.2739481612712
 10
197.8492236676551
 20
258.2739481612712
  0
LWPOLYLINE
  5
10113DA
330
1F
100
AcDbEntity
  8
P
  6
Continuous
 62
     0
100
AcDbPolyline
 90
        2
 70
     0
 43
0.0
 10
190.5158903343217
 20
262.8572814946044
 10
197.8492236676551
 20
264.8572814946044
  0
LWPOLYLINE
  5
10113DB
330
1F
100
AcDbEntity
  8
P
  6
Continuous
 62
     0
100
AcDbPolyline
 90
        2
 70
     0
 43
0.0
 10
178.9325570009884
 20
267.8572814946044
 10
170.5992236676551
 20
267.8572814946044
  0
LWPOLYLINE
  5
10113DC
330
1F
100
AcDbEntity
  8
P
  6
Continuous
 62
     0
100
AcDbPolyline
 90
       33
 70
     0
 43
0.0
 10
170.5992236676551
 20
267.8572814946044
 10
170.2658903343217
 20
267.8572814946044
 10
169.9325570009883
 20
267.7739481612712
 10
169.6825570009884
 20
267.7739481612712
 10
169.3492236676551
 20
267.6906148279378
 10
169.0158903343217
 20
267.5239481612712
 10
168.7658903343217
 20
267.4406148279378
 10
168.4325570009884
 20
267.3572814946044
 10
168.1825570009883
 20
267.1906148279378
 10
167.9325570009883
 20
267.0239481612711
 10
167.5992236676551
 20
266.8572814946044
 10
167.3492236676551
 20
266.6906148279378
 10
167.0992236676551
 20
266.5239481612712
 10
166.8492236676551
 20
266.3572814946044
 10
166.5992236676551
 20
266.1906148279378
 10
166.3492236676551
 20
265.9406148279378
 10
166.0992236676551
 20
265.6906148279378
 10
165.8492236676551
 20
265.5239481612712
 10
165.6825570009883
 20
265.2739481612712
 10
165.4325570009883
 20
265.0239481612711
 10
165.2658903343217
 20
264.7739481612711
 10
165.0992236676551
 20
264.5239481612712
 10
164.9325570009883
 20
264.2739481612712
 10
164.7658903343217
 20
263.9406148279378
 10
164.5992236676551
 20
263.6906148279378
 10
164.4325570009883
 20
263.4406148279378
 10
164.3492236676551
 20
263.1072814946044
 10
164.1825570009883
 20
262.8572814946044
 10
164.0992236676551
 20
262.5239481612712
 10
164.0158903343217
 20
262.1906148279378
 10
163.9325570009883
 20
261.9406148279378
 10
163.9325570009883
 20
261.6072814946044
 10
163.8492236676551
 20
261.2739481612712
  0
LWPOLYLINE
  5
10113DD
330
1F
100
AcDbEntity
  8
P
  6
Continuous
 62
     0
100
AcDbPolyline
 90
       33
 70
     0
 43
0.0
 10
168.8492236676551
 20
269.6906148279378
 10
168.4325570009884
 20
269.6072814946044
 10
168.0992236676551
 20
269.5239481612712
 10
167.6825570009883
 20
269.4406148279378
 10
167.3492236676551
 20
269.3572814946044
 10
166.9325570009883
 20
269.1906148279378
 10
166.5992236676551
 20
269.1072814946044
 10
166.2658903343217
 20
268.9406148279378
 10
165.9325570009883
 20
268.7739481612712
 10
165.5992236676551
 20
268.5239481612712
 10
165.2658903343217
 20
268.3572814946044
 10
164.9325570009883
 20
268.1072814946044
 10
164.5992236676551
 20
267.8572814946044
 10
164.2658903343217
 20
267.6072814946044
 10
164.0158903343217
 20
267.3572814946044
 10
163.7658903343217
 20
267.1072814946044
 10
163.5158903343217
 20
266.8572814946044
 10
163.1825570009883
 20
266.5239481612712
 10
163.0158903343217
 20
266.2739481612712
 10
162.7658903343217
 20
265.9406148279378
 10
162.5158903343217
 20
265.6072814946044
 10
162.3492236676551
 20
265.2739481612712
 10
162.1825570009884
 20
264.9406148279378
 10
162.0158903343217
 20
264.6072814946044
 10
161.8492236676551
 20
264.2739481612712
 10
161.6825570009883
 20
263.8572814946044
 10
161.5158903343217
 20
263.5239481612712
 10
161.4325570009883
 20
263.1072814946044
 10
161.3492236676551
 20
262.7739481612711
 10
161.2658903343217
 20
262.3572814946044
 10
161.2658903343217
 20
262.0239481612712
 10
161.1825570009884
 20
261.6072814946044
 10
161.1825570009884
 20
261.1906148279378
  0
LWPOLYLINE
  5
10113DE
330
1F
100
AcDbEntity
  8
P
  6
Continuous
 62
     0
100
AcDbPolyline
 90
       17
 70
     0
 43
0.0
 10
202.0158903343217
 20
280.9406148279378
 10
201.6825570009884
 20
280.9406148279378
 10
201.2658903343218
 20
280.8572814946044
 10
200.9325570009884
 20
280.7739481612712
 10
200.5158903343217
 20
280.6906148279378
 10
200.1825570009884
 20
280.5239481612712
 10
199.8492236676551
 20
280.3572814946044
 10
199.5158903343217
 20
280.1072814946044
 10
199.2658903343217
 20
279.9406148279378
 10
199.0158903343217
 20
279.6072814946044
 10
198.7658903343217
 20
279.3572814946044
 10
198.5158903343217
 20
279.0239481612712
 10
198.2658903343217
 20
278.6906148279378
 10
198.0992236676551
 20
278.3572814946044
 10
198.0158903343217
 20
278.0239481612712
 10
197.9325570009883
 20
277.6906148279378
 10
197.8492236676551
 20
277.2739481612711
  0
LWPOLYLINE
  5
10113DF
330
1F
100
AcDbEntity
  8
P
  6
Continuous
 62
     0
100
AcDbPolyline
 90
        2
 70
     0
 43
0.0
 10
142.5992236676551
 20
212.1906148279378
 10
170.7658903343217
 20
212.1906148279378
  0
LWPOLYLINE
  5
10113E0
330
1F
100
AcDbEntity
  8
P
  6
Continuous
 62
     0
100
AcDbPolyline
 90
        2
 70
     0
 43
0.0
 10
142.5992236676551
 20
210.3572814946045
 10
170.7658903343217
 20
210.3572814946045
  0
LWPOLYLINE
  5
10113E1
330
1F
100
AcDbEntity
  8
P
  6
Continuous
 62
     0
100
AcDbPolyline
 90
        2
 70
     0
 43
0.0
 10
170.7658903343217
 20
210.3572814946045
 10
171.4325570009883
 20
210.3572814946045
  0
LWPOLYLINE
  5
10113E2
330
1F
100
AcDbEntity
  8
P
  6
Continuous
 62
     0
100
AcDbPolyline
 90
       18
 70
     0
 43
0.0
 10
170.7658903343217
 20
212.1906148279378
 10
171.0992236676551
 20
212.1906148279378
 10
171.5158903343217
 20
212.2739481612712
 10
171.8492236676551
 20
212.3572814946045
 10
172.2658903343217
 20
212.5239481612712
 10
172.5992236676551
 20
212.6906148279378
 10
172.9325570009883
 20
212.8572814946045
 10
173.1825570009883
 20
213.1072814946045
 10
173.4325570009883
 20
213.3572814946045
 10
173.6825570009884
 20
213.6906148279378
 10
173.9325570009883
 20
213.9406148279378
 10
174.0992236676551
 20
214.2739481612712
 10
174.2658903343217
 20
214.6072814946045
 10
174.4325570009883
 20
215.0239481612711
 10
174.5158903343217
 20
215.3572814946045
 10
174.5158903343217
 20
215.7739481612712
 10
174.5158903343217
 20
216.1906148279378
 10
174.5158903343217
 20
216.1906148279378
  0
LWPOLYLINE
  5
10113E3
330
1F
100
AcDbEntity
  8
P
  6
Continuous
 62
     0
100
AcDbPolyline
 90
       34
 70
     0
 43
0.0
 10
170.7658903343217
 20
210.3572814946045
 10
171.0158903343217
 20
210.3572814946045
 10
171.3492236676551
 20
210.3572814946045
 10
171.5992236676551
 20
210.4406148279378
 10
171.8492236676551
 20
210.4406148279378
 10
172.1825570009883
 20
210.5239481612712
 10
172.4325570009883
 20
210.6072814946045
 10
172.6825570009884
 20
210.6906148279378
 10
172.9325570009883
 20
210.7739481612711
 10
173.1825570009883
 20
210.8572814946045
 10
173.4325570009883
 20
211.0239481612711
 10
173.6825570009884
 20
211.1906148279378
 10
173.9325570009883
 20
211.2739481612712
 10
174.1825570009883
 20
211.4406148279378
 10
174.3492236676551
 20
211.6072814946045
 10
174.5992236676551
 20
211.7739481612712
 10
174.7658903343217
 20
212.0239481612712
 10
175.0158903343217
 20
212.1906148279378
 10
175.1825570009883
 20
212.3572814946045
 10
175.3492236676551
 20
212.6072814946045
 10
175.5158903343217
 20
212.8572814946045
 10
175.6825570009883
 20
213.0239481612711
 10
175.7658903343217
 20
213.2739481612712
 10
175.9325570009884
 20
213.5239481612712
 10
176.0158903343217
 20
213.7739481612712
 10
176.1825570009883
 20
214.0239481612712
 10
176.2658903343217
 20
214.3572814946045
 10
176.3492236676551
 20
214.6072814946045
 10
176.4325570009883
 20
214.8572814946045
 10
176.4325570009883
 20
215.1072814946045
 10
176.5158903343217
 20
215.4406148279378
 10
176.5158903343217
 20
215.6906148279378
 10
176.5158903343217
 20
216.0239481612712
 10
176.5158903343217
 20
216.2739481612712
  0
LWPOLYLINE
  5
10113E4
330
1F
100
AcDbEntity
  8
P
  6
Continuous
 62
     0
100
AcDbPolyline
 90
        2
 70
     0
 43
0.0
 10
228.6825570009884
 20
250.2739481612711
 10
228.6825570009884
 20
241.6072814946045
  0
LWPOLYLINE
  5
10113E5
330
1F
100
AcDbEntity
  8
P
  6
Continuous
 62
     0
100
AcDbPolyline
 90
        2
 70
     0
 43
0.0
 10
183.1825570009883
 20
264.5239481612712
 10
183.1825570009883
 20
262.3572814946044
  0
LWPOLYLINE
  5
10113E6
330
1F
100
AcDbEntity
  8
P
  6
Continuous
 62
     0
100
AcDbPolyline
 90
        2
 70
     0
 43
0.0
 10
183.1825570009883
 20
262.3572814946044
 10
189.4325570009883
 20
262.3572814946044
  0
LWPOLYLINE
  5
10113E7
330
1F
100
AcDbEntity
  8
P
  6
Continuous
 62
     0
100
AcDbPolyline
 90
        2
 70
     0
 43
0.0
 10
183.5992236676551
 20
269.6072814946044
 10
183.5992236676551
 20
279.5239481612711
  0
LWPOLYLINE
  5
10113E8
330
1F
100
AcDbEntity
  8
P
  6
Continuous
 62
     0
100
AcDbPolyline
 90
        2
 70
     0
 43
0.0
 10
175.5158903343217
 20
264.5239481612712
 10
165.0992236676551
 20
264.5239481612712
  0
LWPOLYLINE
  5
10113E9
330
1F
100
AcDbEntity
  8
P
  6
Continuous
 62
     0
100
AcDbPolyline
 90
        2
 70
     0
 43
0.0
 10
183.5992236676551
 20
269.6072814946044
 10
175.6825570009883
 20
261.7739481612712
  0
LWPOLYLINE
  5
10113EA
330
1F
100
AcDbEntity
  8
P
  6
Continuous
 62
     0
100
AcDbPolyline
 90
        2
 70
     0
 43
0.0
 10
211.1825570009884
 20
202.7739481612712
 10
211.1825570009884
 20
203.8572814946045
  0
LWPOLYLINE
  5
10113EB
330
1F
100
AcDbEntity
  8
P
  6
Continuous
 62
     0
100
AcDbPolyline
 90
        2
 70
     0
 43
0.0
 10
215.1825570009884
 20
245.6906148279378
 10
215.1825570009884
 20
241.6072814946045
  0
LWPOLYLINE
  5
10113EC
330
1F
100
AcDbEntity
  8
P
  6
Continuous
 62
     0
100
AcDbPolyline
 90
        2
 70
     0
 43
0.0
 10
93.01589033432174
 20
285.1072814946044
 10
142.5992236676551
 20
285.1072814946044
  0
LWPOLYLINE
  5
10113ED
330
1F
100
AcDbEntity
  8
P
  6
Continuous
 62
     0
100
AcDbPolyline
 90
        2
 70
     0
 43
0.0
 10
84.09922366765504
 20
277.9406148279378
 10
84.09922366765504
 20
236.4406148279378
  0
LWPOLYLINE
  5
10113EE
330
1F
100
AcDbEntity
  8
P
  6
Continuous
 62
     0
100
AcDbPolyline
 90
        2
 70
     0
 43
0.0
 10
56.59922366765505
 20
241.6072814946045
 10
70.09922366765505
 20
241.6072814946045
  0
LWPOLYLINE
  5
10113EF
330
1F
100
AcDbEntity
  8
P
  6
Continuous
 62
     0
100
AcDbPolyline
 90
        2
 70
     0
 43
0.0
 10
70.09922366765505
 20
245.6906148279378
 10
61.93255700098842
 20
245.6906148279378
  0
LWPOLYLINE
  5
10113F0
330
1F
100
AcDbEntity
  8
P
  6
Continuous
 62
     0
100
AcDbPolyline
 90
        2
 70
     0
 43
0.0
 10
61.93255700098842
 20
245.6906148279378
 10
61.34922366765505
 20
250.2739481612711
  0
LWPOLYLINE
  5
10113F1
330
1F
100
AcDbEntity
  8
P
  6
Continuous
 62
     0
100
AcDbPolyline
 90
        2
 70
     0
 43
0.0
 10
61.34922366765505
 20
250.2739481612711
 10
56.59922366765505
 20
250.2739481612711
  0
LWPOLYLINE
  5
10113F2
330
1F
100
AcDbEntity
  8
P
  6
Continuous
 62
     0
100
AcDbPolyline
 90
        2
 70
     0
 43
0.0
 10
53.84922366765505
 20
250.2739481612711
 10
41.59922366765505
 20
250.2739481612711
  0
LWPOLYLINE
  5
10113F3
330
1F
100
AcDbEntity
  8
P
  6
Continuous
 62
     0
100
AcDbPolyline
 90
        2
 70
     0
 43
0.0
 10
41.59922366765505
 20
250.2739481612711
 10
41.59922366765505
 20
253.0239481612712
  0
LWPOLYLINE
  5
10113F4
330
1F
100
AcDbEntity
  8
P
  6
Continuous
 62
     0
100
AcDbPolyline
 90
        2
 70
     0
 43
0.0
 10
46.59922366765505
 20
250.2739481612711
 10
46.59922366765505
 20
253.0239481612712
  0
LWPOLYLINE
  5
10113F5
330
1F
100
AcDbEntity
  8
P
  6
Continuous
 62
     0
100
AcDbPolyline
 90
        2
 70
     0
 43
0.0
 10
48.01589033432174
 20
250.2739481612711
 10
48.01589033432174
 20
253.0239481612712
  0
LWPOLYLINE
  5
10113F6
330
1F
100
AcDbEntity
  8
P
  6
Continuous
 62
     0
100
AcDbPolyline
 90
        2
 70
     0
 43
0.0
 10
50.59922366765505
 20
250.2739481612711
 10
50.59922366765505
 20
253.0239481612712
  0
LWPOLYLINE
  5
10113F7
330
1F
100
AcDbEntity
  8
P
  6
Continuous
 62
     0
100
AcDbPolyline
 90
        2
 70
     0
 43
0.0
 10
63.43255700098842
 20
249.4406148279378
 10
63.43255700098842
 20
253.0239481612712
  0
LWPOLYLINE
  5
10113F8
330
1F
100
AcDbEntity
  8
P
  6
Continuous
 62
     0
100
AcDbPolyline
 90
        2
 70
     0
 43
0.0
 10
68.18255700098842
 20
253.0239481612712
 10
68.18255700098842
 20
249.4406148279378
  0
LWPOLYLINE
  5
10113F9
330
1F
100
AcDbEntity
  8
P
  6
Continuous
 62
     0
100
AcDbPolyline
 90
        2
 70
     0
 43
0.0
 10
63.43255700098842
 20
249.4406148279378
 10
71.76589033432174
 20
249.4406148279378
  0
LWPOLYLINE
  5
10113FA
330
1F
100
AcDbEntity
  8
P
  6
Continuous
 62
     0
100
AcDbPolyline
 90
        2
 70
     0
 43
0.0
 10
71.76589033432174
 20
249.4406148279378
 10
74.68255700098842
 20
247.1072814946045
  0
LWPOLYLINE
  5
10113FB
330
1F
100
AcDbEntity
  8
P
  6
Continuous
 62
     0
100
AcDbPolyline
 90
        2
 70
     0
 43
0.0
 10
74.68255700098842
 20
247.1072814946045
 10
78.43255700098842
 20
247.1072814946045
  0
LWPOLYLINE
  5
10113FC
330
1F
100
AcDbEntity
  8
P
  6
Continuous
 62
     0
100
AcDbPolyline
 90
        2
 70
     0
 43
0.0
 10
78.43255700098842
 20
247.1072814946045
 10
82.34922366765506
 20
242.7739481612712
  0
LWPOLYLINE
  5
10113FD
330
1F
100
AcDbEntity
  8
P
  6
Continuous
 62
     0
100
AcDbPolyline
 90
        2
 70
     0
 43
0.0
 10
82.34922366765506
 20
242.7739481612712
 10
84.09922366765504
 20
242.7739481612712
  0
LWPOLYLINE
  5
10113FE
330
1F
100
AcDbEntity
  8
P
  6
Continuous
 62
     0
100
AcDbPolyline
 90
        2
 70
     0
 43
0.0
 10
84.09922366765504
 20
244.5239481612712
 10
79.68255700098842
 20
248.9406148279378
  0
LWPOLYLINE
  5
10113FF
330
1F
100
AcDbEntity
  8
P
  6
Continuous
 62
     0
100
AcDbPolyline
 90
        2
 70
     0
 43
0.0
 10
68.26589033432174
 20
250.6906148279378
 10
76.93255700098842
 20
250.6906148279378
  0
LWPOLYLINE
  5
1011400
330
1F
100
AcDbEntity
  8
P
  6
Continuous
 62
     0
100
AcDbPolyline
 90
        2
 70
     0
 43
0.0
 10
76.93255700098842
 20
250.6906148279378
 10
78.26589033432174
 20
248.4406148279378
  0
LWPOLYLINE
  5
1011401
330
1F
100
AcDbEntity
  8
P
  6
Continuous
 62
     0
100
AcDbPolyline
 90
        2
 70
     0
 43
0.0
 10
78.26589033432174
 20
248.4406148279378
 10
79.68255700098842
 20
248.4406148279378
  0
LWPOLYLINE
  5
1011402
330
1F
100
AcDbEntity
  8
P
  6
Continuous
 62
     0
100
AcDbPolyline
 90
        2
 70
     0
 43
0.0
 10
79.68255700098842
 20
248.4406148279378
 10
79.68255700098842
 20
253.1072814946045
  0
LWPOLYLINE
  5
1011403
330
1F
100
AcDbEntity
  8
P
  6
Continuous
 62
     0
100
AcDbPolyline
 90
        2
 70
     0
 43
0.0
 10
76.93255700098842
 20
250.6906148279378
 10
76.93255700098842
 20
253.0239481612712
  0
LWPOLYLINE
  5
1011404
330
1F
100
AcDbEntity
  8
P
  6
Continuous
 62
     0
100
AcDbPolyline
 90
        2
 70
     0
 43
0.0
 10
73.51589033432174
 20
250.6906148279378
 10
73.51589033432174
 20
253.0239481612712
  0
LWPOLYLINE
  5
1011405
330
1F
100
AcDbEntity
  8
P
  6
Continuous
 62
     0
100
AcDbPolyline
 90
        2
 70
     0
 43
0.0
 10
81.18255700098842
 20
253.0239481612712
 10
84.09922366765504
 20
245.6906148279378
  0
LWPOLYLINE
  5
1011406
330
1F
100
AcDbEntity
  8
P
  6
Continuous
 62
     0
100
AcDbPolyline
 90
        2
 70
     0
 43
0.0
 10
53.84922366765505
 20
239.7739481612711
 10
71.68255700098843
 20
239.7739481612711
  0
LWPOLYLINE
  5
1011407
330
1F
100
AcDbEntity
  8
P
  6
Continuous
 62
     0
100
AcDbPolyline
 90
        2
 70
     0
 43
0.0
 10
72.18255700098842
 20
250.6906148279378
 10
74.09922366765505
 20
239.7739481612711
  0
LWPOLYLINE
  5
1011408
330
1F
100
AcDbEntity
  8
P
  6
Continuous
 62
     0
100
AcDbPolyline
 90
        2
 70
     0
 43
0.0
 10
84.09922366765504
 20
277.9406148279378
 10
64.59922366765505
 20
279.1072814946044
  0
LWPOLYLINE
  5
1011409
330
1F
100
AcDbEntity
  8
P
  6
Continuous
 62
     0
100
AcDbPolyline
 90
        2
 70
     0
 43
0.0
 10
64.59922366765505
 20
279.1072814946044
 10
57.68255700098842
 20
283.6072814946044
  0
LWPOLYLINE
  5
101140A
330
1F
100
AcDbEntity
  8
P
  6
Continuous
 62
     0
100
AcDbPolyline
 90
        2
 70
     0
 43
0.0
 10
57.68255700098842
 20
283.6072814946044
 10
29.43255700098843
 20
284.9406148279378
  0
LWPOLYLINE
  5
101140B
330
1F
100
AcDbEntity
  8
P
  6
Continuous
 62
     0
100
AcDbPolyline
 90
        2
 70
     0
 43
0.0
 10
87.43255700098842
 20
277.2739481612711
 10
87.43255700098842
 20
233.9406148279378
  0
LWPOLYLINE
  5
101140C
330
1F
100
AcDbEntity
  8
P
  6
Continuous
 62
     0
100
AcDbPolyline
 90
        2
 70
     0
 43
0.0
 10
87.43255700098842
 20
233.9406148279378
 10
108.7658903343217
 20
233.9406148279378
  0
LWPOLYLINE
  5
101140D
330
1F
100
AcDbEntity
  8
P
  6
Continuous
 62
     0
100
AcDbPolyline
 90
        2
 70
     0
 43
0.0
 10
83.51589033432174
 20
280.9406148279378
 10
65.59922366765505
 20
281.7739481612711
  0
LWPOLYLINE
  5
101140E
330
1F
100
AcDbEntity
  8
P
  6
Continuous
 62
     0
100
AcDbPolyline
 90
        2
 70
     0
 43
0.0
 10
65.59922366765505
 20
281.7739481612711
 10
58.68255700098842
 20
286.3572814946044
  0
LWPOLYLINE
  5
101140F
330
1F
100
AcDbEntity
  8
P
  6
Continuous
 62
     0
100
AcDbPolyline
 90
       17
 70
     0
 43
0.0
 10
84.09922366765504
 20
236.4406148279378
 10
84.18255700098843
 20
236.1906148279378
 10
84.26589033432174
 20
235.9406148279378
 10
84.34922366765505
 20
235.6072814946045
 10
84.51589033432174
 20
235.3572814946045
 10
84.68255700098842
 20
235.1072814946045
 10
84.84922366765506
 20
234.9406148279378
 10
85.01589033432173
 20
234.6906148279378
 10
85.26589033432173
 20
234.5239481612712
 10
85.51589033432174
 20
234.3572814946045
 10
85.76589033432174
 20
234.2739481612712
 10
86.01589033432174
 20
234.1072814946045
 10
86.26589033432173
 20
234.0239481612712
 10
86.51589033432173
 20
233.9406148279378
 10
86.84922366765505
 20
233.9406148279378
 10
87.09922366765505
 20
233.8572814946045
 10
87.43255700098842
 20
233.9406148279378
  0
LWPOLYLINE
  5
1011410
330
1F
100
AcDbEntity
  8
P
  6
Continuous
 62
     0
100
AcDbPolyline
 90
       33
 70
     0
 43
0.0
 10
74.09922366765505
 20
202.7739481612712
 10
74.09922366765505
 20
202.4406148279378
 10
74.09922366765505
 20
202.1072814946045
 10
74.18255700098843
 20
201.8572814946045
 10
74.26589033432174
 20
201.5239481612712
 10
74.34922366765505
 20
201.2739481612712
 10
74.43255700098842
 20
200.9406148279378
 10
74.51589033432174
 20
200.6906148279378
 10
74.68255700098842
 20
200.4406148279378
 10
74.76589033432174
 20
200.1072814946045
 10
74.93255700098842
 20
199.8572814946045
 10
75.09922366765505
 20
199.6072814946045
 10
75.26589033432173
 20
199.3572814946045
 10
75.43255700098843
 20
199.1072814946044
 10
75.59922366765505
 20
198.9406148279378
 10
75.84922366765505
 20
198.6906148279378
 10
76.01589033432174
 20
198.4406148279378
 10
76.26589033432174
 20
198.2739481612711
 10
76.51589033432173
 20
198.1072814946045
 10
76.76589033432174
 20
197.8572814946044
 10
76.93255700098842
 20
197.6906148279378
 10
77.18255700098842
 20
197.5239481612711
 10
77.51589033432174
 20
197.4406148279378
 10
77.76589033432173
 20
197.2739481612711
 10
78.01589033432174
 20
197.1072814946045
 10
78.26589033432174
 20
197.0239481612711
 10
78.59922366765506
 20
196.9406148279378
 10
78.84922366765505
 20
196.8572814946045
 10
79.18255700098843
 20
196.7739481612711
 10
79.43255700098842
 20
196.6906148279378
 10
79.76589033432174
 20
196.6906148279378
 10
80.09922366765506
 20
196.6072814946045
 10
80.34922366765504
 20
196.6072814946045
  0
LWPOLYLINE
  5
1011411
330
1F
100
AcDbEntity
  8
P
  6
Continuous
 62
     0
100
AcDbPolyline
 90
       33
 70
     0
 43
0.0
 10
71.68255700098843
 20
201.8572814946045
 10
71.68255700098843
 20
201.4406148279378
 10
71.76589033432174
 20
201.0239481612712
 10
71.84922366765505
 20
200.6072814946045
 10
71.93255700098842
 20
200.2739481612711
 10
72.01589033432174
 20
199.8572814946045
 10
72.09922366765505
 20
199.5239481612711
 10
72.26589033432174
 20
199.1072814946044
 10
72.43255700098842
 20
198.7739481612711
 10
72.59922366765505
 20
198.4406148279378
 10
72.76589033432173
 20
198.1072814946045
 10
73.01589033432174
 20
197.7739481612711
 10
73.18255700098842
 20
197.4406148279378
 10
73.43255700098842
 20
197.1072814946045
 10
73.68255700098842
 20
196.8572814946045
 10
73.93255700098842
 20
196.6072814946045
 10
74.26589033432174
 20
196.2739481612711
 10
74.51589033432174
 20
196.0239481612711
 10
74.84922366765506
 20
195.7739481612711
 10
75.09922366765505
 20
195.6072814946045
 10
75.43255700098843
 20
195.3572814946044
 10
75.76589033432174
 20
195.1906148279378
 10
76.09922366765506
 20
195.0239481612712
 10
76.43255700098842
 20
194.8572814946045
 10
76.84922366765505
 20
194.6906148279378
 10
77.18255700098842
 20
194.5239481612711
 10
77.59922366765505
 20
194.4406148279378
 10
77.93255700098843
 20
194.3572814946044
 10
78.34922366765505
 20
194.2739481612711
 10
78.76589033432174
 20
194.1906148279378
 10
79.09922366765505
 20
194.1906148279378
 10
79.51589033432174
 20
194.1072814946044
 10
79.93255700098842
 20
194.1072814946044
  0
LWPOLYLINE
  5
1011412
330
1F
100
AcDbEntity
  8
P
  6
Continuous
 62
     0
100
AcDbPolyline
 90
        2
 70
     0
 43
0.0
 10
80.34922366765504
 20
196.6072814946045
 10
142.5992236676551
 20
196.6072814946045
  0
LWPOLYLINE
  5
1011413
330
1F
100
AcDbEntity
  8
P
  6
Continuous
 62
     0
100
AcDbPolyline
 90
        2
 70
     0
 43
0.0
 10
121.4325570009884
 20
261.2739481612712
 10
121.4325570009884
 20
228.1072814946045
  0
LWPOLYLINE
  5
1011414
330
1F
100
AcDbEntity
  8
P
  6
Continuous
 62
     0
100
AcDbPolyline
 90
        2
 70
     0
 43
0.0
 10
121.4325570009884
 20
228.1072814946045
 10
142.5992236676551
 20
228.1072814946045
  0
LWPOLYLINE
  5
1011415
330
1F
100
AcDbEntity
  8
P
  6
Continuous
 62
     0
100
AcDbPolyline
 90
        2
 70
     0
 43
0.0
 10
124.099223667655
 20
228.1072814946045
 10
124.099223667655
 20
261.1906148279378
  0
LWPOLYLINE
  5
1011416
330
1F
100
AcDbEntity
  8
P
  6
Continuous
 62
     0
100
AcDbPolyline
 90
        2
 70
     0
 43
0.0
 10
92.43255700098842
 20
280.5239481612712
 10
142.5992236676551
 20
280.5239481612712
  0
LWPOLYLINE
  5
1011417
330
1F
100
AcDbEntity
  8
P
  6
Continuous
 62
     0
100
AcDbPolyline
 90
        2
 70
     0
 43
0.0
 10
142.5992236676551
 20
278.1906148279378
 10
104.0158903343217
 20
278.1906148279378
  0
LWPOLYLINE
  5
1011418
330
1F
100
AcDbEntity
  8
P
  6
Continuous
 62
     0
100
AcDbPolyline
 90
        2
 70
     0
 43
0.0
 10
104.0158903343217
 20
278.1906148279378
 10
104.0158903343217
 20
270.1906148279378
  0
LWPOLYLINE
  5
1011419
330
1F
100
AcDbEntity
  8
P
  6
Continuous
 62
     0
100
AcDbPolyline
 90
        2
 70
     0
 43
0.0
 10
142.5992236676551
 20
269.6906148279378
 10
104.5158903343217
 20
269.6906148279378
  0
LWPOLYLINE
  5
101141A
330
1F
100
AcDbEntity
  8
P
  6
Continuous
 62
     0
100
AcDbPolyline
 90
        2
 70
     0
 43
0.0
 10
121.349223667655
 20
261.7739481612712
 10
108.7658903343217
 20
261.7739481612712
  0
LWPOLYLINE
  5
101141B
330
1F
100
AcDbEntity
  8
P
  6
Continuous
 62
     0
100
AcDbPolyline
 90
        2
 70
     0
 43
0.0
 10
110.6825570009884
 20
261.7739481612712
 10
110.6825570009884
 20
216.1906148279378
  0
LWPOLYLINE
  5
101141C
330
1F
100
AcDbEntity
  8
P
  6
Continuous
 62
     0
100
AcDbPolyline
 90
        2
 70
     0
 43
0.0
 10
108.7658903343217
 20
216.2739481612712
 10
108.7658903343217
 20
261.7739481612712
  0
LWPOLYLINE
  5
101141D
330
1F
100
AcDbEntity
  8
P
  6
Continuous
 62
     0
100
AcDbPolyline
 90
        2
 70
     0
 43
0.0
 10
112.5158903343217
 20
261.7739481612712
 10
104.0158903343217
 20
270.1906148279378
  0
LWPOLYLINE
  5
101141E
330
1F
100
AcDbEntity
  8
P
  6
Continuous
 62
     0
100
AcDbPolyline
 90
        2
 70
     0
 43
0.0
 10
106.7658903343217
 20
264.5239481612712
 10
98.01589033432174
 20
264.5239481612712
  0
LWPOLYLINE
  5
101141F
330
1F
100
AcDbEntity
  8
P
  6
Continuous
 62
     0
100
AcDbPolyline
 90
        2
 70
     0
 43
0.0
 10
98.01589033432174
 20
264.5239481612712
 10
98.01589033432174
 20
273.1072814946044
  0
LWPOLYLINE
  5
1011420
330
1F
100
AcDbEntity
  8
P
  6
Continuous
 62
     0
100
AcDbPolyline
 90
        2
 70
     0
 43
0.0
 10
98.01589033432174
 20
273.1072814946044
 10
95.84922366765505
 20
273.1072814946044
  0
LWPOLYLINE
  5
1011421
330
1F
100
AcDbEntity
  8
P
  6
Continuous
 62
     0
100
AcDbPolyline
 90
        2
 70
     0
 43
0.0
 10
95.84922366765505
 20
287.7739481612712
 10
95.84922366765505
 20
242.1072814946045
  0
LWPOLYLINE
  5
1011422
330
1F
100
AcDbEntity
  8
P
  6
Continuous
 62
     0
100
AcDbPolyline
 90
        2
 70
     0
 43
0.0
 10
95.84922366765505
 20
242.1072814946045
 10
108.7658903343217
 20
242.1072814946045
  0
LWPOLYLINE
  5
1011423
330
1F
100
AcDbEntity
  8
P
  6
Continuous
 62
     0
100
AcDbPolyline
 90
        2
 70
     0
 43
0.0
 10
108.7658903343217
 20
240.9406148279378
 10
94.68255700098842
 20
240.9406148279378
  0
LWPOLYLINE
  5
1011424
330
1F
100
AcDbEntity
  8
P
  6
Continuous
 62
     0
100
AcDbPolyline
 90
        2
 70
     0
 43
0.0
 10
94.68255700098842
 20
240.9406148279378
 10
94.68255700098842
 20
242.0239481612711
  0
LWPOLYLINE
  5
1011425
330
1F
100
AcDbEntity
  8
P
  6
Continuous
 62
     0
100
AcDbPolyline
 90
        2
 70
     0
 43
0.0
 10
94.68255700098842
 20
242.0239481612711
 10
87.43255700098842
 20
244.0239481612711
  0
LWPOLYLINE
  5
1011426
330
1F
100
AcDbEntity
  8
P
  6
Continuous
 62
     0
100
AcDbPolyline
 90
        2
 70
     0
 43
0.0
 10
94.68255700098842
 20
244.1072814946045
 10
87.43255700098842
 20
244.1072814946045
  0
LWPOLYLINE
  5
1011427
330
1F
100
AcDbEntity
  8
P
  6
Continuous
 62
     0
100
AcDbPolyline
 90
        2
 70
     0
 43
0.0
 10
94.68255700098842
 20
242.0239481612711
 10
94.68255700098842
 20
264.9406148279378
  0
LWPOLYLINE
  5
1011428
330
1F
100
AcDbEntity
  8
P
  6
Continuous
 62
     0
100
AcDbPolyline
 90
        2
 70
     0
 43
0.0
 10
94.68255700098842
 20
264.9406148279378
 10
87.43255700098842
 20
264.9406148279378
  0
LWPOLYLINE
  5
1011429
330
1F
100
AcDbEntity
  8
P
  6
Continuous
 62
     0
100
AcDbPolyline
 90
        2
 70
     0
 43
0.0
 10
94.68255700098842
 20
248.7739481612712
 10
87.43255700098842
 20
250.7739481612712
  0
LWPOLYLINE
  5
101142A
330
1F
100
AcDbEntity
  8
P
  6
Continuous
 62
     0
100
AcDbPolyline
 90
        2
 70
     0
 43
0.0
 10
94.68255700098842
 20
250.8572814946045
 10
87.43255700098842
 20
250.8572814946045
  0
LWPOLYLINE
  5
101142B
330
1F
100
AcDbEntity
  8
P
  6
Continuous
 62
     0
100
AcDbPolyline
 90
        2
 70
     0
 43
0.0
 10
94.68255700098842
 20
256.1906148279378
 10
87.43255700098842
 20
258.1906148279378
  0
LWPOLYLINE
  5
101142C
330
1F
100
AcDbEntity
  8
P
  6
Continuous
 62
     0
100
AcDbPolyline
 90
        2
 70
     0
 43
0.0
 10
94.68255700098842
 20
258.2739481612712
 10
87.43255700098842
 20
258.2739481612712
  0
LWPOLYLINE
  5
101142D
330
1F
100
AcDbEntity
  8
P
  6
Continuous
 62
     0
100
AcDbPolyline
 90
        2
 70
     0
 43
0.0
 10
94.68255700098842
 20
262.8572814946044
 10
87.43255700098842
 20
264.8572814946044
  0
LWPOLYLINE
  5
101142E
330
1F
100
AcDbEntity
  8
P
  6
Continuous
 62
     0
100
AcDbPolyline
 90
        2
 70
     0
 43
0.0
 10
106.349223667655
 20
267.8572814946044
 10
114.6825570009884
 20
267.8572814946044
  0
LWPOLYLINE
  5
101142F
330
1F
100
AcDbEntity
  8
P
  6
Continuous
 62
     0
100
AcDbPolyline
 90
       33
 70
     0
 43
0.0
 10
121.4325570009884
 20
261.2739481612712
 10
121.349223667655
 20
261.6072814946044
 10
121.2658903343217
 20
261.9406148279378
 10
121.1825570009884
 20
262.1906148279378
 10
121.099223667655
 20
262.5239481612712
 10
121.0158903343217
 20
262.8572814946044
 10
120.9325570009884
 20
263.1072814946044
 10
120.7658903343217
 20
263.4406148279378
 10
120.6825570009884
 20
263.6906148279378
 10
120.5158903343217
 20
263.9406148279378
 10
120.349223667655
 20
264.2739481612712
 10
120.1825570009884
 20
264.5239481612712
 10
120.0158903343217
 20
264.7739481612711
 10
119.7658903343217
 20
265.0239481612711
 10
119.599223667655
 20
265.2739481612712
 10
119.349223667655
 20
265.5239481612712
 10
119.1825570009884
 20
265.6906148279378
 10
118.9325570009884
 20
265.9406148279378
 10
118.6825570009884
 20
266.1906148279378
 10
118.4325570009884
 20
266.3572814946044
 10
118.1825570009884
 20
266.5239481612712
 10
117.9325570009884
 20
266.6906148279378
 10
117.599223667655
 20
266.8572814946044
 10
117.349223667655
 20
267.0239481612711
 10
117.099223667655
 20
267.1906148279378
 10
116.7658903343217
 20
267.3572814946044
 10
116.5158903343217
 20
267.4406148279378
 10
116.1825570009884
 20
267.5239481612712
 10
115.9325570009884
 20
267.6906148279378
 10
115.599223667655
 20
267.7739481612712
 10
115.2658903343217
 20
267.7739481612712
 10
115.0158903343217
 20
267.8572814946044
 10
114.6825570009884
 20
267.8572814946044
  0
LWPOLYLINE
  5
1011430
330
1F
100
AcDbEntity
  8
P
  6
Continuous
 62
     0
100
AcDbPolyline
 90
       33
 70
     0
 43
0.0
 10
124.099223667655
 20
261.1906148279378
 10
124.099223667655
 20
261.6072814946044
 10
124.0158903343217
 20
262.0239481612712
 10
123.9325570009884
 20
262.3572814946044
 10
123.9325570009884
 20
262.7739481612711
 10
123.849223667655
 20
263.1072814946044
 10
123.6825570009884
 20
263.5239481612712
 10
123.599223667655
 20
263.8572814946044
 10
123.4325570009884
 20
264.2739481612712
 10
123.2658903343217
 20
264.6072814946044
 10
123.099223667655
 20
264.9406148279378
 10
122.9325570009884
 20
265.2739481612712
 10
122.6825570009884
 20
265.6072814946044
 10
122.5158903343217
 20
265.9406148279378
 10
122.2658903343217
 20
266.2739481612712
 10
122.0158903343217
 20
266.5239481612712
 10
121.7658903343217
 20
266.8572814946044
 10
121.5158903343217
 20
267.1072814946044
 10
121.2658903343217
 20
267.3572814946044
 10
120.9325570009884
 20
267.6072814946044
 10
120.6825570009884
 20
267.8572814946044
 10
120.349223667655
 20
268.1072814946044
 10
120.0158903343217
 20
268.3572814946044
 10
119.6825570009884
 20
268.5239481612712
 10
119.349223667655
 20
268.7739481612712
 10
119.0158903343217
 20
268.9406148279378
 10
118.6825570009884
 20
269.1072814946044
 10
118.2658903343217
 20
269.1906148279378
 10
117.9325570009884
 20
269.3572814946044
 10
117.599223667655
 20
269.4406148279378
 10
117.1825570009884
 20
269.5239481612712
 10
116.849223667655
 20
269.6072814946044
 10
116.4325570009884
 20
269.6906148279378
  0
LWPOLYLINE
  5
1011431
330
1F
100
AcDbEntity
  8
P
  6
Continuous
 62
     0
100
AcDbPolyline
 90
       17
 70
     0
 43
0.0
 10
87.43255700098842
 20
277.2739481612711
 10
87.34922366765506
 20
277.6906148279378
 10
87.26589033432174
 20
278.0239481612712
 10
87.09922366765505
 20
278.3572814946044
 10
86.93255700098843
 20
278.6906148279378
 10
86.76589033432174
 20
279.0239481612712
 10
86.51589033432173
 20
279.3572814946044
 10
86.26589033432173
 20
279.6072814946044
 10
86.01589033432174
 20
279.9406148279378
 10
85.68255700098843
 20
280.1072814946044
 10
85.43255700098843
 20
280.3572814946044
 10
85.09922366765506
 20
280.5239481612712
 10
84.68255700098842
 20
280.6906148279378
 10
84.34922366765505
 20
280.7739481612712
 10
84.01589033432173
 20
280.8572814946044
 10
83.59922366765506
 20
280.9406148279378
 10
83.18255700098843
 20
280.9406148279378
  0
LWPOLYLINE
  5
1011432
330
1F
100
AcDbEntity
  8
P
  6
Continuous
 62
     0
100
AcDbPolyline
 90
        2
 70
     0
 43
0.0
 10
93.01589033432174
 20
285.1072814946044
 10
92.43255700098842
 20
280.5239481612712
  0
LWPOLYLINE
  5
1011433
330
1F
100
AcDbEntity
  8
P
  6
Continuous
 62
     0
100
AcDbPolyline
 90
        2
 70
     0
 43
0.0
 10
142.5992236676551
 20
212.1906148279378
 10
114.5158903343217
 20
212.1906148279378
  0
LWPOLYLINE
  5
1011434
330
1F
100
AcDbEntity
  8
P
  6
Continuous
 62
     0
100
AcDbPolyline
 90
        2
 70
     0
 43
0.0
 10
142.5992236676551
 20
210.3572814946045
 10
114.5158903343217
 20
210.3572814946045
  0
LWPOLYLINE
  5
1011435
330
1F
100
AcDbEntity
  8
P
  6
Continuous
 62
     0
100
AcDbPolyline
 90
        2
 70
     0
 43
0.0
 10
114.4325570009884
 20
210.3572814946045
 10
113.849223667655
 20
210.3572814946045
  0
LWPOLYLINE
  5
1011436
330
1F
100
AcDbEntity
  8
P
  6
Continuous
 62
     0
100
AcDbPolyline
 90
       18
 70
     0
 43
0.0
 10
110.6825570009884
 20
216.1906148279378
 10
110.6825570009884
 20
215.7739481612712
 10
110.7658903343217
 20
215.4406148279378
 10
110.849223667655
 20
215.0239481612711
 10
110.9325570009884
 20
214.6906148279378
 10
111.099223667655
 20
214.3572814946045
 10
111.2658903343217
 20
214.0239481612712
 10
111.5158903343217
 20
213.6906148279378
 10
111.7658903343217
 20
213.3572814946045
 10
112.0158903343217
 20
213.1072814946045
 10
112.349223667655
 20
212.9406148279378
 10
112.6825570009884
 20
212.6906148279378
 10
113.0158903343217
 20
212.5239481612712
 10
113.349223667655
 20
212.3572814946045
 10
113.6825570009884
 20
212.2739481612712
 10
114.099223667655
 20
212.1906148279378
 10
114.5158903343217
 20
212.1906148279378
 10
114.5158903343217
 20
212.1906148279378
  0
LWPOLYLINE
  5
1011437
330
1F
100
AcDbEntity
  8
P
  6
Continuous
 62
     0
100
AcDbPolyline
 90
       34
 70
     0
 43
0.0
 10
108.7658903343217
 20
216.2739481612712
 10
108.7658903343217
 20
215.9406148279378
 10
108.7658903343217
 20
215.6906148279378
 10
108.7658903343217
 20
215.3572814946045
 10
108.849223667655
 20
215.1072814946045
 10
108.849223667655
 20
214.8572814946045
 10
108.9325570009884
 20
214.5239481612712
 10
109.0158903343217
 20
214.2739481612712
 10
109.099223667655
 20
214.0239481612712
 10
109.1825570009884
 20
213.7739481612712
 10
109.349223667655
 20
213.5239481612712
 10
109.4325570009884
 20
213.2739481612712
 10
109.599223667655
 20
213.0239481612711
 10
109.7658903343217
 20
212.7739481612711
 10
109.9325570009884
 20
212.6072814946045
 10
110.099223667655
 20
212.3572814946045
 10
110.2658903343217
 20
212.1906148279378
 10
110.5158903343217
 20
211.9406148279378
 10
110.6825570009884
 20
211.7739481612712
 10
110.9325570009884
 20
211.6072814946045
 10
111.099223667655
 20
211.4406148279378
 10
111.349223667655
 20
211.2739481612712
 10
111.599223667655
 20
211.1072814946045
 10
111.849223667655
 20
211.0239481612711
 10
112.099223667655
 20
210.8572814946045
 10
112.349223667655
 20
210.7739481612711
 10
112.599223667655
 20
210.6906148279378
 10
112.849223667655
 20
210.6072814946045
 10
113.099223667655
 20
210.5239481612712
 10
113.4325570009884
 20
210.4406148279378
 10
113.6825570009884
 20
210.4406148279378
 10
114.0158903343217
 20
210.3572814946045
 10
114.2658903343217
 20
210.3572814946045
 10
114.5158903343217
 20
210.3572814946045
  0
LWPOLYLINE
  5
1011438
330
1F
100
AcDbEntity
  8
P
  6
Continuous
 62
     0
100
AcDbPolyline
 90
        2
 70
     0
 43
0.0
 10
56.59922366765505
 20
250.2739481612711
 10
56.59922366765505
 20
241.6072814946045
  0
LWPOLYLINE
  5
1011439
330
1F
100
AcDbEntity
  8
P
  6
Continuous
 62
     0
100
AcDbPolyline
 90
        2
 70
     0
 43
0.0
 10
102.099223667655
 20
264.5239481612712
 10
102.099223667655
 20
262.3572814946044
  0
LWPOLYLINE
  5
101143A
330
1F
100
AcDbEntity
  8
P
  6
Continuous
 62
     0
100
AcDbPolyline
 90
        2
 70
     0
 43
0.0
 10
102.099223667655
 20
262.3572814946044
 10
95.84922366765505
 20
262.3572814946044
  0
LWPOLYLINE
  5
101143B
330
1F
100
AcDbEntity
  8
P
  6
Continuous
 62
     0
100
AcDbPolyline
 90
        2
 70
     0
 43
0.0
 10
101.6825570009884
 20
269.6072814946044
 10
101.6825570009884
 20
279.5239481612711
  0
LWPOLYLINE
  5
101143C
330
1F
100
AcDbEntity
  8
P
  6
Continuous
 62
     0
100
AcDbPolyline
 90
        2
 70
     0
 43
0.0
 10
101.6825570009884
 20
279.5239481612711
 10
95.84922366765505
 20
279.5239481612711
  0
LWPOLYLINE
  5
101143D
330
1F
100
AcDbEntity
  8
P
  6
Continuous
 62
     0
100
AcDbPolyline
 90
        2
 70
     0
 43
0.0
 10
109.6825570009884
 20
264.5239481612712
 10
120.1825570009884
 20
264.5239481612712
  0
LWPOLYLINE
  5
101143E
330
1F
100
AcDbEntity
  8
P
  6
Continuous
 62
     0
100
AcDbPolyline
 90
        2
 70
     0
 43
0.0
 10
101.6825570009884
 20
269.6072814946044
 10
109.5158903343217
 20
261.7739481612712
  0
LWPOLYLINE
  5
101143F
330
1F
100
AcDbEntity
  8
P
  6
Continuous
 62
     0
100
AcDbPolyline
 90
        2
 70
     0
 43
0.0
 10
74.09922366765505
 20
202.7739481612712
 10
74.09922366765505
 20
239.7739481612711
  0
LWPOLYLINE
  5
1011440
330
1F
100
AcDbEntity
  8
P
  6
Continuous
 62
     0
100
AcDbPolyline
 90
        2
 70
     0
 43
0.0
 10
70.09922366765505
 20
245.6906148279378
 10
70.09922366765505
 20
241.6072814946045
  0
LWPOLYLINE
  5
1011441
330
1F
100
AcDbEntity
  8
P
  6
Continuous
 62
     0
100
AcDbPolyline
 90
        2
 70
     0
 43
0.0
 10
71.68255700098843
 20
201.8572814946045
 10
71.68255700098843
 20
239.7739481612711
  0
LWPOLYLINE
  5
1011442
330
1F
100
AcDbEntity
  8
P
  6
Continuous
 62
     0
100
AcDbPolyline
 90
        2
 70
     0
 43
0.0
 10
87.43255700098842
 20
266.0239481612712
 10
95.84922366765505
 20
266.0239481612712
  0
LWPOLYLINE
  5
1011443
330
1F
100
AcDbEntity
  8
P
  6
Continuous
 62
     0
100
AcDbPolyline
 90
        2
 70
     0
 43
0.0
 10
189.4325570009883
 20
266.0239481612712
 10
197.8492236676551
 20
266.0239481612712
  0
LWPOLYLINE
  5
1011444
330
1F
100
AcDbEntity
  8
P
  6
Continuous
 62
     0
100
AcDbPolyline
 90
        2
 70
     0
 43
0.0
 10
53.84922366765505
 20
250.2739481612711
 10
53.84922366765505
 20
239.7739481612711
  0
LWPOLYLINE
  5
1011445
330
1F
100
AcDbEntity
  8
P
  6
Continuous
 62
     0
100
AcDbPolyline
 90
        2
 70
     0
 43
0.0
 10
231.4325570009884
 20
253.0239481612712
 10
231.4325570009884
 20
241.6072814946045
  0
LWPOLYLINE
  5
1011446
330
1F
100
AcDbEntity
  8
P
  6
Continuous
 62
     0
100
AcDbPolyline
 90
        2
 70
     0
 43
0.0
 10
250.5992236676551
 20
253.0239481612712
 10
255.8492236676551
 20
258.2739481612712
  0
LWPOLYLINE
  5
1011447
330
1F
100
AcDbEntity
  8
P
  6
Continuous
 62
     0
100
AcDbPolyline
 90
        2
 70
     0
 43
0.0
 10
241.6825570009883
 20
253.0239481612712
 10
255.8492236676551
 20
267.1906148279378
  0
LWPOLYLINE
  5
1011448
330
1F
100
AcDbEntity
  8
P
  6
Continuous
 62
     0
100
AcDbPolyline
 90
        2
 70
     0
 43
0.0
 10
233.0158903343217
 20
253.0239481612712
 10
255.8492236676551
 20
276.0239481612712
  0
LWPOLYLINE
  5
1011449
330
1F
100
AcDbEntity
  8
P
  6
Continuous
 62
     0
100
AcDbPolyline
 90
        2
 70
     0
 43
0.0
 10
224.0992236676551
 20
253.0239481612712
 10
255.8492236676551
 20
284.6072814946044
  0
LWPOLYLINE
  5
101144A
330
1F
100
AcDbEntity
  8
P
  6
Continuous
 62
     0
100
AcDbPolyline
 90
        2
 70
     0
 43
0.0
 10
215.2658903343217
 20
253.0239481612712
 10
246.8492236676551
 20
284.6072814946044
  0
LWPOLYLINE
  5
101144B
330
1F
100
AcDbEntity
  8
P
  6
Continuous
 62
     0
100
AcDbPolyline
 90
        2
 70
     0
 43
0.0
 10
206.3492236676551
 20
253.0239481612712
 10
237.5158903343217
 20
284.1072814946044
  0
LWPOLYLINE
  5
101144C
330
1F
100
AcDbEntity
  8
P
  6
Continuous
 62
     0
100
AcDbPolyline
 90
        2
 70
     0
 43
0.0
 10
201.0992236676551
 20
256.6906148279378
 10
228.2658903343218
 20
283.7739481612711
  0
LWPOLYLINE
  5
101144D
330
1F
100
AcDbEntity
  8
P
  6
Continuous
 62
     0
100
AcDbPolyline
 90
        2
 70
     0
 43
0.0
 10
201.0992236676551
 20
265.5239481612712
 10
214.5992236676551
 20
278.7739481612712
  0
LWPOLYLINE
  5
101144E
330
1F
100
AcDbEntity
  8
P
  6
Continuous
 62
     0
100
AcDbPolyline
 90
        2
 70
     0
 43
0.0
 10
201.0992236676551
 20
274.1072814946044
 10
205.1825570009884
 20
278.2739481612712
  0
LWPOLYLINE
  5
101144F
330
1F
100
AcDbEntity
  8
P
  6
Continuous
 62
     0
100
AcDbPolyline
 90
        2
 70
     0
 43
0.0
 10
29.43255700098843
 20
279.1072814946044
 10
35.26589033432174
 20
284.6072814946044
  0
LWPOLYLINE
  5
1011450
330
1F
100
AcDbEntity
  8
P
  6
Continuous
 62
     0
100
AcDbPolyline
 90
        2
 70
     0
 43
0.0
 10
29.43255700098843
 20
270.1906148279378
 10
43.59922366765505
 20
284.3572814946044
  0
LWPOLYLINE
  5
1011451
330
1F
100
AcDbEntity
  8
P
  6
Continuous
 62
     0
100
AcDbPolyline
 90
        2
 70
     0
 43
0.0
 10
29.43255700098843
 20
261.3572814946044
 10
52.01589033432174
 20
283.7739481612711
  0
LWPOLYLINE
  5
1011452
330
1F
100
AcDbEntity
  8
P
  6
Continuous
 62
     0
100
AcDbPolyline
 90
        2
 70
     0
 43
0.0
 10
30.01589033432174
 20
253.0239481612712
 10
59.51589033432174
 20
282.4406148279378
  0
LWPOLYLINE
  5
1011453
330
1F
100
AcDbEntity
  8
P
  6
Continuous
 62
     0
100
AcDbPolyline
 90
        2
 70
     0
 43
0.0
 10
38.84922366765506
 20
253.0239481612712
 10
64.84922366765506
 20
279.1072814946044
  0
LWPOLYLINE
  5
1011454
330
1F
100
AcDbEntity
  8
P
  6
Continuous
 62
     0
100
AcDbPolyline
 90
        2
 70
     0
 43
0.0
 10
47.59922366765505
 20
253.0239481612712
 10
73.18255700098842
 20
278.5239481612712
  0
LWPOLYLINE
  5
1011455
330
1F
100
AcDbEntity
  8
P
  6
Continuous
 62
     0
100
AcDbPolyline
 90
        2
 70
     0
 43
0.0
 10
56.43255700098842
 20
253.0239481612712
 10
81.51589033432173
 20
277.9406148279378
  0
LWPOLYLINE
  5
1011456
330
1F
100
AcDbEntity
  8
P
  6
Continuous
 62
     0
100
AcDbPolyline
 90
        2
 70
     0
 43
0.0
 10
65.26589033432173
 20
253.0239481612712
 10
84.09922366765504
 20
271.8572814946044
  0
LWPOLYLINE
  5
1011457
330
1F
100
AcDbEntity
  8
P
  6
Continuous
 62
     0
100
AcDbPolyline
 90
        2
 70
     0
 43
0.0
 10
74.18255700098843
 20
253.0239481612712
 10
84.09922366765504
 20
263.0239481612711
  0
LWPOLYLINE
  5
1011458
330
1F
100
AcDbEntity
  8
P
  6
Continuous
 62
     0
100
AcDbPolyline
 90
        2
 70
     0
 43
0.0
 10
82.84922366765504
 20
253.0239481612712
 10
84.09922366765504
 20
254.1906148279378
  0
LWPOLYLINE
  5
1011459
330
1F
100
AcDbEntity
  8
P
  6
Continuous
 62
     0
100
AcDbPolyline
 90
        2
 70
     0
 43
0.0
 10
29.43255700098843
 20
185.1906148279378
 10
38.43255700098842
 20
194.1072814946044
  0
LWPOLYLINE
  5
101145A
330
1F
100
AcDbEntity
  8
P
  6
Continuous
 62
     0
100
AcDbPolyline
 90
        2
 70
     0
 43
0.0
 10
39.43255700098843
 20
172.4406148279378
 10
60.84922366765505
 20
194.1072814946044
  0
LWPOLYLINE
  5
101145B
330
1F
100
AcDbEntity
  8
P
  6
Continuous
 62
     0
100
AcDbPolyline
 90
        2
 70
     0
 43
0.0
 10
61.84922366765505
 20
172.4406148279378
 10
83.43255700098842
 20
194.1072814946044
  0
LWPOLYLINE
  5
101145C
330
1F
100
AcDbEntity
  8
P
  6
Continuous
 62
     0
100
AcDbPolyline
 90
        2
 70
     0
 43
0.0
 10
84.26589033432174
 20
172.4406148279378
 10
105.849223667655
 20
194.1072814946044
  0
LWPOLYLINE
  5
101145D
330
1F
100
AcDbEntity
  8
P
  6
Continuous
 62
     0
100
AcDbPolyline
 90
        2
 70
     0
 43
0.0
 10
106.6825570009884
 20
172.4406148279378
 10
128.2658903343217
 20
194.1072814946044
  0
LWPOLYLINE
  5
101145E
330
1F
100
AcDbEntity
  8
P
  6
Continuous
 62
     0
100
AcDbPolyline
 90
        2
 70
     0
 43
0.0
 10
129.2658903343217
 20
172.4406148279378
 10
150.7658903343217
 20
194.1072814946044
  0
LWPOLYLINE
  5
101145F
330
1F
100
AcDbEntity
  8
P
  6
Continuous
 62
     0
100
AcDbPolyline
 90
        2
 70
     0
 43
0.0
 10
151.6825570009883
 20
172.4406148279378
 10
173.1825570009883
 20
194.1072814946044
  0
LWPOLYLINE
  5
1011460
330
1F
100
AcDbEntity
  8
P
  6
Continuous
 62
     0
100
AcDbPolyline
 90
        2
 70
     0
 43
0.0
 10
174.0992236676551
 20
172.4406148279378
 10
195.7658903343217
 20
194.1072814946044
  0
LWPOLYLINE
  5
1011461
330
1F
100
AcDbEntity
  8
P
  6
Continuous
 62
     0
100
AcDbPolyline
 90
        2
 70
     0
 43
0.0
 10
196.5992236676551
 20
172.4406148279378
 10
218.1825570009884
 20
194.1072814946044
  0
LWPOLYLINE
  5
1011462
330
1F
100
AcDbEntity
  8
P
  6
Continuous
 62
     0
100
AcDbPolyline
 90
        2
 70
     0
 43
0.0
 10
219.0158903343217
 20
172.4406148279378
 10
240.5992236676551
 20
194.1072814946044
  0
LWPOLYLINE
  5
1011463
330
1F
100
AcDbEntity
  8
P
  6
Continuous
 62
     0
100
AcDbPolyline
 90
        2
 70
     0
 43
0.0
 10
241.5992236676551
 20
172.4406148279378
 10
255.8492236676551
 20
186.8572814946045
  0
LWPOLYLINE
  5
1011464
330
1F
100
AcDbEntity
  8
P
  6
Continuous
 62
     0
100
AcDbPolyline
 90
        2
 70
     0
 43
0.0
 10
29.43255700098843
 20
173.8572814946045
 10
30.68255700098843
 20
175.2739481612711
  0
LWPOLYLINE
  5
1011465
330
1F
100
AcDbEntity
  8
P
  6
Continuous
 62
     0
100
AcDbPolyline
 90
        2
 70
     0
 43
0.0
 10
33.59922366765506
 20
178.0239481612711
 10
41.93255700098842
 20
186.3572814946045
  0
LWPOLYLINE
  5
1011466
330
1F
100
AcDbEntity
  8
P
  6
Continuous
 62
     0
100
AcDbPolyline
 90
        2
 70
     0
 43
0.0
 10
44.84922366765505
 20
189.1072814946044
 10
49.68255700098842
 20
194.1072814946044
  0
LWPOLYLINE
  5
1011467
330
1F
100
AcDbEntity
  8
P
  6
Continuous
 62
     0
100
AcDbPolyline
 90
        2
 70
     0
 43
0.0
 10
50.59922366765505
 20
172.4406148279378
 10
53.26589033432174
 20
175.2739481612711
  0
LWPOLYLINE
  5
1011468
330
1F
100
AcDbEntity
  8
P
  6
Continuous
 62
     0
100
AcDbPolyline
 90
        2
 70
     0
 43
0.0
 10
56.01589033432174
 20
178.0239481612711
 10
64.43255700098842
 20
186.3572814946045
  0
LWPOLYLINE
  5
1011469
330
1F
100
AcDbEntity
  8
P
  6
Continuous
 62
     0
100
AcDbPolyline
 90
        2
 70
     0
 43
0.0
 10
67.26589033432174
 20
189.1072814946044
 10
72.26589033432174
 20
194.1072814946044
  0
LWPOLYLINE
  5
101146A
330
1F
100
AcDbEntity
  8
P
  6
Continuous
 62
     0
100
AcDbPolyline
 90
        2
 70
     0
 43
0.0
 10
73.01589033432174
 20
172.4406148279378
 10
75.68255700098842
 20
175.2739481612711
  0
LWPOLYLINE
  5
101146B
330
1F
100
AcDbEntity
  8
P
  6
Continuous
 62
     0
100
AcDbPolyline
 90
        2
 70
     0
 43
0.0
 10
78.43255700098842
 20
178.0239481612711
 10
86.93255700098843
 20
186.3572814946045
  0
LWPOLYLINE
  5
101146C
330
1F
100
AcDbEntity
  8
P
  6
Continuous
 62
     0
100
AcDbPolyline
 90
        2
 70
     0
 43
0.0
 10
89.68255700098842
 20
189.1072814946044
 10
94.68255700098842
 20
194.1072814946044
  0
LWPOLYLINE
  5
101146D
330
1F
100
AcDbEntity
  8
P
  6
Continuous
 62
     0
100
AcDbPolyline
 90
        2
 70
     0
 43
0.0
 10
95.51589033432174
 20
172.4406148279378
 10
98.09922366765505
 20
175.2739481612711
  0
LWPOLYLINE
  5
101146E
330
1F
100
AcDbEntity
  8
P
  6
Continuous
 62
     0
100
AcDbPolyline
 90
        2
 70
     0
 43
0.0
 10
100.849223667655
 20
178.0239481612711
 10
109.349223667655
 20
186.3572814946045
  0
LWPOLYLINE
  5
101146F
330
1F
100
AcDbEntity
  8
P
  6
Continuous
 62
     0
100
AcDbPolyline
 90
        2
 70
     0
 43
0.0
 10
112.099223667655
 20
189.1072814946044
 10
117.099223667655
 20
194.1072814946044
  0
LWPOLYLINE
  5
1011470
330
1F
100
AcDbEntity
  8
P
  6
Continuous
 62
     0
100
AcDbPolyline
 90
        2
 70
     0
 43
0.0
 10
117.9325570009884
 20
172.4406148279378
 10
120.5158903343217
 20
175.2739481612711
  0
LWPOLYLINE
  5
1011471
330
1F
100
AcDbEntity
  8
P
  6
Continuous
 62
     0
100
AcDbPolyline
 90
        2
 70
     0
 43
0.0
 10
123.349223667655
 20
178.0239481612711
 10
131.7658903343217
 20
186.3572814946045
  0
LWPOLYLINE
  5
1011472
330
1F
100
AcDbEntity
  8
P
  6
Continuous
 62
     0
100
AcDbPolyline
 90
        2
 70
     0
 43
0.0
 10
134.5158903343217
 20
189.1072814946044
 10
139.5158903343217
 20
194.1072814946044
  0
LWPOLYLINE
  5
1011473
330
1F
100
AcDbEntity
  8
P
  6
Continuous
 62
     0
100
AcDbPolyline
 90
        2
 70
     0
 43
0.0
 10
140.5158903343217
 20
172.4406148279378
 10
143.0158903343217
 20
175.2739481612711
  0
LWPOLYLINE
  5
1011474
330
1F
100
AcDbEntity
  8
P
  6
Continuous
 62
     0
100
AcDbPolyline
 90
        2
 70
     0
 43
0.0
 10
145.8492236676551
 20
178.0239481612711
 10
154.1825570009883
 20
186.3572814946045
  0
LWPOLYLINE
  5
1011475
330
1F
100
AcDbEntity
  8
P
  6
Continuous
 62
     0
100
AcDbPolyline
 90
        2
 70
     0
 43
0.0
 10
157.0992236676551
 20
189.1072814946044
 10
161.9325570009883
 20
194.1072814946044
  0
LWPOLYLINE
  5
1011476
330
1F
100
AcDbEntity
  8
P
  6
Continuous
 62
     0
100
AcDbPolyline
 90
        2
 70
     0
 43
0.0
 10
162.9325570009883
 20
172.4406148279378
 10
165.4325570009883
 20
175.2739481612711
  0
LWPOLYLINE
  5
1011477
330
1F
100
AcDbEntity
  8
P
  6
Continuous
 62
     0
100
AcDbPolyline
 90
        2
 70
     0
 43
0.0
 10
168.3492236676551
 20
178.0239481612711
 10
176.7658903343217
 20
186.3572814946045
  0
LWPOLYLINE
  5
1011478
330
1F
100
AcDbEntity
  8
P
  6
Continuous
 62
     0
100
AcDbPolyline
 90
        2
 70
     0
 43
0.0
 10
179.5158903343217
 20
189.1072814946044
 10
184.3492236676551
 20
194.1072814946044
  0
LWPOLYLINE
  5
1011479
330
1F
100
AcDbEntity
  8
P
  6
Continuous
 62
     0
100
AcDbPolyline
 90
        2
 70
     0
 43
0.0
 10
185.3492236676551
 20
172.4406148279378
 10
188.0158903343217
 20
175.2739481612711
  0
LWPOLYLINE
  5
101147A
330
1F
100
AcDbEntity
  8
P
  6
Continuous
 62
     0
100
AcDbPolyline
 90
        2
 70
     0
 43
0.0
 10
190.7658903343217
 20
178.0239481612711
 10
199.1825570009883
 20
186.3572814946045
  0
LWPOLYLINE
  5
101147B
330
1F
100
AcDbEntity
  8
P
  6
Continuous
 62
     0
100
AcDbPolyline
 90
        2
 70
     0
 43
0.0
 10
201.9325570009883
 20
189.1072814946044
 10
206.9325570009884
 20
194.1072814946044
  0
LWPOLYLINE
  5
101147C
330
1F
100
AcDbEntity
  8
P
  6
Continuous
 62
     0
100
AcDbPolyline
 90
        2
 70
     0
 43
0.0
 10
207.7658903343218
 20
172.4406148279378
 10
210.4325570009883
 20
175.2739481612711
  0
LWPOLYLINE
  5
101147D
330
1F
100
AcDbEntity
  8
P
  6
Continuous
 62
     0
100
AcDbPolyline
 90
        2
 70
     0
 43
0.0
 10
213.1825570009884
 20
178.0239481612711
 10
221.5992236676551
 20
186.3572814946045
  0
LWPOLYLINE
  5
101147E
330
1F
100
AcDbEntity
  8
P
  6
Continuous
 62
     0
100
AcDbPolyline
 90
        2
 70
     0
 43
0.0
 10
224.3492236676551
 20
189.1072814946044
 10
229.3492236676551
 20
194.1072814946044
  0
LWPOLYLINE
  5
101147F
330
1F
100
AcDbEntity
  8
P
  6
Continuous
 62
     0
100
AcDbPolyline
 90
        2
 70
     0
 43
0.0
 10
230.1825570009884
 20
172.4406148279378
 10
232.8492236676551
 20
175.2739481612711
  0
LWPOLYLINE
  5
1011480
330
1F
100
AcDbEntity
  8
P
  6
Continuous
 62
     0
100
AcDbPolyline
 90
        2
 70
     0
 43
0.0
 10
235.5992236676551
 20
178.0239481612711
 10
244.0158903343217
 20
186.3572814946045
  0
LWPOLYLINE
  5
1011481
330
1F
100
AcDbEntity
  8
P
  6
Continuous
 62
     0
100
AcDbPolyline
 90
        2
 70
     0
 43
0.0
 10
246.8492236676551
 20
189.1072814946044
 10
251.7658903343217
 20
194.1072814946044
  0
LWPOLYLINE
  5
1011482
330
1F
100
AcDbEntity
  8
P
  6
Continuous
 62
     0
100
AcDbPolyline
 90
        2
 70
     0
 43
0.0
 10
252.7658903343217
 20
172.4406148279378
 10
255.2658903343218
 20
175.2739481612711
  0
LWPOLYLINE
  5
1011483
330
1F
100
AcDbEntity
  8
P
  6
DASHDOT
 62
     0
100
AcDbPolyline
 90
        2
 70
     0
 43
0.0
 10
255.7658903343217
 20
312.6072814946045
 10
255.7658903343217
 20
172.2739481612711
  0
LWPOLYLINE
  5
1011484
330
1F
100
AcDbEntity
  8
P
  6
DASHDOT
 62
     0
100
AcDbPolyline
 90
        2
 70
     0
 43
0.0
 10
29.43255700098843
 20
312.6072814946045
 10
29.43255700098843
 20
172.2739481612711
  0
LWPOLYLINE
  5
1011485
330
1F
100
AcDbEntity
  8
P
  6
Continuous
 62
     0
100
AcDbPolyline
 90
        2
 70
     0
 43
0.0
 10
142.5992236676551
 20
294.6906148279378
 10
183.5158903343217
 20
294.6906148279378
  0
LWPOLYLINE
  5
1011486
330
1F
100
AcDbEntity
  8
P
  6
Continuous
 62
     0
100
AcDbPolyline
 90
        2
 70
     0
 43
0.0
 10
183.5158903343217
 20
294.6906148279378
 10
183.5158903343217
 20
286.1072814946044
  0
LWPOLYLINE
  5
1011487
330
1F
100
AcDbEntity
  8
P
  6
Continuous
 62
     0
100
AcDbPolyline
 90
        2
 70
     0
 43
0.0
 10
183.5158903343217
 20
286.1072814946044
 10
142.5992236676551
 20
286.1072814946044
  0
LWPOLYLINE
  5
1011488
330
1F
100
AcDbEntity
  8
P
  6
Continuous
 62
     0
100
AcDbPolyline
 90
        2
 70
     0
 43
0.0
 10
142.5992236676551
 20
294.6906148279378
 10
101.6825570009884
 20
294.6906148279378
  0
LWPOLYLINE
  5
1011489
330
1F
100
AcDbEntity
  8
P
  6
Continuous
 62
     0
100
AcDbPolyline
 90
        2
 70
     0
 43
0.0
 10
101.6825570009884
 20
294.6906148279378
 10
101.6825570009884
 20
286.1072814946044
  0
LWPOLYLINE
  5
101148A
330
1F
100
AcDbEntity
  8
P
  6
Continuous
 62
     0
100
AcDbPolyline
 90
        2
 70
     0
 43
0.0
 10
101.6825570009884
 20
286.1072814946044
 10
142.5992236676551
 20
286.1072814946044
  0
LWPOLYLINE
  5
101148B
330
1F
100
AcDbEntity
  8
P
  6
Continuous
 62
     0
100
AcDbPolyline
 90
        2
 70
     0
 43
0.0
 10
183.5158903343217
 20
287.7739481612712
 10
101.6825570009884
 20
287.7739481612712
  0
LWPOLYLINE
  5
101148C
330
1F
100
AcDbEntity
  8
P
  6
Continuous
 62
     0
100
AcDbPolyline
 90
        2
 70
     0
 43
0.0
 10
107.1825570009884
 20
294.6072814946045
 10
107.1825570009884
 20
292.4406148279378
  0
LWPOLYLINE
  5
101148D
330
1F
100
AcDbEntity
  8
P
  6
Continuous
 62
     0
100
AcDbPolyline
 90
        2
 70
     0
 43
0.0
 10
107.1825570009884
 20
292.4406148279378
 10
116.4325570009884
 20
292.4406148279378
  0
LWPOLYLINE
  5
101148E
330
1F
100
AcDbEntity
  8
P
  6
Continuous
 62
     0
100
AcDbPolyline
 90
        2
 70
     0
 43
0.0
 10
116.4325570009884
 20
294.6072814946045
 10
116.4325570009884
 20
292.4406148279378
  0
LWPOLYLINE
  5
101148F
330
1F
100
AcDbEntity
  8
P
  6
Continuous
 62
     0
100
AcDbPolyline
 90
        2
 70
     0
 43
0.0
 10
119.5158903343217
 20
294.6072814946045
 10
119.5158903343217
 20
292.4406148279378
  0
LWPOLYLINE
  5
1011490
330
1F
100
AcDbEntity
  8
P
  6
Continuous
 62
     0
100
AcDbPolyline
 90
        2
 70
     0
 43
0.0
 10
128.8492236676551
 20
294.6072814946045
 10
128.8492236676551
 20
292.4406148279378
  0
LWPOLYLINE
  5
1011491
330
1F
100
AcDbEntity
  8
P
  6
Continuous
 62
     0
100
AcDbPolyline
 90
        2
 70
     0
 43
0.0
 10
131.9325570009883
 20
294.6072814946045
 10
131.9325570009883
 20
292.4406148279378
  0
LWPOLYLINE
  5
1011492
330
1F
100
AcDbEntity
  8
P
  6
Continuous
 62
     0
100
AcDbPolyline
 90
        2
 70
     0
 43
0.0
 10
119.5158903343217
 20
292.4406148279378
 10
128.8492236676551
 20
292.4406148279378
  0
LWPOLYLINE
  5
1011493
330
1F
100
AcDbEntity
  8
P
  6
Continuous
 62
     0
100
AcDbPolyline
 90
        2
 70
     0
 43
0.0
 10
131.9325570009883
 20
292.4406148279378
 10
141.1825570009883
 20
292.4406148279378
  0
LWPOLYLINE
  5
1011494
330
1F
100
AcDbEntity
  8
P
  6
Continuous
 62
     0
100
AcDbPolyline
 90
        2
 70
     0
 43
0.0
 10
141.1825570009883
 20
294.6072814946045
 10
141.1825570009883
 20
292.4406148279378
  0
LWPOLYLINE
  5
1011495
330
1F
100
AcDbEntity
  8
P
  6
Continuous
 62
     0
100
AcDbPolyline
 90
        2
 70
     0
 43
0.0
 10
178.2658903343217
 20
294.6072814946045
 10
178.2658903343217
 20
292.4406148279378
  0
LWPOLYLINE
  5
1011496
330
1F
100
AcDbEntity
  8
P
  6
Continuous
 62
     0
100
AcDbPolyline
 90
        2
 70
     0
 43
0.0
 10
178.2658903343217
 20
292.4406148279378
 10
168.9325570009883
 20
292.4406148279378
  0
LWPOLYLINE
  5
1011497
330
1F
100
AcDbEntity
  8
P
  6
Continuous
 62
     0
100
AcDbPolyline
 90
        2
 70
     0
 43
0.0
 10
168.9325570009883
 20
294.6072814946045
 10
168.9325570009883
 20
292.4406148279378
  0
LWPOLYLINE
  5
1011498
330
1F
100
AcDbEntity
  8
P
  6
Continuous
 62
     0
100
AcDbPolyline
 90
        2
 70
     0
 43
0.0
 10
165.8492236676551
 20
294.6072814946045
 10
165.8492236676551
 20
292.4406148279378
  0
LWPOLYLINE
  5
1011499
330
1F
100
AcDbEntity
  8
P
  6
Continuous
 62
     0
100
AcDbPolyline
 90
        2
 70
     0
 43
0.0
 10
156.5992236676551
 20
294.6072814946045
 10
156.5992236676551
 20
292.4406148279378
  0
LWPOLYLINE
  5
101149A
330
1F
100
AcDbEntity
  8
P
  6
Continuous
 62
     0
100
AcDbPolyline
 90
        2
 70
     0
 43
0.0
 10
153.5158903343217
 20
294.6072814946045
 10
153.5158903343217
 20
292.4406148279378
  0
LWPOLYLINE
  5
101149B
330
1F
100
AcDbEntity
  8
P
  6
Continuous
 62
     0
100
AcDbPolyline
 90
        2
 70
     0
 43
0.0
 10
165.8492236676551
 20
292.4406148279378
 10
156.5992236676551
 20
292.4406148279378
  0
LWPOLYLINE
  5
101149C
330
1F
100
AcDbEntity
  8
P
  6
Continuous
 62
     0
100
AcDbPolyline
 90
        2
 70
     0
 43
0.0
 10
153.5158903343217
 20
292.4406148279378
 10
144.2658903343217
 20
292.4406148279378
  0
LWPOLYLINE
  5
101149D
330
1F
100
AcDbEntity
  8
P
  6
Continuous
 62
     0
100
AcDbPolyline
 90
        2
 70
     0
 43
0.0
 10
144.2658903343217
 20
294.6072814946045
 10
144.2658903343217
 20
292.4406148279378
  0
LWPOLYLINE
  5
101149E
330
1F
100
AcDbEntity
  8
P
  6
Continuous
 62
     0
100
AcDbPolyline
 90
        2
 70
     0
 43
0.0
 10
255.7658903343217
 20
288.7739481612712
 10
226.7658903343217
 20
287.4406148279378
  0
LWPOLYLINE
  5
101149F
330
1F
100
AcDbEntity
  8
P
  6
Continuous
 62
     0
100
AcDbPolyline
 90
        2
 70
     0
 43
0.0
 10
226.7658903343217
 20
287.4406148279378
 10
226.8492236676551
 20
286.3572814946044
  0
LWPOLYLINE
  5
10114A0
330
1F
100
AcDbEntity
  8
P
  6
DASHED2
 62
     0
100
AcDbPolyline
 90
        2
 70
     0
 43
0.0
 10
226.8492236676551
 20
286.8572814946044
 10
255.7658903343217
 20
288.1906148279378
  0
LWPOLYLINE
  5
10114A1
330
1F
100
AcDbEntity
  8
P
  6
Continuous
 62
     0
100
AcDbPolyline
 90
        2
 70
     0
 43
0.0
 10
29.51589033432174
 20
288.7739481612712
 10
58.43255700098842
 20
287.4406148279378
  0
LWPOLYLINE
  5
10114A2
330
1F
100
AcDbEntity
  8
P
  6
Continuous
 62
     0
100
AcDbPolyline
 90
        2
 70
     0
 43
0.0
 10
58.43255700098842
 20
287.4406148279378
 10
58.43255700098842
 20
286.3572814946044
  0
LWPOLYLINE
  5
10114A3
330
1F
100
AcDbEntity
  8
P
  6
DASHED2
 62
     0
100
AcDbPolyline
 90
        2
 70
     0
 43
0.0
 10
58.43255700098842
 20
286.8572814946044
 10
29.51589033432174
 20
288.1906148279378
  0
LWPOLYLINE
  5
10114A4
330
1F
100
AcDbEntity
  8
P
  6
Continuous
 62
     0
100
AcDbPolyline
 90
        3
 70
     0
 43
0.0
 10
29.43255700098843
 20
291.0239481612712
 10
29.43255700098843
 20
288.7739481612712
 10
29.43255700098843
 20
291.0239481612712
  0
LWPOLYLINE
  5
10114A5
330
1F
100
AcDbEntity
  8
P
  6
Continuous
 62
     0
100
AcDbPolyline
 90
        2
 70
     0
 43
0.0
 10
29.84922366765506
 20
288.7739481612712
 10
31.76589033432174
 20
290.6906148279378
  0
LWPOLYLINE
  5
10114A6
330
1F
100
AcDbEntity
  8
P
  6
Continuous
 62
     0
100
AcDbPolyline
 90
        2
 70
     0
 43
0.0
 10
93.43255700098842
 20
285.1906148279378
 10
95.93255700098842
 20
287.3572814946044
  0
LWPOLYLINE
  5
10114A7
330
1F
100
AcDbEntity
  8
P
  6
DASHDOT
 62
     0
100
AcDbPolyline
 90
        2
 70
     0
 43
0.0
 10
189.3492236676551
 20
278.2739481612712
 10
191.5992236676551
 20
280.4406148279378
  0
LWPOLYLINE
  5
10114A8
330
1F
100
AcDbEntity
  8
P
  6
DASHDOT
 62
     0
100
AcDbPolyline
 90
        2
 70
     0
 43
0.0
 10
189.5992236676551
 20
285.1906148279378
 10
192.5158903343217
 20
287.9406148279378
  0
LWPOLYLINE
  5
10114A9
330
1F
100
AcDbEntity
  8
P
  6
DASHDOT
 62
     0
100
AcDbPolyline
 90
        2
 70
     0
 43
0.0
 10
192.2658903343217
 20
284.6072814946044
 10
196.0158903343217
 20
288.1906148279378
  0
LWPOLYLINE
  5
10114AA
330
1F
100
AcDbEntity
  8
P
  6
DASHDOT
 62
     0
100
AcDbPolyline
 90
        2
 70
     0
 43
0.0
 10
192.6825570009883
 20
281.6072814946044
 10
199.3492236676551
 20
288.1906148279378
  0
LWPOLYLINE
  5
10114AB
330
1F
100
AcDbEntity
  8
P
  6
DASHDOT
 62
     0
100
AcDbPolyline
 90
        2
 70
     0
 43
0.0
 10
189.3492236676551
 20
275.1906148279378
 10
202.6825570009884
 20
288.5239481612712
  0
LWPOLYLINE
  5
10114AC
330
1F
100
AcDbEntity
  8
P
  6
DASHDOT
 62
     0
100
AcDbPolyline
 90
        2
 70
     0
 43
0.0
 10
189.3492236676551
 20
271.8572814946044
 10
206.0158903343217
 20
288.5239481612712
  0
LWPOLYLINE
  5
10114AD
330
1F
100
AcDbEntity
  8
P
  6
DASHDOT
 62
     0
100
AcDbPolyline
 90
        2
 70
     0
 43
0.0
 10
189.3492236676551
 20
268.8572814946044
 10
197.7658903343217
 20
277.1072814946044
  0
LWPOLYLINE
  5
10114AE
330
1F
100
AcDbEntity
  8
P
  6
DASHDOT
 62
     0
100
AcDbPolyline
 90
        2
 70
     0
 43
0.0
 10
201.6825570009884
 20
281.0239481612711
 10
209.4325570009884
 20
288.7739481612712
  0
LWPOLYLINE
  5
10114AF
330
1F
100
AcDbEntity
  8
P
  6
DASHDOT
 62
     0
100
AcDbPolyline
 90
        2
 70
     0
 43
0.0
 10
189.9325570009883
 20
266.1072814946044
 10
197.7658903343217
 20
274.1072814946044
  0
LWPOLYLINE
  5
10114B0
330
1F
100
AcDbEntity
  8
P
  6
DASHDOT
 62
     0
100
AcDbPolyline
 90
        2
 70
     0
 43
0.0
 10
193.0992236676551
 20
266.1072814946044
 10
197.7658903343217
 20
270.7739481612712
  0
LWPOLYLINE
  5
10114B1
330
1F
100
AcDbEntity
  8
P
  6
DASHDOT
 62
     0
100
AcDbPolyline
 90
        2
 70
     0
 43
0.0
 10
196.2658903343217
 20
266.1072814946044
 10
197.7658903343217
 20
267.4406148279378
  0
LWPOLYLINE
  5
10114B2
330
1F
100
AcDbEntity
  8
P
  6
DASHDOT
 62
     0
100
AcDbPolyline
 90
        2
 70
     0
 43
0.0
 10
205.0158903343217
 20
281.0239481612711
 10
212.7658903343217
 20
288.7739481612712
  0
LWPOLYLINE
  5
10114B3
330
1F
100
AcDbEntity
  8
P
  6
DASHDOT
 62
     0
100
AcDbPolyline
 90
        2
 70
     0
 43
0.0
 10
208.3492236676551
 20
281.2739481612712
 10
216.0992236676551
 20
289.0239481612712
  0
LWPOLYLINE
  5
10114B4
330
1F
100
AcDbEntity
  8
P
  6
DASHDOT
 62
     0
100
AcDbPolyline
 90
        2
 70
     0
 43
0.0
 10
211.6825570009884
 20
281.2739481612712
 10
219.5158903343217
 20
289.0239481612712
  0
LWPOLYLINE
  5
10114B5
330
1F
100
AcDbEntity
  8
P
  6
DASHDOT
 62
     0
100
AcDbPolyline
 90
        2
 70
     0
 43
0.0
 10
215.0992236676551
 20
281.6072814946044
 10
222.8492236676551
 20
289.3572814946044
  0
LWPOLYLINE
  5
10114B6
330
1F
100
AcDbEntity
  8
P
  6
DASHDOT
 62
     0
100
AcDbPolyline
 90
        2
 70
     0
 43
0.0
 10
218.4325570009884
 20
281.6072814946044
 10
226.1825570009884
 20
289.6072814946044
  0
LWPOLYLINE
  5
10114B7
330
1F
100
AcDbEntity
  8
P
  6
DASHDOT
 62
     0
100
AcDbPolyline
 90
        2
 70
     0
 43
0.0
 10
225.5992236676551
 20
285.6906148279378
 10
226.8492236676551
 20
286.8572814946044
  0
LWPOLYLINE
  5
10114B8
330
1F
100
AcDbEntity
  8
P
  6
DASHDOT
 62
     0
100
AcDbPolyline
 90
        2
 70
     0
 43
0.0
 10
227.4325570009884
 20
287.3572814946044
 10
229.5158903343217
 20
289.6072814946044
  0
LWPOLYLINE
  5
10114B9
330
1F
100
AcDbEntity
  8
P
  6
DASHDOT
 62
     0
100
AcDbPolyline
 90
        2
 70
     0
 43
0.0
 10
230.7658903343217
 20
287.6906148279378
 10
233.0158903343217
 20
289.8572814946044
  0
LWPOLYLINE
  5
10114BA
330
1F
100
AcDbEntity
  8
P
  6
DASHDOT
 62
     0
100
AcDbPolyline
 90
        2
 70
     0
 43
0.0
 10
234.0992236676551
 20
287.9406148279378
 10
236.2658903343217
 20
289.8572814946044
  0
LWPOLYLINE
  5
10114BB
330
1F
100
AcDbEntity
  8
P
  6
DASHDOT
 62
     0
100
AcDbPolyline
 90
        2
 70
     0
 43
0.0
 10
237.5158903343217
 20
287.9406148279378
 10
239.5992236676551
 20
290.1906148279378
  0
LWPOLYLINE
  5
10114BC
330
1F
100
AcDbEntity
  8
P
  6
DASHDOT
 62
     0
100
AcDbPolyline
 90
        2
 70
     0
 43
0.0
 10
240.8492236676551
 20
288.1906148279378
 10
243.0992236676551
 20
290.1906148279378
  0
LWPOLYLINE
  5
10114BD
330
1F
100
AcDbEntity
  8
P
  6
DASHDOT
 62
     0
100
AcDbPolyline
 90
        2
 70
     0
 43
0.0
 10
244.1825570009884
 20
288.1906148279378
 10
246.4325570009884
 20
290.4406148279378
  0
LWPOLYLINE
  5
10114BE
330
1F
100
AcDbEntity
  8
P
  6
DASHDOT
 62
     0
100
AcDbPolyline
 90
        2
 70
     0
 43
0.0
 10
247.6825570009884
 20
288.5239481612712
 10
249.7658903343217
 20
290.6906148279378
  0
LWPOLYLINE
  5
10114BF
330
1F
100
AcDbEntity
  8
P
  6
DASHDOT
 62
     0
100
AcDbPolyline
 90
        2
 70
     0
 43
0.0
 10
251.0158903343217
 20
288.5239481612712
 10
253.0158903343217
 20
290.6906148279378
  0
LWPOLYLINE
  5
10114C0
330
1F
100
AcDbEntity
  8
P
  6
DASHDOT
 62
     0
100
AcDbPolyline
 90
        2
 70
     0
 43
0.0
 10
254.2658903343217
 20
288.7739481612712
 10
255.8492236676551
 20
290.1906148279378
  0
LWPOLYLINE
  5
10114C1
330
1F
100
AcDbEntity
  8
P
  6
DASHDOT
 62
     0
100
AcDbPolyline
 90
        2
 70
     0
 43
0.0
 10
32.93255700098843
 20
288.7739481612712
 10
34.84922366765506
 20
290.6906148279378
  0
LWPOLYLINE
  5
10114C2
330
1F
100
AcDbEntity
  8
P
  6
DASHDOT
 62
     0
100
AcDbPolyline
 90
        2
 70
     0
 43
0.0
 10
35.93255700098842
 20
288.5239481612712
 10
37.84922366765505
 20
290.4406148279378
  0
LWPOLYLINE
  5
10114C3
330
1F
100
AcDbEntity
  8
P
  6
DASHDOT
 62
     0
100
AcDbPolyline
 90
        2
 70
     0
 43
0.0
 10
39.01589033432174
 20
288.5239481612712
 10
40.93255700098842
 20
290.4406148279378
  0
LWPOLYLINE
  5
10114C4
330
1F
100
AcDbEntity
  8
P
  6
DASHDOT
 62
     0
100
AcDbPolyline
 90
        2
 70
     0
 43
0.0
 10
42.01589033432173
 20
288.1906148279378
 10
44.01589033432173
 20
290.1906148279378
  0
LWPOLYLINE
  5
10114C5
330
1F
100
AcDbEntity
  8
P
  6
DASHDOT
 62
     0
100
AcDbPolyline
 90
        2
 70
     0
 43
0.0
 10
45.09922366765505
 20
288.1906148279378
 10
47.18255700098842
 20
290.1906148279378
  0
LWPOLYLINE
  5
10114C6
330
1F
100
AcDbEntity
  8
P
  6
DASHDOT
 62
     0
100
AcDbPolyline
 90
        2
 70
     0
 43
0.0
 10
48.09922366765505
 20
287.9406148279378
 10
50.18255700098842
 20
289.8572814946044
  0
LWPOLYLINE
  5
10114C7
330
1F
100
AcDbEntity
  8
P
  6
DASHDOT
 62
     0
100
AcDbPolyline
 90
        2
 70
     0
 43
0.0
 10
51.34922366765505
 20
287.6906148279378
 10
53.26589033432174
 20
289.8572814946044
  0
LWPOLYLINE
  5
10114C8
330
1F
100
AcDbEntity
  8
P
  6
DASHDOT
 62
     0
100
AcDbPolyline
 90
        2
 70
     0
 43
0.0
 10
54.34922366765505
 20
287.6906148279378
 10
56.26589033432174
 20
289.6072814946044
  0
LWPOLYLINE
  5
10114C9
330
1F
100
AcDbEntity
  8
P
  6
DASHDOT
 62
     0
100
AcDbPolyline
 90
        2
 70
     0
 43
0.0
 10
57.43255700098842
 20
287.3572814946044
 10
59.34922366765505
 20
289.6072814946044
  0
LWPOLYLINE
  5
10114CA
330
1F
100
AcDbEntity
  8
P
  6
DASHDOT
 62
     0
100
AcDbPolyline
 90
        2
 70
     0
 43
0.0
 10
59.09922366765505
 20
286.0239481612712
 10
62.43255700098842
 20
289.3572814946044
  0
LWPOLYLINE
  5
10114CB
330
1F
100
AcDbEntity
  8
P
  6
DASHDOT
 62
     0
100
AcDbPolyline
 90
        2
 70
     0
 43
0.0
 10
61.01589033432174
 20
284.9406148279378
 10
65.43255700098843
 20
289.3572814946044
  0
LWPOLYLINE
  5
10114CC
330
1F
100
AcDbEntity
  8
P
  6
DASHDOT
 62
     0
100
AcDbPolyline
 90
        2
 70
     0
 43
0.0
 10
62.93255700098843
 20
283.5239481612711
 10
68.59922366765506
 20
289.0239481612712
  0
LWPOLYLINE
  5
10114CD
330
1F
100
AcDbEntity
  8
P
  6
DASHDOT
 62
     0
100
AcDbPolyline
 90
        2
 70
     0
 43
0.0
 10
64.84922366765506
 20
282.1072814946044
 10
71.68255700098843
 20
289.0239481612712
  0
LWPOLYLINE
  5
10114CE
330
1F
100
AcDbEntity
  8
P
  6
DASHDOT
 62
     0
100
AcDbPolyline
 90
        2
 70
     0
 43
0.0
 10
67.68255700098842
 20
281.6072814946044
 10
74.68255700098842
 20
288.7739481612712
  0
LWPOLYLINE
  5
10114CF
330
1F
100
AcDbEntity
  8
P
  6
DASHDOT
 62
     0
100
AcDbPolyline
 90
        2
 70
     0
 43
0.0
 10
70.68255700098842
 20
281.6072814946044
 10
77.76589033432173
 20
288.7739481612712
  0
LWPOLYLINE
  5
10114D0
330
1F
100
AcDbEntity
  8
P
  6
DASHDOT
 62
     0
100
AcDbPolyline
 90
        2
 70
     0
 43
0.0
 10
73.76589033432174
 20
281.2739481612712
 10
80.84922366765505
 20
288.5239481612712
  0
LWPOLYLINE
  5
10114D1
330
1F
100
AcDbEntity
  8
P
  6
DASHDOT
 62
     0
100
AcDbPolyline
 90
        2
 70
     0
 43
0.0
 10
76.76589033432174
 20
281.2739481612712
 10
83.84922366765506
 20
288.1906148279378
  0
LWPOLYLINE
  5
10114D2
330
1F
100
AcDbEntity
  8
P
  6
DASHDOT
 62
     0
100
AcDbPolyline
 90
        2
 70
     0
 43
0.0
 10
79.84922366765506
 20
281.0239481612711
 10
87.01589033432174
 20
288.1906148279378
  0
LWPOLYLINE
  5
10114D3
330
1F
100
AcDbEntity
  8
P
  6
DASHDOT
 62
     0
100
AcDbPolyline
 90
        2
 70
     0
 43
0.0
 10
82.84922366765504
 20
281.0239481612711
 10
90.09922366765506
 20
287.9406148279378
  0
LWPOLYLINE
  5
10114D4
330
1F
100
AcDbEntity
  8
P
  6
DASHDOT
 62
     0
100
AcDbPolyline
 90
        2
 70
     0
 43
0.0
 10
85.51589033432174
 20
280.3572814946044
 10
93.09922366765505
 20
287.9406148279378
  0
LWPOLYLINE
  5
10114D5
330
1F
100
AcDbEntity
  8
P
  6
DASHDOT
 62
     0
100
AcDbPolyline
 90
        2
 70
     0
 43
0.0
 10
87.01589033432174
 20
278.5239481612712
 10
93.01589033432174
 20
284.6072814946044
  0
LWPOLYLINE
  5
10114D6
330
1F
100
AcDbEntity
  8
P
  6
DASHDOT
 62
     0
100
AcDbPolyline
 90
        2
 70
     0
 43
0.0
 10
87.43255700098842
 20
275.7739481612712
 10
92.43255700098842
 20
280.7739481612712
  0
LWPOLYLINE
  5
10114D7
330
1F
100
AcDbEntity
  8
P
  6
DASHDOT
 62
     0
100
AcDbPolyline
 90
        2
 70
     0
 43
0.0
 10
87.43255700098842
 20
272.6906148279378
 10
95.34922366765504
 20
280.4406148279378
  0
LWPOLYLINE
  5
10114D8
330
1F
100
AcDbEntity
  8
P
  6
DASHDOT
 62
     0
100
AcDbPolyline
 90
        2
 70
     0
 43
0.0
 10
87.43255700098842
 20
269.3572814946044
 10
95.93255700098842
 20
277.9406148279378
  0
LWPOLYLINE
  5
10114D9
330
1F
100
AcDbEntity
  8
P
  6
DASHDOT
 62
     0
100
AcDbPolyline
 90
        2
 70
     0
 43
0.0
 10
87.43255700098842
 20
266.3572814946044
 10
95.93255700098842
 20
274.6906148279378
  0
LWPOLYLINE
  5
10114DA
330
1F
100
AcDbEntity
  8
P
  6
DASHDOT
 62
     0
100
AcDbPolyline
 90
        2
 70
     0
 43
0.0
 10
90.51589033432174
 20
266.1072814946044
 10
95.93255700098842
 20
271.3572814946044
  0
LWPOLYLINE
  5
10114DB
330
1F
100
AcDbEntity
  8
P
  6
DASHDOT
 62
     0
100
AcDbPolyline
 90
        2
 70
     0
 43
0.0
 10
93.68255700098842
 20
266.1072814946044
 10
95.93255700098842
 20
268.2739481612712
  0
LWPOLYLINE
  5
10114DC
330
1F
100
AcDbEntity
  8
P
  6
DASHDOT
 62
     0
100
AcDbPolyline
 90
        2
 70
     0
 43
0.0
 10
29.76589033432174
 20
288.7739481612712
 10
31.76589033432174
 20
290.7739481612712
  0
LWPOLYLINE
  5
10114DD
330
1F
100
AcDbEntity
  8
P
  6
DASHDOT
 62
     0
100
AcDbPolyline
 90
        2
 70
     0
 43
0.0
 10
29.76589033432174
 20
288.7739481612712
 10
31.76589033432174
 20
290.7739481612712
  0
LWPOLYLINE
  5
10114DE
330
1F
100
AcDbEntity
  8
P
  6
DASHDOT
 62
     0
100
AcDbPolyline
 90
        2
 70
     0
 43
0.0
 10
29.76589033432174
 20
288.7739481612712
 10
29.76589033432174
 20
288.7739481612712
  0
LWPOLYLINE
  5
10114DF
330
1F
100
AcDbEntity
  8
P
  6
DASHDOT
 62
     0
100
AcDbPolyline
 90
        2
 70
     0
 43
0.0
 10
31.76589033432174
 20
290.7739481612712
 10
31.76589033432174
 20
290.7739481612712
  0
LWPOLYLINE
  5
10114E0
330
1F
100
AcDbEntity
  8
P
  6
Continuous
 62
     0
100
AcDbPolyline
 90
        2
 70
     0
 43
0.0
 10
225.5158903343217
 20
312.3572814946045
 10
225.5158903343217
 20
293.5239481612711
  0
MTEXT
  5
10114E1
330
1F
100
AcDbEntity
  8
Text
  6
Continuous
 62
     0
100
AcDbMText
 10
224.5158903343217
 20
317.1072814946045
 30
0.0
 40
3.25
 41
3.5
 46
0.0
 71
     4
 72
     5
  1
{\fHelveticaNeueLTPro|b0|i0|c1|p15;6}
 73
     2
 44
1.0
  0
LWPOLYLINE
  5
10114E2
330
1F
100
AcDbEntity
  8
P
  6
Continuous
 62
     0
100
AcDbPolyline
 90
        2
 70
     0
 43
0.0
 10
235.5158903343217
 20
312.3572814946045
 10
235.5158903343217
 20
262.3572814946044
  0
MTEXT
  5
10114E3
330
1F
100
AcDbEntity
  8
Text
  6
Continuous
 62
     0
100
AcDbMText
 10
234.5158903343218
 20
317.1072814946045
 30
0.0
 40
3.25
 41
3.5
 46
0.0
 71
     4
 72
     5
  1
{\fHelveticaNeueLTPro|b0|i0|c1|p15;4}
 73
     2
 44
1.0
  0
LWPOLYLINE
  5
10114E4
330
1F
100
AcDbEntity
  8
P
  6
Continuous
 62
     0
100
AcDbPolyline
 90
        2
 70
     0
 43
0.0
 10
155.0992236676551
 20
312.3572814946045
 10
155.0992236676551
 20
253.5239481612712
  0
MTEXT
  5
10114E5
330
1F
100
AcDbEntity
  8
Text
  6
Continuous
 62
     0
100
AcDbMText
 10
154.0992236676551
 20
317.1072814946045
 30
0.0
 40
3.25
 41
3.5
 46
0.0
 71
     4
 72
     5
  1
{\fHelveticaNeueLTPro|b0|i0|c1|p15;3}
 73
     2
 44
1.0
  0
LWPOLYLINE
  5
10114E6
330
1F
100
AcDbEntity
  8
P
  6
Continuous
 62
     0
100
AcDbPolyline
 90
        2
 70
     0
 43
0.0
 10
47.26589033432174
 20
312.3572814946045
 10
47.26589033432174
 20
186.3572814946045
  0
MTEXT
  5
10114E7
330
1F
100
AcDbEntity
  8
Text
  6
Continuous
 62
     0
100
AcDbMText
 10
46.18255700098842
 20
317.0239481612711
 30
0.0
 40
3.25
 41
3.5
 46
0.0
 71
     4
 72
     5
  1
{\fHelveticaNeueLTPro|b0|i0|c1|p15;1}
 73
     2
 44
1.0
  0
LWPOLYLINE
  5
10114E8
330
1F
100
AcDbEntity
  8
P
  6
Continuous
 62
     0
100
AcDbPolyline
 90
        2
 70
     0
 43
0.0
 10
59.09922366765505
 20
312.3572814946045
 10
59.09922366765505
 20
223.4406148279378
  0
MTEXT
  5
10114E9
330
1F
100
AcDbEntity
  8
Text
  6
Continuous
 62
     0
100
AcDbMText
 10
58.01589033432174
 20
317.0239481612711
 30
0.0
 40
3.25
 41
3.5
 46
0.0
 71
     4
 72
     5
  1
{\fHelveticaNeueLTPro|b0|i0|c1|p15;2}
 73
     2
 44
1.0
  0
HATCH
  5
10114EA
330
1F
100
AcDbEntity
  8
H
  6
Continuous
 62
     0
100
AcDbHatch
 10
0.0
 20
0.0
 30
0.0
210
0.0
220
0.0
230
1.0
  2
SOLID
 70
     1
 71
     0
 91
        1
 92
        1
 93
        4
 72
     1
 10
46.76589033432174
 20
185.8572814946045
 11
47.76589033432173
 21
185.8572814946045
 72
     1
 10
47.76589033432173
 20
185.8572814946045
 11
47.76589033432173
 21
186.7739481612711
 72
     1
 10
47.76589033432173
 20
186.7739481612711
 11
46.76589033432174
 21
186.7739481612711
 72
     1
 10
46.76589033432174
 20
186.7739481612711
 11
46.76589033432174
 21
185.8572814946045
 97
        0
 75
     0
 76
     1
 98
        0
450
        0
451
        0
460
0.0
461
0.0
452
        1
462
0.0
453
        0
470

  0
HATCH
  5
10114EB
330
1F
100
AcDbEntity
  8
H
  6
Continuous
 62
     0
100
AcDbHatch
 10
0.0
 20
0.0
 30
0.0
210
0.0
220
0.0
230
1.0
  2
SOLID
 70
     1
 71
     0
 91
        1
 92
        1
 93
        4
 72
     1
 10
58.59922366765506
 20
222.8572814946045
 11
59.51589033432171
 21
222.8572814946045
 72
     1
 10
59.51589033432174
 20
222.8572814946045
 11
59.51589033432174
 21
223.8572814946045
 72
     1
 10
59.51589033432174
 20
223.8572814946045
 11
58.59922366765507
 21
223.8572814946045
 72
     1
 10
58.59922366765506
 20
223.8572814946045
 11
58.59922366765506
 21
222.8572814946045
 97
        0
 75
     0
 76
     1
 98
        0
450
        0
451
        0
460
0.0
461
0.0
452
        1
462
0.0
453
        0
470

  0
HATCH
  5
10114EC
330
1F
100
AcDbEntity
  8
H
  6
Continuous
 62
     0
100
AcDbHatch
 10
0.0
 20
0.0
 30
0.0
210
0.0
220
0.0
230
1.0
  2
SOLID
 70
     1
 71
     0
 91
        1
 92
        1
 93
        4
 72
     1
 10
154.5992236676551
 20
253.0239481612712
 11
155.5992236676551
 21
253.0239481612712
 72
     1
 10
155.5992236676551
 20
253.0239481612712
 11
155.5992236676551
 21
254.0239481612712
 72
     1
 10
155.5992236676551
 20
254.0239481612712
 11
154.5992236676551
 21
254.0239481612712
 72
     1
 10
154.5992236676551
 20
254.0239481612712
 11
154.5992236676551
 21
253.0239481612712
 97
        0
 75
     0
 76
     1
 98
        0
450
        0
451
        0
460
0.0
461
0.0
452
        1
462
0.0
453
        0
470

  0
HATCH
  5
10114ED
330
1F
100
AcDbEntity
  8
H
  6
Continuous
 62
     0
100
AcDbHatch
 10
0.0
 20
0.0
 30
0.0
210
0.0
220
0.0
230
1.0
  2
SOLID
 70
     1
 71
     0
 91
        1
 92
        1
 93
        4
 72
     1
 10
235.0158903343217
 20
261.8572814946044
 11
236.0158903343217
 21
261.8572814946044
 72
     1
 10
236.0158903343217
 20
261.8572814946044
 11
236.0158903343217
 21
262.8572814946044
 72
     1
 10
236.0158903343217
 20
262.8572814946044
 11
235.0158903343217
 21
262.8572814946044
 72
     1
 10
235.0158903343217
 20
262.8572814946044
 11
235.0158903343217
 21
261.8572814946044
 97
        0
 75
     0
 76
     1
 98
        0
450
        0
451
        0
460
0.0
461
0.0
452
        1
462
0.0
453
        0
470

  0
HATCH
  5
10114EE
330
1F
100
AcDbEntity
  8
H
  6
Continuous
 62
     0
100
AcDbHatch
 10
0.0
 20
0.0
 30
0.0
210
0.0
220
0.0
230
1.0
  2
SOLID
 70
     1
 71
     0
 91
        1
 92
        1
 93
        4
 72
     1
 10
225.1825570009884
 20
293.0239481612712
 11
226.0992236676551
 21
293.0239481612712
 72
     1
 10
226.0992236676551
 20
293.0239481612712
 11
226.0992236676551
 21
294.0239481612712
 72
     1
 10
226.0992236676551
 20
294.0239481612712
 11
225.1825570009884
 21
294.0239481612712
 72
     1
 10
225.1825570009884
 20
294.0239481612712
 11
225.1825570009884
 21
293.0239481612712
 97
        0
 75
     0
 76
     1
 98
        0
450
        0
451
        0
460
0.0
461
0.0
452
        1
462
0.0
453
        0
470

  0
HATCH
  5
10114EF
330
1F
100
AcDbEntity
  8
H
  6
Continuous
 62
     0
100
AcDbHatch
 10
0.0
 20
0.0
 30
0.0
210
0.0
220
0.0
230
1.0
  2
SOLID
 70
     1
 71
     0
 91
        1
 92
        1
 93
        4
 72
     1
 10
215.0992236676551
 20
283.2739481612712
 11
216.0992236676551
 21
283.2739481612712
 72
     1
 10
216.0992236676551
 20
283.2739481612712
 11
216.0992236676551
 21
284.2739481612712
 72
     1
 10
216.0992236676551
 20
284.2739481612712
 11
215.0992236676551
 21
284.2739481612712
 72
     1
 10
215.0992236676551
 20
284.2739481612712
 11
215.0992236676551
 21
283.2739481612712
 97
        0
 75
     0
 76
     1
 98
        0
450
        0
451
        0
460
0.0
461
0.0
452
        1
462
0.0
453
        0
470

  0
LWPOLYLINE
  5
10114F0
330
1F
100
AcDbEntity
  8
P
  6
Continuous
 62
     0
100
AcDbPolyline
 90
        2
 70
     0
 43
0.0
 10
243.5992236676551
 20
222.7739481612712
 10
247.6825570009884
 20
222.0239481612712
  0
LWPOLYLINE
  5
10114F1
330
1F
100
AcDbEntity
  8
P
  6
Continuous
 62
     0
100
AcDbPolyline
 90
        2
 70
     0
 43
0.0
 10
243.6825570009883
 20
221.2739481612711
 10
243.5992236676551
 20
222.7739481612712
  0
LWPOLYLINE
  5
10114F2
330
1F
100
AcDbEntity
  8
P
  6
Continuous
 62
     0
100
AcDbPolyline
 90
        2
 70
     0
 43
0.0
 10
243.6825570009883
 20
221.2739481612711
 10
247.6825570009884
 20
222.0239481612712
  0
LWPOLYLINE
  5
10114F3
330
1F
100
AcDbEntity
  8
P
  6
Continuous
 62
     0
100
AcDbPolyline
 90
        2
 70
     0
 43
0.0
 10
243.6825570009883
 20
222.0239481612712
 10
232.5158903343218
 20
221.9406148279378
  0
LWPOLYLINE
  5
10114F4
330
1F
100
AcDbEntity
  8
P
  6
Continuous
 62
     0
100
AcDbPolyline
 90
        2
 70
     0
 43
0.0
 10
88.76589033432173
 20
299.7739481612711
 10
92.34922366765506
 20
298.8572814946045
  0
LWPOLYLINE
  5
10114F5
330
1F
100
AcDbEntity
  8
P
  6
Continuous
 62
     0
100
AcDbPolyline
 90
        2
 70
     0
 43
0.0
 10
88.68255700098842
 20
298.4406148279378
 10
88.76589033432173
 20
299.7739481612711
  0
LWPOLYLINE
  5
10114F6
330
1F
100
AcDbEntity
  8
P
  6
Continuous
 62
     0
100
AcDbPolyline
 90
        2
 70
     0
 43
0.0
 10
88.68255700098842
 20
298.4406148279378
 10
92.34922366765506
 20
298.8572814946045
  0
LWPOLYLINE
  5
10114F7
330
1F
100
AcDbEntity
  8
P
  6
Continuous
 62
     0
100
AcDbPolyline
 90
        2
 70
     0
 43
0.0
 10
88.68255700098842
 20
299.1072814946045
 10
78.68255700098842
 20
299.8572814946045
  0
HATCH
  5
10114F8
330
1F
100
AcDbEntity
  8
H
  6
Continuous
 62
     0
100
AcDbHatch
 10
0.0
 20
0.0
 30
0.0
210
0.0
220
0.0
230
1.0
  2
SOLID
 70
     1
 71
     0
 91
        1
 92
        1
 93
        3
 72
     1
 10
88.76589033432173
 20
299.7739481612711
 11
92.34922366765507
 21
298.8572814946045
 72
     1
 10
92.34922366765506
 20
298.8572814946045
 11
88.6825570009884
 21
298.4406148279378
 72
     1
 10
88.68255700098842
 20
298.4406148279378
 11
88.76589033432175
 21
299.7739481612711
 97
        0
 75
     0
 76
     1
 98
        0
450
        0
451
        0
460
0.0
461
0.0
452
        1
462
0.0
453
        0
470

  0
LWPOLYLINE
  5
10114F9
330
1F
100
AcDbEntity
  8
P
  6
Continuous
 62
     0
100
AcDbPolyline
 90
        2
 70
     0
 43
0.0
 10
200.0992236676551
 20
299.7739481612711
 10
196.4325570009883
 20
298.8572814946045
  0
LWPOLYLINE
  5
10114FA
330
1F
100
AcDbEntity
  8
P
  6
Continuous
 62
     0
100
AcDbPolyline
 90
        2
 70
     0
 43
0.0
 10
200.1825570009884
 20
298.4406148279378
 10
200.0992236676551
 20
299.7739481612711
  0
LWPOLYLINE
  5
10114FB
330
1F
100
AcDbEntity
  8
P
  6
Continuous
 62
     0
100
AcDbPolyline
 90
        2
 70
     0
 43
0.0
 10
200.1825570009884
 20
298.4406148279378
 10
196.4325570009883
 20
298.8572814946045
  0
LWPOLYLINE
  5
10114FC
330
1F
100
AcDbEntity
  8
P
  6
Continuous
 62
     0
100
AcDbPolyline
 90
        2
 70
     0
 43
0.0
 10
200.0992236676551
 20
299.1072814946045
 10
210.1825570009884
 20
299.8572814946045
  0
HATCH
  5
10114FD
330
1F
100
AcDbEntity
  8
H
  6
Continuous
 62
     0
100
AcDbHatch
 10
0.0
 20
0.0
 30
0.0
210
0.0
220
0.0
230
1.0
  2
SOLID
 70
     1
 71
     0
 91
        1
 92
        1
 93
        3
 72
     1
 10
200.0158903343217
 20
299.7739481612711
 11
196.5158903343217
 21
298.8572814946045
 72
     1
 10
196.5158903343217
 20
298.8572814946045
 11
200.0992236676551
 21
298.4406148279378
 72
     1
 10
200.0992236676551
 20
298.4406148279378
 11
200.0158903343218
 21
299.7739481612711
 97
        0
 75
     0
 76
     1
 98
        0
450
        0
451
        0
460
0.0
461
0.0
452
        1
462
0.0
453
        0
470

  0
MTEXT
  5
10114FE
330
1F
100
AcDbEntity
  8
Text
  6
Continuous
 62
     0
100
AcDbMText
 10
75.68255700098842
 20
307.0239481612712
 30
0.0
 40
3.0
 41
45.49999999999999
 46
0.0
 71
     4
 72
     5
  1
{\fHelveticaNeueLTPro|b0|i0|c0|p15;Gefälle \fArial|b0|i0|c0|p34;≥ \fHelveticaNeueLTPro|b0|i0|c0|p15;1,5%}
 73
     2
 44
1.0
  0
MTEXT
  5
10114FF
330
1F
100
AcDbEntity
  8
Text
  6
Continuous
 62
     0
100
AcDbMText
 10
191.0158903343217
 20
307.0239481612712
 30
0.0
 40
3.0
 41
45.49999999999999
 46
0.0
 71
     4
 72
     5
  1
{\fHelveticaNeueLTPro|b0|i0|c0|p15;Gefälle \fArial|b0|i0|c0|p34;≥ \fHelveticaNeueLTPro|b0|i0|c0|p15;1,5%}
 73
     2
 44
1.0
  0
LWPOLYLINE
  5
1011500
330
1F
100
AcDbEntity
  8
P
  6
Continuous
 62
     0
100
AcDbPolyline
 90
       41
 70
     0
 43
0.0
 10
243.5158903343217
 20
201.8572814946045
 10
243.6825570009883
 20
201.5239481612712
 10
243.8492236676551
 20
201.2739481612712
 10
244.0158903343217
 20
200.9406148279378
 10
244.1825570009884
 20
200.6072814946045
 10
244.4325570009884
 20
200.3572814946045
 10
244.5992236676551
 20
200.0239481612712
 10
244.8492236676551
 20
199.7739481612711
 10
245.0158903343218
 20
199.5239481612711
 10
245.2658903343218
 20
199.1906148279378
 10
245.5158903343217
 20
198.9406148279378
 10
245.7658903343217
 20
198.6906148279378
 10
246.0158903343217
 20
198.4406148279378
 10
246.2658903343217
 20
198.1906148279378
 10
246.5158903343217
 20
197.9406148279378
 10
246.7658903343217
 20
197.6906148279378
 10
247.0992236676551
 20
197.5239481612711
 10
247.3492236676551
 20
197.2739481612711
 10
247.5992236676551
 20
197.0239481612711
 10
247.9325570009883
 20
196.8572814946045
 10
248.2658903343217
 20
196.6072814946045
 10
248.5158903343217
 20
196.4406148279378
 10
248.8492236676551
 20
196.2739481612711
 10
249.1825570009884
 20
196.1072814946044
 10
249.5158903343217
 20
195.9406148279378
 10
249.8492236676551
 20
195.7739481612711
 10
250.1825570009884
 20
195.6072814946045
 10
250.5158903343217
 20
195.4406148279378
 10
250.8492236676551
 20
195.3572814946044
 10
251.1825570009884
 20
195.1906148279378
 10
251.5158903343218
 20
195.1072814946044
 10
251.9325570009883
 20
194.9406148279378
 10
252.2658903343217
 20
194.8572814946045
 10
252.6825570009884
 20
194.7739481612711
 10
253.1825570009884
 20
194.6906148279378
 10
253.5992236676551
 20
194.6072814946045
 10
254.0158903343217
 20
194.5239481612711
 10
254.4325570009884
 20
194.4406148279378
 10
254.8492236676551
 20
194.4406148279378
 10
255.2658903343218
 20
194.4406148279378
 10
255.6825570009884
 20
194.4406148279378
  0
LWPOLYLINE
  5
1011501
330
1F
100
AcDbEntity
  8
P
  6
Continuous
 62
     0
100
AcDbPolyline
 90
       40
 70
     0
 43
0.0
 10
254.6825570009884
 20
241.6072814946045
 10
254.5992236676551
 20
242.1072814946045
 10
254.5158903343217
 20
242.5239481612712
 10
254.3492236676551
 20
243.0239481612712
 10
254.1825570009883
 20
243.4406148279378
 10
254.0158903343217
 20
243.9406148279378
 10
253.8492236676551
 20
244.3572814946045
 10
253.6825570009884
 20
244.7739481612712
 10
253.4325570009884
 20
245.1906148279378
 10
253.1825570009884
 20
245.6072814946045
 10
253.0158903343217
 20
246.0239481612711
 10
252.7658903343217
 20
246.4406148279378
 10
252.4325570009884
 20
246.8572814946045
 10
252.1825570009884
 20
247.2739481612712
 10
251.9325570009883
 20
247.6072814946045
 10
251.5992236676551
 20
248.0239481612712
 10
251.2658903343218
 20
248.3572814946045
 10
250.9325570009884
 20
248.6906148279378
 10
250.5992236676551
 20
249.0239481612712
 10
250.2658903343217
 20
249.3572814946045
 10
249.8492236676551
 20
249.6906148279378
 10
249.5158903343217
 20
249.9406148279378
 10
249.0992236676551
 20
250.2739481612711
 10
248.6825570009884
 20
250.5239481612711
 10
248.2658903343217
 20
250.7739481612712
 10
247.8492236676551
 20
251.0239481612712
 10
247.4325570009884
 20
251.2739481612712
 10
247.0158903343218
 20
251.4406148279378
 10
246.7658903343217
 20
251.6072814946045
 10
246.5158903343217
 20
251.6906148279378
 10
246.2658903343217
 20
251.7739481612712
 10
246.0158903343217
 20
251.8572814946045
 10
245.8492236676551
 20
251.9406148279378
 10
245.5992236676551
 20
252.0239481612712
 10
245.3492236676551
 20
252.1072814946045
 10
245.0992236676551
 20
252.1906148279378
 10
244.8492236676551
 20
252.2739481612711
 10
244.5992236676551
 20
252.2739481612711
 10
244.1825570009884
 20
252.4406148279378
 10
243.6825570009883
 20
252.5239481612711
  0
LWPOLYLINE
  5
1011502
330
1F
100
AcDbEntity
  8
P
  6
Continuous
 62
     0
100
AcDbPolyline
 90
       97
 70
     0
 43
0.0
 10
214.3492236676551
 20
201.8572814946045
 10
214.5158903343217
 20
201.5239481612712
 10
214.7658903343217
 20
201.2739481612712
 10
214.9325570009884
 20
200.9406148279378
 10
215.0992236676551
 20
200.6072814946045
 10
215.2658903343217
 20
200.3572814946045
 10
215.5158903343217
 20
200.0239481612712
 10
215.6825570009884
 20
199.7739481612711
 10
215.9325570009884
 20
199.5239481612711
 10
216.1825570009884
 20
199.1906148279378
 10
216.4325570009884
 20
198.9406148279378
 10
216.6825570009883
 20
198.6906148279378
 10
216.9325570009884
 20
198.4406148279378
 10
217.1825570009884
 20
198.1906148279378
 10
217.4325570009884
 20
197.9406148279378
 10
217.6825570009884
 20
197.6906148279378
 10
217.9325570009884
 20
197.5239481612711
 10
218.2658903343217
 20
197.2739481612711
 10
218.5158903343217
 20
197.0239481612711
 10
218.8492236676551
 20
196.8572814946045
 10
219.0992236676551
 20
196.6072814946045
 10
219.4325570009884
 20
196.4406148279378
 10
219.7658903343217
 20
196.2739481612711
 10
220.0992236676551
 20
196.1072814946044
 10
220.3492236676551
 20
195.9406148279378
 10
220.6825570009883
 20
195.7739481612711
 10
221.0158903343217
 20
195.6072814946045
 10
221.4325570009884
 20
195.4406148279378
 10
221.7658903343217
 20
195.3572814946044
 10
222.0992236676551
 20
195.1906148279378
 10
222.4325570009884
 20
195.1072814946044
 10
222.8492236676551
 20
194.9406148279378
 10
223.1825570009884
 20
194.8572814946045
 10
223.5158903343217
 20
194.7739481612711
 10
223.7658903343217
 20
194.6906148279378
 10
224.0992236676551
 20
194.6906148279378
 10
224.3492236676551
 20
194.6072814946045
 10
224.6825570009884
 20
194.5239481612711
 10
224.9325570009883
 20
194.5239481612711
 10
225.2658903343217
 20
194.5239481612711
 10
225.5992236676551
 20
194.4406148279378
 10
225.8492236676551
 20
194.4406148279378
 10
226.1825570009884
 20
194.4406148279378
 10
226.4325570009884
 20
194.4406148279378
 10
226.7658903343217
 20
194.4406148279378
 10
227.0158903343217
 20
194.4406148279378
 10
227.3492236676551
 20
194.4406148279378
 10
227.5992236676551
 20
194.4406148279378
 10
227.9325570009884
 20
194.4406148279378
 10
228.1825570009884
 20
194.5239481612711
 10
228.5158903343218
 20
194.5239481612711
 10
228.7658903343217
 20
194.6072814946045
 10
229.0992236676551
 20
194.6072814946045
 10
229.3492236676551
 20
194.6906148279378
 10
229.5992236676551
 20
194.7739481612711
 10
229.9325570009884
 20
194.7739481612711
 10
230.1825570009884
 20
194.8572814946045
 10
230.4325570009884
 20
194.9406148279378
 10
230.7658903343217
 20
195.0239481612712
 10
231.0158903343217
 20
195.1072814946044
 10
231.2658903343217
 20
195.1906148279378
 10
231.5158903343217
 20
195.2739481612711
 10
231.8492236676551
 20
195.4406148279378
 10
232.0992236676551
 20
195.5239481612711
 10
232.3492236676551
 20
195.6072814946045
 10
232.5992236676551
 20
195.7739481612711
 10
232.8492236676551
 20
195.8572814946045
 10
233.0992236676551
 20
196.0239481612711
 10
233.3492236676551
 20
196.1906148279378
 10
233.5992236676551
 20
196.2739481612711
 10
233.8492236676551
 20
196.4406148279378
 10
234.0992236676551
 20
196.6072814946045
 10
234.3492236676551
 20
196.7739481612711
 10
234.5992236676551
 20
196.9406148279378
 10
234.7658903343218
 20
197.1072814946045
 10
235.0158903343217
 20
197.2739481612711
 10
235.2658903343217
 20
197.4406148279378
 10
235.5158903343217
 20
197.6072814946045
 10
235.6825570009884
 20
197.7739481612711
 10
235.9325570009884
 20
197.9406148279378
 10
236.0992236676551
 20
198.1906148279378
 10
236.3492236676551
 20
198.3572814946045
 10
236.5158903343218
 20
198.6072814946045
 10
236.7658903343218
 20
198.7739481612711
 10
236.9325570009884
 20
199.0239481612711
 10
237.0992236676551
 20
199.1906148279378
 10
237.2658903343217
 20
199.4406148279378
 10
237.5158903343217
 20
199.6906148279378
 10
237.6825570009884
 20
199.8572814946045
 10
237.8492236676551
 20
200.1072814946045
 10
238.0158903343217
 20
200.3572814946045
 10
238.1825570009884
 20
200.6072814946045
 10
238.3492236676551
 20
200.8572814946045
 10
238.5158903343217
 20
201.1072814946045
 10
238.5992236676551
 20
201.3572814946045
 10
238.7658903343218
 20
201.6072814946045
 10
238.9325570009884
 20
201.8572814946045
  0
LWPOLYLINE
  5
1011503
330
1F
100
AcDbEntity
  8
P
  6
Continuous
 62
     0
100
AcDbPolyline
 90
       17
 70
     0
 43
0.0
 10
58.26589033432174
 20
239.7739481612711
 10
58.26589033432174
 20
239.5239481612712
 10
58.18255700098842
 20
239.1906148279378
 10
58.18255700098842
 20
238.9406148279378
 10
58.18255700098842
 20
238.6072814946045
 10
58.26589033432174
 20
238.3572814946045
 10
58.26589033432174
 20
238.0239481612711
 10
58.26589033432174
 20
237.7739481612711
 10
58.26589033432174
 20
237.4406148279378
 10
58.34922366765505
 20
237.1906148279378
 10
58.34922366765505
 20
236.9406148279378
 10
58.34922366765505
 20
236.6906148279378
 10
58.43255700098842
 20
236.4406148279378
 10
58.51589033432174
 20
236.1906148279378
 10
58.51589033432174
 20
235.9406148279378
 10
58.59922366765506
 20
235.6906148279378
 10
58.68255700098842
 20
235.4406148279378
  0
LWPOLYLINE
  5
1011504
330
1F
100
AcDbEntity
  8
P
  6
Continuous
 62
     0
100
AcDbPolyline
 90
      145
 70
     0
 43
0.0
 10
44.18255700098842
 20
211.6906148279378
 10
44.09922366765505
 20
211.3572814946045
 10
44.01589033432173
 20
211.0239481612711
 10
43.93255700098842
 20
210.6906148279378
 10
43.93255700098842
 20
210.3572814946045
 10
43.84922366765505
 20
210.0239481612712
 10
43.76589033432174
 20
209.6072814946045
 10
43.76589033432174
 20
209.2739481612712
 10
43.76589033432174
 20
208.9406148279378
 10
43.76589033432174
 20
208.6072814946045
 10
43.76589033432174
 20
208.2739481612712
 10
43.76589033432174
 20
207.9406148279378
 10
43.76589033432174
 20
207.6072814946045
 10
43.76589033432174
 20
207.2739481612712
 10
43.76589033432174
 20
206.9406148279378
 10
43.84922366765505
 20
206.6072814946045
 10
43.84922366765505
 20
206.2739481612712
 10
43.93255700098842
 20
205.9406148279378
 10
44.01589033432173
 20
205.6072814946045
 10
44.09922366765505
 20
205.2739481612712
 10
44.09922366765505
 20
204.9406148279378
 10
44.18255700098842
 20
204.6072814946045
 10
44.34922366765505
 20
204.2739481612712
 10
44.43255700098842
 20
203.9406148279378
 10
44.51589033432173
 20
203.6072814946045
 10
44.59922366765505
 20
203.3572814946045
 10
44.76589033432174
 20
203.0239481612712
 10
44.84922366765505
 20
202.6906148279378
 10
45.01589033432174
 20
202.4406148279378
 10
45.18255700098842
 20
202.1072814946045
 10
45.34922366765505
 20
201.8572814946045
 10
45.51589033432174
 20
201.5239481612712
 10
45.68255700098842
 20
201.2739481612712
 10
45.84922366765505
 20
200.9406148279378
 10
46.01589033432174
 20
200.6906148279378
 10
46.18255700098842
 20
200.3572814946045
 10
46.34922366765505
 20
200.1072814946045
 10
46.59922366765505
 20
199.8572814946045
 10
46.76589033432174
 20
199.6072814946045
 10
47.01589033432173
 20
199.3572814946045
 10
47.18255700098842
 20
199.1072814946044
 10
47.43255700098842
 20
198.8572814946045
 10
47.68255700098842
 20
198.6072814946045
 10
47.84922366765505
 20
198.3572814946045
 10
48.09922366765505
 20
198.1072814946045
 10
48.34922366765505
 20
197.9406148279378
 10
48.59922366765506
 20
197.6906148279378
 10
48.84922366765505
 20
197.4406148279378
 10
49.18255700098843
 20
197.2739481612711
 10
49.43255700098842
 20
197.0239481612711
 10
49.68255700098842
 20
196.8572814946045
 10
50.01589033432174
 20
196.6906148279378
 10
50.26589033432173
 20
196.5239481612711
 10
50.59922366765505
 20
196.3572814946044
 10
50.84922366765505
 20
196.1906148279378
 10
51.18255700098842
 20
196.0239481612711
 10
51.43255700098842
 20
195.8572814946045
 10
51.76589033432174
 20
195.6906148279378
 10
52.09922366765505
 20
195.5239481612711
 10
52.43255700098842
 20
195.4406148279378
 10
52.76589033432173
 20
195.2739481612711
 10
53.09922366765505
 20
195.1906148279378
 10
53.43255700098842
 20
195.0239481612712
 10
53.76589033432174
 20
194.9406148279378
 10
54.09922366765505
 20
194.8572814946045
 10
54.43255700098842
 20
194.7739481612711
 10
54.76589033432174
 20
194.6906148279378
 10
55.09922366765505
 20
194.6072814946045
 10
55.51589033432174
 20
194.6072814946045
 10
55.84922366765505
 20
194.5239481612711
 10
56.18255700098842
 20
194.5239481612711
 10
56.51589033432173
 20
194.4406148279378
 10
56.84922366765505
 20
194.4406148279378
 10
57.18255700098842
 20
194.4406148279378
 10
57.51589033432174
 20
194.4406148279378
 10
57.84922366765505
 20
194.4406148279378
 10
58.26589033432174
 20
194.4406148279378
 10
58.59922366765506
 20
194.4406148279378
 10
58.93255700098842
 20
194.4406148279378
 10
59.26589033432174
 20
194.5239481612711
 10
59.59922366765505
 20
194.5239481612711
 10
59.93255700098842
 20
194.6072814946045
 10
60.26589033432173
 20
194.6906148279378
 10
60.59922366765505
 20
194.7739481612711
 10
60.84922366765505
 20
194.8572814946045
 10
61.18255700098842
 20
194.9406148279378
 10
61.51589033432173
 20
195.0239481612712
 10
61.84922366765505
 20
195.1072814946044
 10
62.18255700098842
 20
195.1906148279378
 10
62.51589033432174
 20
195.3572814946044
 10
62.76589033432173
 20
195.4406148279378
 10
63.09922366765505
 20
195.6072814946045
 10
63.43255700098842
 20
195.6906148279378
 10
63.68255700098842
 20
195.8572814946045
 10
64.01589033432173
 20
196.0239481612711
 10
64.26589033432174
 20
196.1906148279378
 10
64.59922366765505
 20
196.3572814946044
 10
64.84922366765506
 20
196.5239481612711
 10
65.09922366765505
 20
196.6906148279378
 10
65.43255700098843
 20
196.8572814946045
 10
65.68255700098842
 20
197.0239481612711
 10
65.93255700098842
 20
197.2739481612711
 10
66.18255700098842
 20
197.4406148279378
 10
66.43255700098842
 20
197.6906148279378
 10
66.68255700098843
 20
197.8572814946044
 10
66.93255700098842
 20
198.1072814946045
 10
67.18255700098842
 20
198.3572814946045
 10
67.43255700098842
 20
198.6072814946045
 10
67.68255700098842
 20
198.7739481612711
 10
67.93255700098843
 20
199.0239481612711
 10
68.09922366765505
 20
199.2739481612711
 10
68.34922366765505
 20
199.6072814946045
 10
68.51589033432174
 20
199.8572814946045
 10
68.76589033432174
 20
200.1072814946045
 10
68.93255700098842
 20
200.3572814946045
 10
69.09922366765505
 20
200.6906148279378
 10
69.34922366765505
 20
200.9406148279378
 10
69.51589033432174
 20
201.2739481612712
 10
69.68255700098842
 20
201.5239481612712
 10
69.84922366765506
 20
201.8572814946045
 10
69.93255700098842
 20
202.1072814946045
 10
70.09922366765505
 20
202.4406148279378
 10
70.26589033432173
 20
202.7739481612712
 10
70.43255700098843
 20
203.1072814946045
 10
70.51589033432174
 20
203.4406148279378
 10
70.59922366765505
 20
203.7739481612712
 10
70.76589033432174
 20
204.1072814946045
 10
70.84922366765505
 20
204.4406148279378
 10
70.93255700098842
 20
204.7739481612711
 10
71.01589033432174
 20
205.1072814946045
 10
71.09922366765506
 20
205.5239481612712
 10
71.18255700098842
 20
205.9406148279378
 10
71.26589033432174
 20
206.3572814946045
 10
71.34922366765505
 20
206.8572814946045
 10
71.34922366765505
 20
207.2739481612712
 10
71.34922366765505
 20
207.7739481612712
 10
71.34922366765505
 20
208.2739481612712
 10
71.34922366765505
 20
208.6906148279378
 10
71.34922366765505
 20
209.1906148279378
 10
71.34922366765505
 20
209.6906148279378
 10
71.26589033432174
 20
210.1072814946045
 10
71.18255700098842
 20
210.5239481612712
 10
71.09922366765506
 20
210.9406148279378
 10
71.01589033432174
 20
211.3572814946045
 10
70.93255700098842
 20
211.6906148279378
  0
LWPOLYLINE
  5
1011505
330
1F
100
AcDbEntity
  8
P
  6
Continuous
 62
     0
100
AcDbPolyline
 90
       81
 70
     0
 43
0.0
 10
41.59922366765505
 20
252.6906148279378
 10
41.26589033432174
 20
252.6906148279378
 10
41.01589033432174
 20
252.6072814946045
 10
40.76589033432173
 20
252.6072814946045
 10
40.51589033432174
 20
252.5239481612711
 10
40.26589033432173
 20
252.5239481612711
 10
40.01589033432174
 20
252.4406148279378
 10
39.76589033432174
 20
252.3572814946045
 10
39.51589033432174
 20
252.3572814946045
 10
39.26589033432174
 20
252.2739481612711
 10
39.01589033432174
 20
252.1906148279378
 10
38.76589033432174
 20
252.1072814946045
 10
38.51589033432174
 20
252.0239481612712
 10
38.26589033432174
 20
251.9406148279378
 10
38.01589033432174
 20
251.8572814946045
 10
37.76589033432174
 20
251.7739481612712
 10
37.51589033432174
 20
251.6906148279378
 10
37.26589033432174
 20
251.5239481612712
 10
37.09922366765506
 20
251.4406148279378
 10
36.84922366765505
 20
251.3572814946045
 10
36.59922366765505
 20
251.1906148279378
 10
36.34922366765505
 20
251.1072814946045
 10
36.18255700098842
 20
250.9406148279378
 10
35.93255700098842
 20
250.8572814946045
 10
35.68255700098843
 20
250.6906148279378
 10
35.51589033432174
 20
250.6072814946045
 10
35.26589033432174
 20
250.4406148279378
 10
35.01589033432174
 20
250.2739481612711
 10
34.84922366765506
 20
250.1072814946045
 10
34.59922366765506
 20
250.0239481612712
 10
34.43255700098843
 20
249.8572814946045
 10
34.18255700098843
 20
249.6906148279378
 10
34.01589033432174
 20
249.5239481612712
 10
33.84922366765505
 20
249.3572814946045
 10
33.59922366765506
 20
249.1906148279378
 10
33.43255700098842
 20
249.0239481612712
 10
33.26589033432174
 20
248.7739481612712
 10
33.09922366765505
 20
248.6072814946045
 10
32.84922366765505
 20
248.4406148279378
 10
32.68255700098843
 20
248.2739481612711
 10
32.51589033432174
 20
248.0239481612712
 10
32.34922366765506
 20
247.8572814946045
 10
32.18255700098842
 20
247.6072814946045
 10
32.01589033432174
 20
247.4406148279378
 10
31.84922366765505
 20
247.2739481612712
 10
31.68255700098843
 20
247.0239481612712
 10
31.59922366765505
 20
246.7739481612712
 10
31.43255700098843
 20
246.6072814946045
 10
31.26589033432174
 20
246.3572814946045
 10
31.09922366765506
 20
246.1072814946045
 10
31.01589033432174
 20
245.9406148279378
 10
30.84922366765506
 20
245.6906148279378
 10
30.76589033432174
 20
245.4406148279378
 10
30.59922366765505
 20
245.1906148279378
 10
30.51589033432174
 20
244.9406148279378
 10
30.34922366765505
 20
244.6906148279378
 10
30.26589033432174
 20
244.4406148279378
 10
30.18255700098843
 20
244.1906148279378
 10
30.09922366765505
 20
243.9406148279378
 10
29.93255700098842
 20
243.6906148279378
 10
29.84922366765506
 20
243.4406148279378
 10
29.76589033432174
 20
243.1906148279378
 10
29.68255700098842
 20
242.9406148279378
 10
29.59922366765506
 20
242.6906148279378
 10
29.59922366765506
 20
242.4406148279378
 10
29.43255700098843
 20
242.0239481612711
 10
29.34922366765505
 20
241.6906148279378
 10
29.26589033432174
 20
241.2739481612712
 10
29.26589033432174
 20
240.7739481612712
 10
29.18255700098843
 20
240.3572814946045
 10
29.18255700098843
 20
239.8572814946045
 10
29.09922366765505
 20
239.4406148279378
 10
29.09922366765505
 20
238.9406148279378
 10
29.09922366765505
 20
238.4406148279378
 10
29.18255700098843
 20
238.0239481612711
 10
29.18255700098843
 20
237.5239481612712
 10
29.26589033432174
 20
237.1072814946045
 10
29.26589033432174
 20
236.6072814946045
 10
29.34922366765505
 20
236.1906148279378
 10
29.43255700098843
 20
235.8572814946045
 10
29.59922366765506
 20
235.4406148279378
  0
LWPOLYLINE
  5
1011506
330
1F
100
AcDbEntity
  8
P
  6
Continuous
 62
     0
100
AcDbPolyline
 90
       17
 70
     0
 43
0.0
 10
56.34922366765505
 20
235.4406148279378
 10
56.43255700098842
 20
235.7739481612711
 10
56.43255700098842
 20
236.0239481612712
 10
56.51589033432173
 20
236.2739481612712
 10
56.59922366765505
 20
236.5239481612712
 10
56.59922366765505
 20
236.8572814946045
 10
56.68255700098843
 20
237.1072814946045
 10
56.68255700098843
 20
237.3572814946045
 10
56.68255700098843
 20
237.6072814946045
 10
56.76589033432174
 20
237.9406148279378
 10
56.76589033432174
 20
238.1906148279378
 10
56.76589033432174
 20
238.4406148279378
 10
56.76589033432174
 20
238.6906148279378
 10
56.76589033432174
 20
238.9406148279378
 10
56.76589033432174
 20
239.2739481612712
 10
56.76589033432174
 20
239.5239481612712
 10
56.76589033432174
 20
239.7739481612711
  0
LWPOLYLINE
  5
1011507
330
1F
100
AcDbEntity
  8
P
  6
Continuous
 62
     0
100
AcDbPolyline
 90
        2
 70
     0
 43
0.0
 10
44.18255700098842
 20
211.6906148279378
 10
56.34922366765505
 20
235.4406148279378
  0
LWPOLYLINE
  5
1011508
330
1F
100
AcDbEntity
  8
P
  6
Continuous
 62
     0
100
AcDbPolyline
 90
        2
 70
     0
 43
0.0
 10
58.68255700098842
 20
235.4406148279378
 10
70.93255700098842
 20
211.6906148279378
  0
LWPOLYLINE
  5
1011509
330
1F
100
AcDbEntity
  8
P
  6
Continuous
 62
     0
100
AcDbPolyline
 90
       81
 70
     0
 43
0.0
 10
29.26589033432174
 20
194.4406148279378
 10
29.51589033432174
 20
194.4406148279378
 10
29.76589033432174
 20
194.4406148279378
 10
30.01589033432174
 20
194.5239481612711
 10
30.34922366765505
 20
194.5239481612711
 10
30.59922366765505
 20
194.6072814946045
 10
30.84922366765506
 20
194.6072814946045
 10
31.09922366765506
 20
194.6906148279378
 10
31.34922366765505
 20
194.6906148279378
 10
31.68255700098843
 20
194.7739481612711
 10
31.93255700098843
 20
194.8572814946045
 10
32.18255700098842
 20
194.9406148279378
 10
32.43255700098842
 20
195.0239481612712
 10
32.68255700098843
 20
195.1072814946044
 10
32.93255700098843
 20
195.1906148279378
 10
33.18255700098843
 20
195.2739481612711
 10
33.43255700098842
 20
195.3572814946044
 10
33.68255700098842
 20
195.4406148279378
 10
33.93255700098843
 20
195.5239481612711
 10
34.18255700098843
 20
195.6906148279378
 10
34.43255700098843
 20
195.7739481612711
 10
34.68255700098842
 20
195.8572814946045
 10
34.93255700098842
 20
196.0239481612711
 10
35.18255700098843
 20
196.1072814946044
 10
35.34922366765505
 20
196.2739481612711
 10
35.59922366765505
 20
196.4406148279378
 10
35.84922366765506
 20
196.5239481612711
 10
36.09922366765506
 20
196.6906148279378
 10
36.26589033432174
 20
196.8572814946045
 10
36.51589033432174
 20
197.0239481612711
 10
36.76589033432174
 20
197.1906148279378
 10
36.93255700098843
 20
197.3572814946044
 10
37.18255700098842
 20
197.5239481612711
 10
37.34922366765506
 20
197.6906148279378
 10
37.59922366765505
 20
197.8572814946044
 10
37.76589033432174
 20
198.0239481612711
 10
37.93255700098843
 20
198.1906148279378
 10
38.18255700098843
 20
198.3572814946045
 10
38.34922366765506
 20
198.6072814946045
 10
38.51589033432174
 20
198.7739481612711
 10
38.68255700098842
 20
198.9406148279378
 10
38.93255700098843
 20
199.1906148279378
 10
39.09922366765505
 20
199.3572814946045
 10
39.26589033432174
 20
199.6072814946045
 10
39.43255700098843
 20
199.7739481612711
 10
39.59922366765506
 20
200.0239481612712
 10
39.76589033432174
 20
200.2739481612711
 10
39.93255700098842
 20
200.4406148279378
 10
40.01589033432174
 20
200.6906148279378
 10
40.18255700098842
 20
200.9406148279378
 10
40.34922366765505
 20
201.1906148279378
 10
40.43255700098842
 20
201.3572814946045
 10
40.59922366765505
 20
201.6072814946045
 10
40.76589033432173
 20
201.8572814946045
 10
40.84922366765505
 20
202.1072814946045
 10
41.01589033432174
 20
202.3572814946045
 10
41.09922366765505
 20
202.6072814946045
 10
41.18255700098842
 20
202.8572814946045
 10
41.34922366765505
 20
203.1072814946045
 10
41.43255700098842
 20
203.4406148279378
 10
41.51589033432173
 20
203.6906148279378
 10
41.59922366765505
 20
203.9406148279378
 10
41.68255700098842
 20
204.1906148279378
 10
41.76589033432174
 20
204.5239481612711
 10
41.84922366765505
 20
204.7739481612711
 10
41.93255700098842
 20
205.1072814946045
 10
42.01589033432173
 20
205.5239481612712
 10
42.09922366765505
 20
205.9406148279378
 10
42.18255700098842
 20
206.3572814946045
 10
42.18255700098842
 20
206.8572814946045
 10
42.26589033432174
 20
207.2739481612712
 10
42.26589033432174
 20
207.7739481612712
 10
42.26589033432174
 20
208.2739481612712
 10
42.26589033432174
 20
208.6906148279378
 10
42.26589033432174
 20
209.1906148279378
 10
42.18255700098842
 20
209.6906148279378
 10
42.18255700098842
 20
210.1072814946045
 10
42.09922366765505
 20
210.5239481612712
 10
42.01589033432173
 20
210.9406148279378
 10
41.93255700098842
 20
211.3572814946045
 10
41.84922366765505
 20
211.6906148279378
  0
LWPOLYLINE
  5
101150A
330
1F
100
AcDbEntity
  8
P
  6
Continuous
 62
     0
100
AcDbPolyline
 90
        2
 70
     0
 43
0.0
 10
29.59922366765506
 20
235.4406148279378
 10
41.84922366765505
 20
211.6906148279378
  0
ENDSEC
  0
SECTION
  2
OBJECTS
  0
DICTIONARY
  5
C
330
0
100
AcDbDictionary
281
     1
  3
ACAD_CIP_PREVIOUS_PRODUCT_INFO
350
10051
  3
ACAD_COLOR
350
10034
  3
ACAD_DETAILVIEWSTYLE
350
1004D
  3
ACAD_GROUP
350
D
  3
ACAD_LAYOUT
350
1A
  3
ACAD_MATERIAL
350
10002
  3
ACAD_MLEADERSTYLE
350
10049
  3
ACAD_MLINESTYLE
350
17
  3
ACAD_PLOTSETTINGS
350
19
  3
ACAD_PLOTSTYLENAME
350
E
  3
ACAD_SCALELIST
350
10037
  3
ACAD_SECTIONVIEWSTYLE
350
1004B
  3
ACAD_TABLESTYLE
350
10035
  3
ACAD_VISUALSTYLE
350
1001B
  3
ACDB_RECOMPOSE_DATA
350
1011517
  3
AcDbVariableDictionary
350
2D6
  0
DICTIONARY
  5
100FC
330
8
100
AcDbDictionary
280
     1
281
     1
  0
DICTIONARY
  5
101018B
330
2
100
AcDbDictionary
280
     1
281
     1
  3
ACAD_LAYERSTATES
360
101018C
  0
DICTIONARY
  5
10059
330
10
100
AcDbDictionary
280
     1
281
     1
  3
ADSK_XREC_LAYER_RECONCILED
360
1005A
  0
DICTIONARY
  5
1005B
330
47
100
AcDbDictionary
280
     1
281
     1
  3
ADSK_XREC_LAYER_RECONCILED
360
1005C
  0
DICTIONARY
  5
1005D
330
48
100
AcDbDictionary
280
     1
281
     1
  3
ADSK_XREC_LAYER_RECONCILED
360
1005E
  0
DICTIONARY
  5
1005F
330
49
100
AcDbDictionary
280
     1
281
     1
  3
ADSK_XREC_LAYER_RECONCILED
360
10060
  0
DICTIONARY
  5
10061
330
4A
100
AcDbDictionary
280
     1
281
     1
  3
ADSK_XREC_LAYER_RECONCILED
360
10062
  0
XRECORD
  5
10051
102
{ACAD_REACTORS
330
C
102
}
330
C
100
AcDbXrecord
280
     1
300
ACDLT
300
2017
300
ACDLT_F_S
  0
DICTIONARY
  5
10034
102
{ACAD_REACTORS
330
C
102
}
330
C
100
AcDbDictionary
281
     1
  0
DICTIONARY
  5
1004D
102
{ACAD_REACTORS
330
C
102
}
330
C
100
AcDbDictionary
281
     1
  3
Imperial24
350
1004E
  0
DICTIONARY
  5
D
330
C
100
AcDbDictionary
281
     1
  0
DICTIONARY
  5
1A
330
C
100
AcDbDictionary
281
     1
  3
Layout1
350
1E
  3
Layout2
350
26
  3
Model
350
22
  0
DICTIONARY
  5
10002
102
{ACAD_REACTORS
330
C
102
}
330
C
100
AcDbDictionary
281
     1
  3
ByBlock
350
1000B
  3
ByLayer
350
10003
  3
Global
350
10013
  0
DICTIONARY
  5
10049
102
{ACAD_REACTORS
330
C
102
}
330
C
100
AcDbDictionary
281
     1
  3
Standard
350
1004A
  0
DICTIONARY
  5
17
330
C
100
AcDbDictionary
281
     1
  3
Standard
350
18
  0
DICTIONARY
  5
19
330
C
100
AcDbDictionary
281
     1
  0
ACDBDICTIONARYWDFLT
  5
E
330
C
100
AcDbDictionary
281
     1
  3
Normal
350
F
100
AcDbDictionaryWithDefault
340
F
  0
DICTIONARY
  5
10037
102
{ACAD_REACTORS
330
C
102
}
330
C
100
AcDbDictionary
281
     1
  3
A0
350
10038
  3
A1
350
10039
  3
A2
350
1003A
  3
A3
350
1003B
  3
A4
350
1003C
  3
A5
350
1003D
  3
A6
350
1003E
  3
A7
350
1003F
  3
A8
350
10040
  3
A9
350
10041
  3
B0
350
10042
  3
B1
350
10043
  3
B2
350
10044
  3
B3
350
10045
  3
B4
350
10046
  3
B5
350
10047
  3
B6
350
10048
  0
DICTIONARY
  5
1004B
102
{ACAD_REACTORS
330
C
102
}
330
C
100
AcDbDictionary
281
     1
  3
Imperial24
350
1004C
  0
DICTIONARY
  5
10035
102
{ACAD_REACTORS
330
C
102
}
330
C
100
AcDbDictionary
281
     1
  3
Standard
350
10036
  0
DICTIONARY
  5
1001B
102
{ACAD_REACTORS
330
C
102
}
330
C
100
AcDbDictionary
281
     1
  3
2dWireframe
350
10021
  3
Basic
350
10020
  3
Brighten
350
10027
  3
ColorChange
350
1002B
  3
Conceptual
350
10024
  3
Dim
350
10026
  3
EdgeColorOff
350
10033
  3
Facepattern
350
1002A
  3
Flat
350
1001C
  3
FlatWithEdges
350
1001D
  3
Gouraud
350
1001E
  3
GouraudWithEdges
350
1001F
  3
Hidden
350
10023
  3
JitterOff
350
10031
  3
Linepattern
350
10029
  3
OverhangOff
350
10032
  3
Realistic
350
10025
  3
Shaded
350
10030
  3
Shaded with edges
350
1002F
  3
Shades of Gray
350
1002C
  3
Sketchy
350
1002D
  3
Thicken
350
10028
  3
Wireframe
350
10022
  3
X-Ray
350
1002E
  0
XRECORD
  5
1011517
102
{ACAD_REACTORS
330
C
102
}
330
C
100
AcDbXrecord
280
     1
 90
        1
330
10036
330
1004C
330
1004E
  0
DICTIONARY
  5
2D6
330
C
100
AcDbDictionary
281
     1
  3
CANNOSCALE
350
10067
  3
CMLEADERSTYLE
350
10064
  3
CTABLESTYLE
350
10063
  3
CVIEWDETAILSTYLE
350
10065
  3
CVIEWSECTIONSTYLE
350
10066
  3
DIMASSOC
350
2D8
  3
HIDETEXT
350
2D7
  3
INDEXCTL
350
10069
  3
LAYEREVAL
350
1011082
  3
LAYERNOTIFY
350
1011083
  3
LIGHTINGUNITS
350
1011081
  3
MSLTSCALE
350
1011080
  3
SORTENTS
350
10068
  0
DICTIONARY
  5
101018C
102
{ACAD_REACTORS
330
101018B
102
}
330
101018B
100
AcDbDictionary
281
     1
  0
XRECORD
  5
1005A
102
{ACAD_REACTORS
330
10059
102
}
330
10059
100
AcDbXrecord
280
     1
290
     1
  0
XRECORD
  5
1005C
102
{ACAD_REACTORS
330
1005B
102
}
330
1005B
100
AcDbXrecord
280
     1
290
     1
  0
XRECORD
  5
1005E
102
{ACAD_REACTORS
330
1005D
102
}
330
1005D
100
AcDbXrecord
280
     1
290
     1
  0
XRECORD
  5
10060
102
{ACAD_REACTORS
330
1005F
102
}
330
1005F
100
AcDbXrecord
280
     1
290
     1
  0
XRECORD
  5
10062
102
{ACAD_REACTORS
330
10061
102
}
330
10061
100
AcDbXrecord
280
     1
290
     1
  0
ACDBDETAILVIEWSTYLE
  5
1004E
102
{ACAD_XDICTIONARY
360
101107D
102
}
102
{ACAD_REACTORS
330
1004D
102
}
330
1004D
100
AcDbModelDocViewStyle
 70
     0
  3
Imperial24
290
     0
100
AcDbDetailViewStyle
 70
     0
 71
     0
 90
        3
 71
     1
340
11
 62
   256
 40
0.24
340
0
 62
   256
 40
0.24
300

 40
0.36
280
     3
 71
     2
340
16
 90
       25
 62
   256
 71
     3
340
11
 62
   256
 40
0.24
 90
        1
 40
0.75
 90
        1
300
%<\AcVar ViewType \f "%tc1">% %<\AcVar ViewDetailId>%\PVARIA %<\AcVar ViewScale \f "%sn">%
 71
     4
340
16
 90
       25
 62
   256
340
16
 90
       25
 62
   256
280
     0
  0
LAYOUT
  5
1E
330
1A
100
AcDbPlotSettings
  1

  2
C:\Program Files\AutoCAD 2002\plotters\DWF ePlot (optimized for plotting).pc3
  4

  6

 40
0.0
 41
0.0
 42
0.0
 43
0.0
 44
0.0
 45
0.0
 46
0.0
 47
0.0
 48
0.0
 49
0.0
140
0.0
141
0.0
142
1.0
143
1.0
 70
   688
 72
     0
 73
     0
 74
     5
  7

 75
    16
147
1.0
 76
     0
 77
     2
 78
   300
148
0.0
149
0.0
100
AcDbLayout
  1
Layout1
 70
     1
 71
     1
 10
0.0
 20
0.0
 11
12.0
 21
9.0
 12
0.0
 22
0.0
 32
0.0
 14
1.000000000000000E+20
 24
1.000000000000000E+20
 34
1.000000000000000E+20
 15
-1.000000000000000E+20
 25
-1.000000000000000E+20
 35
-1.000000000000000E+20
146
0.0
 13
0.0
 23
0.0
 33
0.0
 16
1.0
 26
0.0
 36
0.0
 17
0.0
 27
1.0
 37
0.0
 76
     0
330
1B
  0
LAYOUT
  5
26
330
1A
100
AcDbPlotSettings
  1

  2
C:\Program Files\AutoCAD 2002\plotters\DWF ePlot (optimized for plotting).pc3
  4

  6

 40
0.0
 41
0.0
 42
0.0
 43
0.0
 44
0.0
 45
0.0
 46
0.0
 47
0.0
 48
0.0
 49
0.0
140
0.0
141
0.0
142
1.0
143
1.0
 70
   688
 72
     0
 73
     0
 74
     5
  7

 75
    16
147
1.0
 76
     0
 77
     2
 78
   300
148
0.0
149
0.0
100
AcDbLayout
  1
Layout2
 70
     1
 71
     2
 10
0.0
 20
0.0
 11
12.0
 21
9.0
 12
0.0
 22
0.0
 32
0.0
 14
0.0
 24
0.0
 34
0.0
 15
0.0
 25
0.0
 35
0.0
146
0.0
 13
0.0
 23
0.0
 33
0.0
 16
1.0
 26
0.0
 36
0.0
 17
0.0
 27
1.0
 37
0.0
 76
     0
330
23
  0
LAYOUT
  5
22
330
1A
100
AcDbPlotSettings
  1

  2
C:\Program Files\AutoCAD 2002\plotters\DWF ePlot (optimized for plotting).pc3
  4

  6

 40
0.0
 41
0.0
 42
0.0
 43
0.0
 44
0.0
 45
0.0
 46
0.0
 47
0.0
 48
0.0
 49
0.0
140
0.0
141
0.0
142
1.0
143
1.0
 70
  1712
 72
     0
 73
     0
 74
     0
  7

 75
     0
147
1.0
 76
     0
 77
     2
 78
   300
148
0.0
149
0.0
100
AcDbLayout
  1
Model
 70
     1
 71
     0
 10
0.0
 20
0.0
 11
12.0
 21
9.0
 12
0.0
 22
0.0
 32
0.0
 14
0.0
 24
0.0
 34
0.0
 15
0.0
 25
0.0
 35
0.0
146
0.0
 13
0.0
 23
0.0
 33
0.0
 16
1.0
 26
0.0
 36
0.0
 17
0.0
 27
1.0
 37
0.0
 76
     0
330
1F
331
30
  0
MATERIAL
  5
1000B
102
{ACAD_XDICTIONARY
360
1000C
102
}
102
{ACAD_REACTORS
330
10002
102
}
330
10002
100
AcDbMaterial
  1
ByBlock
 72
     0
 43
0.0208333333333333
 43
0.0
 43
0.0
 43
0.0
 43
0.0
 43
0.0208333333333333
 43
0.0
 43
0.0
 43
0.0
 43
0.0
 43
1.0
 43
0.0
 43
0.0
 43
0.0
 43
0.0
 43
1.0
 77
     0
 47
0.0208333333333333
 47
0.0
 47
0.0
 47
0.0
 47
0.0
 47
0.0208333333333333
 47
0.0
 47
0.0
 47
0.0
 47
0.0
 47
1.0
 47
0.0
 47
0.0
 47
0.0
 47
0.0
 47
1.0
171
     0
 49
0.0208333333333333
 49
0.0
 49
0.0
 49
0.0
 49
0.0
 49
0.0208333333333333
 49
0.0
 49
0.0
 49
0.0
 49
0.0
 49
1.0
 49
0.0
 49
0.0
 49
0.0
 49
0.0
 49
1.0
175
     0
142
0.0208333333333333
142
0.0
142
0.0
142
0.0
142
0.0
142
0.0208333333333333
142
0.0
142
0.0
142
0.0
142
0.0
142
1.0
142
0.0
142
0.0
142
0.0
142
0.0
142
1.0
179
     0
144
0.0208333333333333
144
0.0
144
0.0
144
0.0
144
0.0
144
0.0208333333333333
144
0.0
144
0.0
144
0.0
144
0.0
144
1.0
144
0.0
144
0.0
144
0.0
144
0.0
144
1.0
147
0.0208333333333333
147
0.0
147
0.0
147
0.0
147
0.0
147
0.0208333333333333
147
0.0
147
0.0
147
0.0
147
0.0
147
1.0
147
0.0
147
0.0
147
0.0
147
0.0
147
1.0
  0
MATERIAL
  5
10003
102
{ACAD_XDICTIONARY
360
10004
102
}
102
{ACAD_REACTORS
330
10002
102
}
330
10002
100
AcDbMaterial
  1
ByLayer
 72
     0
 43
0.0208333333333333
 43
0.0
 43
0.0
 43
0.0
 43
0.0
 43
0.0208333333333333
 43
0.0
 43
0.0
 43
0.0
 43
0.0
 43
1.0
 43
0.0
 43
0.0
 43
0.0
 43
0.0
 43
1.0
 77
     0
 47
0.0208333333333333
 47
0.0
 47
0.0
 47
0.0
 47
0.0
 47
0.0208333333333333
 47
0.0
 47
0.0
 47
0.0
 47
0.0
 47
1.0
 47
0.0
 47
0.0
 47
0.0
 47
0.0
 47
1.0
171
     0
 49
0.0208333333333333
 49
0.0
 49
0.0
 49
0.0
 49
0.0
 49
0.0208333333333333
 49
0.0
 49
0.0
 49
0.0
 49
0.0
 49
1.0
 49
0.0
 49
0.0
 49
0.0
 49
0.0
 49
1.0
175
     0
142
0.0208333333333333
142
0.0
142
0.0
142
0.0
142
0.0
142
0.0208333333333333
142
0.0
142
0.0
142
0.0
142
0.0
142
1.0
142
0.0
142
0.0
142
0.0
142
0.0
142
1.0
179
     0
144
0.0208333333333333
144
0.0
144
0.0
144
0.0
144
0.0
144
0.0208333333333333
144
0.0
144
0.0
144
0.0
144
0.0
144
1.0
144
0.0
144
0.0
144
0.0
144
0.0
144
1.0
147
0.0208333333333333
147
0.0
147
0.0
147
0.0
147
0.0
147
0.0208333333333333
147
0.0
147
0.0
147
0.0
147
0.0
147
1.0
147
0.0
147
0.0
147
0.0
147
0.0
147
1.0
  0
MATERIAL
  5
10013
102
{ACAD_XDICTIONARY
360
10014
102
}
102
{ACAD_REACTORS
330
10002
102
}
330
10002
100
AcDbMaterial
  1
Global
 72
     0
 43
0.0208333333333333
 43
0.0
 43
0.0
 43
0.0
 43
0.0
 43
0.0208333333333333
 43
0.0
 43
0.0
 43
0.0
 43
0.0
 43
1.0
 43
0.0
 43
0.0
 43
0.0
 43
0.0
 43
1.0
 77
     0
 47
0.0208333333333333
 47
0.0
 47
0.0
 47
0.0
 47
0.0
 47
0.0208333333333333
 47
0.0
 47
0.0
 47
0.0
 47
0.0
 47
1.0
 47
0.0
 47
0.0
 47
0.0
 47
0.0
 47
1.0
171
     0
 49
0.0208333333333333
 49
0.0
 49
0.0
 49
0.0
 49
0.0
 49
0.0208333333333333
 49
0.0
 49
0.0
 49
0.0
 49
0.0
 49
1.0
 49
0.0
 49
0.0
 49
0.0
 49
0.0
 49
1.0
175
     0
142
0.0208333333333333
142
0.0
142
0.0
142
0.0
142
0.0
142
0.0208333333333333
142
0.0
142
0.0
142
0.0
142
0.0
142
1.0
142
0.0
142
0.0
142
0.0
142
0.0
142
1.0
179
     0
144
0.0208333333333333
144
0.0
144
0.0
144
0.0
144
0.0
144
0.0208333333333333
144
0.0
144
0.0
144
0.0
144
0.0
144
1.0
144
0.0
144
0.0
144
0.0
144
0.0
144
1.0
147
0.0208333333333333
147
0.0
147
0.0
147
0.0
147
0.0
147
0.0208333333333333
147
0.0
147
0.0
147
0.0
147
0.0
147
1.0
147
0.0
147
0.0
147
0.0
147
0.0
147
1.0
  0
MLEADERSTYLE
  5
1004A
102
{ACAD_REACTORS
330
10049
102
}
330
10049
100
AcDbMLeaderStyle
179
     2
170
     2
171
     1
172
     0
 90
        2
 40
0.0
 41
0.0
173
     1
 91
-1056964608
340
14
 92
       -2
290
     1
 42
0.09
291
     1
 43
0.36
  3
Standard
 44
0.18
300

342
11
174
     1
178
     6
175
     1
176
     0
 93
-1056964608
 45
0.18
292
     0
297
     0
 46
0.18
 94
-1056964608
 47
1.0
 49
1.0
140
1.0
293
     1
141
0.0
294
     1
177
     0
142
1.0
295
     0
296
     0
143
0.125
271
     0
272
     9
273
     9
298
     0
  0
MLINESTYLE
  5
18
330
17
100
AcDbMlineStyle
  2
STANDARD
 70
     0
  3

 62
   256
 51
90.0
 52
90.0
 71
     2
 49
0.5
 62
   256
  6
BYLAYER
 49
-0.5
 62
   256
  6
BYLAYER
  0
ACDBPLACEHOLDER
  5
F
330
E
  0
SCALE
  5
10038
102
{ACAD_REACTORS
330
10037
102
}
330
10037
100
AcDbScale
 70
     0
300
1:1
140
1.0
141
1.0
290
     1
  0
SCALE
  5
10039
102
{ACAD_REACTORS
330
10037
102
}
330
10037
100
AcDbScale
 70
     0
300
1/128" = 1'-0"
140
0.0078125
141
12.0
290
     0
  0
SCALE
  5
1003A
102
{ACAD_REACTORS
330
10037
102
}
330
10037
100
AcDbScale
 70
     0
300
1/64" = 1'-0"
140
0.015625
141
12.0
290
     0
  0
SCALE
  5
1003B
102
{ACAD_REACTORS
330
10037
102
}
330
10037
100
AcDbScale
 70
     0
300
1/32" = 1'-0"
140
0.03125
141
12.0
290
     0
  0
SCALE
  5
1003C
102
{ACAD_REACTORS
330
10037
102
}
330
10037
100
AcDbScale
 70
     0
300
1/16" = 1'-0"
140
0.0625
141
12.0
290
     0
  0
SCALE
  5
1003D
102
{ACAD_REACTORS
330
10037
102
}
330
10037
100
AcDbScale
 70
     0
300
3/32" = 1'-0"
140
0.09375
141
12.0
290
     0
  0
SCALE
  5
1003E
102
{ACAD_REACTORS
330
10037
102
}
330
10037
100
AcDbScale
 70
     0
300
1/8" = 1'-0"
140
0.125
141
12.0
290
     0
  0
SCALE
  5
1003F
102
{ACAD_REACTORS
330
10037
102
}
330
10037
100
AcDbScale
 70
     0
300
3/16" = 1'-0"
140
0.1875
141
12.0
290
     0
  0
SCALE
  5
10040
102
{ACAD_REACTORS
330
10037
102
}
330
10037
100
AcDbScale
 70
     0
300
1/4" = 1'-0"
140
0.25
141
12.0
290
     0
  0
SCALE
  5
10041
102
{ACAD_REACTORS
330
10037
102
}
330
10037
100
AcDbScale
 70
     0
300
3/8" = 1'-0"
140
0.375
141
12.0
290
     0
  0
SCALE
  5
10042
102
{ACAD_REACTORS
330
10037
102
}
330
10037
100
AcDbScale
 70
     0
300
1/2" = 1'-0"
140
0.5
141
12.0
290
     0
  0
SCALE
  5
10043
102
{ACAD_REACTORS
330
10037
102
}
330
10037
100
AcDbScale
 70
     0
300
3/4" = 1'-0"
140
0.75
141
12.0
290
     0
  0
SCALE
  5
10044
102
{ACAD_REACTORS
330
10037
102
}
330
10037
100
AcDbScale
 70
     0
300
1" = 1'-0"
140
1.0
141
12.0
290
     0
  0
SCALE
  5
10045
102
{ACAD_REACTORS
330
10037
102
}
330
10037
100
AcDbScale
 70
     0
300
1-1/2" = 1'-0"
140
1.5
141
12.0
290
     0
  0
SCALE
  5
10046
102
{ACAD_REACTORS
330
10037
102
}
330
10037
100
AcDbScale
 70
     0
300
3" = 1'-0"
140
3.0
141
12.0
290
     0
  0
SCALE
  5
10047
102
{ACAD_REACTORS
330
10037
102
}
330
10037
100
AcDbScale
 70
     0
300
6" = 1'-0"
140
6.0
141
12.0
290
     0
  0
SCALE
  5
10048
102
{ACAD_REACTORS
330
10037
102
}
330
10037
100
AcDbScale
 70
     0
300
1'-0" = 1'-0"
140
12.0
141
12.0
290
     0
  0
ACDBSECTIONVIEWSTYLE
  5
1004C
102
{ACAD_XDICTIONARY
360
101107B
102
}
102
{ACAD_REACTORS
330
1004B
102
}
330
1004B
100
AcDbModelDocViewStyle
 70
     0
  3
Imperial24
290
     0
100
AcDbSectionViewStyle
 70
     0
 71
     0
 90
       78
 71
     1
340
11
 62
   256
 40
0.24
340
0
340
0
 62
   256
 40
0.24
300
I, O, Q, S, X, Z
 40
0.48
 90
        3
 40
0.18
 90
        1
 71
     2
340
16
 90
       25
 62
   256
340
16
 90
       50
 62
   256
 40
0.24
 40
0.0
 40
0.24
 71
     3
340
11
 62
   256
 40
0.24
 90
        1
 40
0.75
 90
        1
300
%<\AcVar ViewType \f "%tc1">% %<\AcVar ViewSectionStartId>%-%<\AcVar ViewSectionEndId>%\PVARIA %<\AcVar ViewScale \f "%sn">%
 71
     4
 62
   256
 62
   257
300
ANSI31
 40
1.0
 90
        0
290
     0
290
     0
 90
        6
 40
0.0
 40
1.570796326794896
 40
0.2617993877991494
 40
1.308996938995747
 40
-0.2617993877991494
 40
1.832595714594045
  0
TABLESTYLE
  5
10036
102
{ACAD_XDICTIONARY
360
1006C
102
}
102
{ACAD_REACTORS
330
10035
102
}
330
10035
100
AcDbTableStyle
280
     0
  3
Standard
 70
     0
 71
     0
 40
0.06
 41
0.06
280
     0
281
     0
  7
Standard
140
0.18
170
     2
 62
     0
 63
     7
283
     0
 90
      512
 91
        0
  1

274
    -2
284
     1
 64
     0
275
    -2
285
     1
 65
     0
276
    -2
286
     1
 66
     0
277
    -2
287
     1
 67
     0
278
    -2
288
     1
 68
     0
279
    -2
289
     1
 69
     0
  7
Standard
140
0.25
170
     5
 62
     0
 63
     7
283
     0
 90
      512
 91
        0
  1

274
    -2
284
     1
 64
     0
275
    -2
285
     1
 65
     0
276
    -2
286
     1
 66
     0
277
    -2
287
     1
 67
     0
278
    -2
288
     1
 68
     0
279
    -2
289
     1
 69
     0
  7
Standard
140
0.18
170
     5
 62
     0
 63
     7
283
     0
 90
      512
 91
        0
  1

274
    -2
284
     1
 64
     0
275
    -2
285
     1
 65
     0
276
    -2
286
     1
 66
     0
277
    -2
287
     1
 67
     0
278
    -2
288
     1
 68
     0
279
    -2
289
     1
 69
     0
  0
VISUALSTYLE
  5
10021
102
{ACAD_REACTORS
330
1001B
102
}
330
1001B
100
AcDbVisualStyle
  2

 70
     4
177
     3
291
     0
 70
    58
 90
        0
176
     1
 90
        2
176
     1
 90
        0
176
     1
 90
        0
176
     1
 40
0.6
176
     1
 40
30.0
176
     1
 62
     7
176
     1
 90
        1
176
     1
 90
        4
176
     1
 62
     7
176
     1
 62
   257
176
     1
 90
        1
176
     1
 90
        1
176
     1
 40
1.0
176
     1
 90
        0
176
     1
 62
   257
176
     1
 40
1.0
176
     1
 90
        1
176
     1
 90
        6
176
     1
 90
        2
176
     1
 62
     7
176
     1
 90
        5
176
     1
 90
        0
176
     1
 90
        0
176
     1
290
     0
176
     1
 90
        1
176
     1
 40
0.0
176
     1
 90
        0
176
     1
290
     1
176
     1
290
     1
176
     1
290
     0
176
     1
290
     0
176
     1
290
     0
176
     1
290
     0
176
     1
290
     0
176
     1
290
     0
176
     1
290
     0
176
     1
 90
       50
176
     1
 40
0.0
176
     1
 40
1.0
176
     1
 90
        0
176
     1
 62
    18
420
        0
176
     1
 90
       50
176
     1
 90
        3
176
     1
 62
     5
420
      255
176
     1
290
     0
176
     1
 90
       50
176
     1
 90
       50
176
     1
 90
       50
176
     1
290
     0
176
     1
 90
       50
176
     1
 62
   256
176
     0
 40
1.0
176
     0
 90
        2
176
     1
  1
strokes_ogs.tif
176
     1
290
     0
176
     1
 40
1.0
176
     1
 40
1.0
176
     1
  0
VISUALSTYLE
  5
10020
102
{ACAD_REACTORS
330
1001B
102
}
330
1001B
100
AcDbVisualStyle
  2

 70
     7
177
     3
291
     1
 70
    58
 90
        1
176
     1
 90
        0
176
     1
 90
        1
176
     1
 90
        0
176
     1
 40
0.6
176
     1
 40
30.0
176
     1
 62
     7
176
     1
 90
        0
176
     1
 90
        4
176
     1
 62
     7
176
     1
 62
   257
176
     1
 90
        1
176
     1
 90
        1
176
     1
 40
1.0
176
     1
 90
        8
176
     1
 62
     7
176
     1
 40
1.0
176
     1
 90
        1
176
     1
 90
        6
176
     1
 90
        2
176
     1
 62
     7
176
     1
 90
        5
176
     1
 90
        0
176
     1
 90
        0
176
     1
290
     0
176
     1
 90
        1
176
     1
 40
0.0
176
     1
 90
        0
176
     1
290
     0
176
     1
290
     1
176
     1
290
     1
176
     1
290
     0
176
     1
290
     0
176
     1
290
     0
176
     1
290
     0
176
     1
290
     0
176
     1
290
     0
176
     1
 90
       50
176
     1
 40
0.0
176
     1
 40
1.0
176
     1
 90
        0
176
     1
 62
    18
420
        0
176
     1
 90
       50
176
     1
 90
        3
176
     1
 62
     5
420
      255
176
     1
290
     0
176
     1
 90
       50
176
     1
 90
       50
176
     1
 90
       50
176
     1
290
     0
176
     1
 90
       50
176
     1
 62
   256
176
     0
 40
1.0
176
     0
 90
        2
176
     1
  1
strokes_ogs.tif
176
     1
290
     0
176
     1
 40
1.0
176
     1
 40
1.0
176
     1
  0
VISUALSTYLE
  5
10027
102
{ACAD_REACTORS
330
1001B
102
}
330
1001B
100
AcDbVisualStyle
  2

 70
    12
177
     3
291
     1
 70
    58
 90
        2
176
     1
 90
        2
176
     1
 90
        0
176
     1
 90
        0
176
     1
 40
0.6
176
     1
 40
30.0
176
     1
 62
     7
176
     1
 90
        1
176
     1
 90
        4
176
     1
 62
     7
176
     1
 62
   257
176
     1
 90
        1
176
     1
 90
        1
176
     1
 40
1.0
176
     1
 90
        8
176
     1
 62
     7
176
     1
 40
1.0
176
     1
 90
        1
176
     1
 90
        6
176
     1
 90
        2
176
     1
 62
     7
176
     1
 90
        5
176
     1
 90
        0
176
     1
 90
        0
176
     1
290
     0
176
     1
 90
        1
176
     1
 40
50.0
176
     1
 90
        0
176
     1
290
     0
176
     1
290
     1
176
     1
290
     1
176
     1
290
     0
176
     1
290
     0
176
     1
290
     0
176
     1
290
     0
176
     1
290
     0
176
     1
290
     0
176
     1
 90
       50
176
     1
 40
0.0
176
     1
 40
1.0
176
     1
 90
        0
176
     1
 62
    18
420
        0
176
     1
 90
       50
176
     1
 90
        3
176
     1
 62
     5
420
      255
176
     1
290
     0
176
     1
 90
       50
176
     1
 90
       50
176
     1
 90
       50
176
     1
290
     0
176
     1
 90
       50
176
     1
 62
   256
176
     0
 40
1.0
176
     0
 90
        2
176
     1
  1
strokes_ogs.tif
176
     1
290
     0
176
     1
 40
1.0
176
     1
 40
1.0
176
     1
  0
VISUALSTYLE
  5
1002B
102
{ACAD_REACTORS
330
1001B
102
}
330
1001B
100
AcDbVisualStyle
  2

 70
    16
177
     3
291
     1
 70
    58
 90
        2
176
     1
 90
        2
176
     1
 90
        3
176
     1
 90
        0
176
     1
 40
0.6
176
     1
 40
30.0
176
     1
 62
     8
176
     1
 90
        1
176
     1
 90
        4
176
     1
 62
     7
176
     1
 62
   257
176
     1
 90
        1
176
     1
 90
        1
176
     1
 40
1.0
176
     1
 90
        8
176
     1
 62
     8
176
     1
 40
1.0
176
     1
 90
        1
176
     1
 90
        6
176
     1
 90
        2
176
     1
 62
     7
176
     1
 90
        5
176
     1
 90
        0
176
     1
 90
        0
176
     1
290
     0
176
     1
 90
        1
176
     1
 40
0.0
176
     1
 90
        0
176
     1
290
     0
176
     1
290
     1
176
     1
290
     1
176
     1
290
     0
176
     1
290
     0
176
     1
290
     0
176
     1
290
     0
176
     1
290
     0
176
     1
290
     0
176
     1
 90
       50
176
     1
 40
0.0
176
     1
 40
1.0
176
     1
 90
        0
176
     1
 62
    18
420
        0
176
     1
 90
       50
176
     1
 90
        3
176
     1
 62
     5
420
      255
176
     1
290
     0
176
     1
 90
       50
176
     1
 90
       50
176
     1
 90
       50
176
     1
290
     0
176
     1
 90
       50
176
     1
 62
   256
176
     0
 40
1.0
176
     0
 90
        2
176
     1
  1
strokes_ogs.tif
176
     1
290
     0
176
     1
 40
1.0
176
     1
 40
1.0
176
     1
  0
VISUALSTYLE
  5
10024
102
{ACAD_REACTORS
330
1001B
102
}
330
1001B
100
AcDbVisualStyle
  2

 70
     9
177
     3
291
     0
 70
    58
 90
        3
176
     1
 90
        2
176
     1
 90
        0
176
     1
 90
        0
176
     1
 40
0.6
176
     1
 40
30.0
176
     1
 62
     7
176
     1
 90
        2
176
     1
 90
        2
176
     1
 62
     7
176
     1
 62
   257
176
     1
 90
        1
176
     1
 90
        1
176
     1
 40
179.0
176
     1
 90
        8
176
     1
 62
     7
176
     1
 40
1.0
176
     1
 90
        1
176
     1
 90
        6
176
     1
 90
        2
176
     1
 62
     7
176
     1
 90
        3
176
     1
 90
        0
176
     1
 90
        0
176
     1
290
     0
176
     1
 90
        1
176
     1
 40
0.0
176
     1
 90
        0
176
     1
290
     0
176
     1
290
     1
176
     1
290
     1
176
     1
290
     0
176
     1
290
     0
176
     1
290
     0
176
     1
290
     0
176
     1
290
     0
176
     1
290
     0
176
     1
 90
       50
176
     1
 40
0.0
176
     1
 40
1.0
176
     1
 90
        0
176
     1
 62
    18
420
        0
176
     1
 90
       50
176
     1
 90
        3
176
     1
 62
     5
420
      255
176
     1
290
     0
176
     1
 90
       50
176
     1
 90
       50
176
     1
 90
       50
176
     1
290
     0
176
     1
 90
       50
176
     1
 62
   256
176
     0
 40
1.0
176
     0
 90
        2
176
     1
  1
strokes_ogs.tif
176
     1
290
     0
176
     1
 40
1.0
176
     1
 40
1.0
176
     1
  0
VISUALSTYLE
  5
10026
102
{ACAD_REACTORS
330
1001B
102
}
330
1001B
100
AcDbVisualStyle
  2

 70
    11
177
     3
291
     1
 70
    58
 90
        2
176
     1
 90
        2
176
     1
 90
        0
176
     1
 90
        0
176
     1
 40
0.6
176
     1
 40
30.0
176
     1
 62
     7
176
     1
 90
        1
176
     1
 90
        4
176
     1
 62
     7
176
     1
 62
   257
176
     1
 90
        1
176
     1
 90
        1
176
     1
 40
1.0
176
     1
 90
        8
176
     1
 62
     7
176
     1
 40
1.0
176
     1
 90
        1
176
     1
 90
        6
176
     1
 90
        2
176
     1
 62
     7
176
     1
 90
        5
176
     1
 90
        0
176
     1
 90
        0
176
     1
290
     0
176
     1
 90
        1
176
     1
 40
-50.0
176
     1
 90
        0
176
     1
290
     0
176
     1
290
     1
176
     1
290
     1
176
     1
290
     0
176
     1
290
     0
176
     1
290
     0
176
     1
290
     0
176
     1
290
     0
176
     1
290
     0
176
     1
 90
       50
176
     1
 40
0.0
176
     1
 40
1.0
176
     1
 90
        0
176
     1
 62
    18
420
        0
176
     1
 90
       50
176
     1
 90
        3
176
     1
 62
     5
420
      255
176
     1
290
     0
176
     1
 90
       50
176
     1
 90
       50
176
     1
 90
       50
176
     1
290
     0
176
     1
 90
       50
176
     1
 62
   256
176
     0
 40
1.0
176
     0
 90
        2
176
     1
  1
strokes_ogs.tif
176
     1
290
     0
176
     1
 40
1.0
176
     1
 40
1.0
176
     1
  0
VISUALSTYLE
  5
10033
102
{ACAD_REACTORS
330
1001B
102
}
330
1001B
100
AcDbVisualStyle
  2

 70
    22
177
     3
291
     1
 70
    58
 90
        2
176
     0
 90
        2
176
     0
 90
        0
176
     0
 90
        0
176
     0
 40
0.6
176
     0
 40
30.0
176
     0
 62
     7
176
     0
 90
        1
176
     0
 90
        4
176
     0
 62
     7
176
     0
 62
   257
176
     0
 90
        1
176
     0
 90
        1
176
     0
 40
1.0
176
     0
 90
        8
176
     2
 62
     7
176
     0
 40
1.0
176
     0
 90
        1
176
     0
 90
        6
176
     0
 90
        2
176
     0
 62
     7
176
     0
 90
        5
176
     0
 90
        0
176
     0
 90
        0
176
     0
290
     0
176
     0
 90
        1
176
     0
 40
0.0
176
     0
 90
        0
176
     0
290
     0
176
     1
290
     1
176
     1
290
     1
176
     1
290
     0
176
     1
290
     0
176
     1
290
     0
176
     1
290
     0
176
     1
290
     0
176
     1
290
     0
176
     1
 90
       50
176
     0
 40
0.0
176
     0
 40
1.0
176
     0
 90
        0
176
     0
 62
    18
420
        0
176
     0
 90
       50
176
     0
 90
        3
176
     0
 62
     5
420
      255
176
     0
290
     0
176
     1
 90
       50
176
     0
 90
       50
176
     0
 90
       50
176
     0
290
     0
176
     1
 90
       50
176
     0
 62
   256
176
     0
 40
1.0
176
     0
 90
        2
176
     0
  1
strokes_ogs.tif
176
     0
290
     0
176
     1
 40
1.0
176
     0
 40
1.0
176
     0
  0
VISUALSTYLE
  5
1002A
102
{ACAD_REACTORS
330
1001B
102
}
330
1001B
100
AcDbVisualStyle
  2

 70
    15
177
     3
291
     1
 70
    58
 90
        2
176
     1
 90
        2
176
     1
 90
        0
176
     1
 90
        0
176
     1
 40
0.6
176
     1
 40
30.0
176
     1
 62
     7
176
     1
 90
        1
176
     1
 90
        4
176
     1
 62
     7
176
     1
 62
   257
176
     1
 90
        1
176
     1
 90
        1
176
     1
 40
1.0
176
     1
 90
        8
176
     1
 62
     7
176
     1
 40
1.0
176
     1
 90
        1
176
     1
 90
        6
176
     1
 90
        2
176
     1
 62
     7
176
     1
 90
        5
176
     1
 90
        0
176
     1
 90
        0
176
     1
290
     0
176
     1
 90
        1
176
     1
 40
0.0
176
     1
 90
        0
176
     1
290
     0
176
     1
290
     1
176
     1
290
     1
176
     1
290
     0
176
     1
290
     0
176
     1
290
     0
176
     1
290
     0
176
     1
290
     0
176
     1
290
     0
176
     1
 90
       50
176
     1
 40
0.0
176
     1
 40
1.0
176
     1
 90
        0
176
     1
 62
    18
420
        0
176
     1
 90
       50
176
     1
 90
        3
176
     1
 62
     5
420
      255
176
     1
290
     0
176
     1
 90
       50
176
     1
 90
       50
176
     1
 90
       50
176
     1
290
     0
176
     1
 90
       50
176
     1
 62
   256
176
     0
 40
1.0
176
     0
 90
        2
176
     1
  1
strokes_ogs.tif
176
     1
290
     0
176
     1
 40
1.0
176
     1
 40
1.0
176
     1
  0
VISUALSTYLE
  5
1001C
102
{ACAD_REACTORS
330
1001B
102
}
330
1001B
100
AcDbVisualStyle
  2

 70
     0
177
     3
291
     1
 70
    58
 90
        2
176
     1
 90
        1
176
     1
 90
        1
176
     1
 90
        2
176
     1
 40
0.6
176
     1
 40
30.0
176
     1
 62
     7
176
     1
 90
        0
176
     1
 90
        0
176
     1
 62
     7
176
     1
 62
   257
176
     1
 90
        1
176
     1
 90
        1
176
     1
 40
1.0
176
     1
 90
        8
176
     1
 62
     7
176
     1
 40
1.0
176
     1
 90
        1
176
     1
 90
        6
176
     1
 90
        2
176
     1
 62
     7
176
     1
 90
        5
176
     1
 90
        0
176
     1
 90
        0
176
     1
290
     0
176
     1
 90
       13
176
     1
 40
0.0
176
     1
 90
        0
176
     1
290
     0
176
     1
290
     1
176
     1
290
     1
176
     1
290
     0
176
     1
290
     0
176
     1
290
     0
176
     1
290
     0
176
     1
290
     0
176
     1
290
     0
176
     1
 90
       50
176
     1
 40
0.0
176
     1
 40
1.0
176
     1
 90
        0
176
     1
 62
    18
420
        0
176
     1
 90
       50
176
     1
 90
        3
176
     1
 62
     5
420
      255
176
     1
290
     0
176
     1
 90
       50
176
     1
 90
       50
176
     1
 90
       50
176
     1
290
     0
176
     1
 90
       50
176
     1
 62
   256
176
     0
 40
1.0
176
     0
 90
        2
176
     1
  1
strokes_ogs.tif
176
     1
290
     0
176
     1
 40
1.0
176
     1
 40
1.0
176
     1
  0
VISUALSTYLE
  5
1001D
102
{ACAD_REACTORS
330
1001B
102
}
330
1001B
100
AcDbVisualStyle
  2

 70
     1
177
     3
291
     1
 70
    58
 90
        2
176
     1
 90
        1
176
     1
 90
        1
176
     1
 90
        2
176
     1
 40
0.6
176
     1
 40
30.0
176
     1
 62
     7
176
     1
 90
        1
176
     1
 90
        0
176
     1
 62
     7
176
     1
 62
   257
176
     1
 90
        1
176
     1
 90
        1
176
     1
 40
1.0
176
     1
 90
        0
176
     1
 62
   257
176
     1
 40
1.0
176
     1
 90
        1
176
     1
 90
        6
176
     1
 90
        2
176
     1
 62
     7
176
     1
 90
        5
176
     1
 90
        0
176
     1
 90
        0
176
     1
290
     0
176
     1
 90
       13
176
     1
 40
0.0
176
     1
 90
        0
176
     1
290
     0
176
     1
290
     1
176
     1
290
     1
176
     1
290
     0
176
     1
290
     0
176
     1
290
     0
176
     1
290
     0
176
     1
290
     0
176
     1
290
     0
176
     1
 90
       50
176
     1
 40
0.0
176
     1
 40
1.0
176
     1
 90
        0
176
     1
 62
    18
420
        0
176
     1
 90
       50
176
     1
 90
        3
176
     1
 62
     5
420
      255
176
     1
290
     0
176
     1
 90
       50
176
     1
 90
       50
176
     1
 90
       50
176
     1
290
     0
176
     1
 90
       50
176
     1
 62
   256
176
     0
 40
1.0
176
     0
 90
        2
176
     1
  1
strokes_ogs.tif
176
     1
290
     0
176
     1
 40
1.0
176
     1
 40
1.0
176
     1
  0
VISUALSTYLE
  5
1001E
102
{ACAD_REACTORS
330
1001B
102
}
330
1001B
100
AcDbVisualStyle
  2

 70
     2
177
     3
291
     1
 70
    58
 90
        2
176
     1
 90
        2
176
     1
 90
        1
176
     1
 90
        2
176
     1
 40
0.6
176
     1
 40
30.0
176
     1
 62
     7
176
     1
 90
        0
176
     1
 90
        0
176
     1
 62
     7
176
     1
 62
   257
176
     1
 90
        1
176
     1
 90
        1
176
     1
 40
1.0
176
     1
 90
        0
176
     1
 62
     7
176
     1
 40
1.0
176
     1
 90
        1
176
     1
 90
        6
176
     1
 90
        2
176
     1
 62
     7
176
     1
 90
        5
176
     1
 90
        0
176
     1
 90
        0
176
     1
290
     0
176
     1
 90
       13
176
     1
 40
0.0
176
     1
 90
        0
176
     1
290
     0
176
     1
290
     1
176
     1
290
     1
176
     1
290
     0
176
     1
290
     0
176
     1
290
     0
176
     1
290
     0
176
     1
290
     0
176
     1
290
     0
176
     1
 90
       50
176
     1
 40
0.0
176
     1
 40
1.0
176
     1
 90
        0
176
     1
 62
    18
420
        0
176
     1
 90
       50
176
     1
 90
        3
176
     1
 62
     5
420
      255
176
     1
290
     0
176
     1
 90
       50
176
     1
 90
       50
176
     1
 90
       50
176
     1
290
     0
176
     1
 90
       50
176
     1
 62
   256
176
     0
 40
1.0
176
     0
 90
        2
176
     1
  1
strokes_ogs.tif
176
     1
290
     0
176
     1
 40
1.0
176
     1
 40
1.0
176
     1
  0
VISUALSTYLE
  5
1001F
102
{ACAD_REACTORS
330
1001B
102
}
330
1001B
100
AcDbVisualStyle
  2

 70
     3
177
     3
291
     1
 70
    58
 90
        2
176
     1
 90
        2
176
     1
 90
        1
176
     1
 90
        2
176
     1
 40
0.6
176
     1
 40
30.0
176
     1
 62
     7
176
     1
 90
        1
176
     1
 90
        0
176
     1
 62
     7
176
     1
 62
   257
176
     1
 90
        1
176
     1
 90
        1
176
     1
 40
1.0
176
     1
 90
        0
176
     1
 62
   257
176
     1
 40
1.0
176
     1
 90
        1
176
     1
 90
        6
176
     1
 90
        2
176
     1
 62
     7
176
     1
 90
        5
176
     1
 90
        0
176
     1
 90
        0
176
     1
290
     0
176
     1
 90
       13
176
     1
 40
0.0
176
     1
 90
        0
176
     1
290
     0
176
     1
290
     1
176
     1
290
     1
176
     1
290
     0
176
     1
290
     0
176
     1
290
     0
176
     1
290
     0
176
     1
290
     0
176
     1
290
     0
176
     1
 90
       50
176
     1
 40
0.0
176
     1
 40
1.0
176
     1
 90
        0
176
     1
 62
    18
420
        0
176
     1
 90
       50
176
     1
 90
        3
176
     1
 62
     5
420
      255
176
     1
290
     0
176
     1
 90
       50
176
     1
 90
       50
176
     1
 90
       50
176
     1
290
     0
176
     1
 90
       50
176
     1
 62
   256
176
     0
 40
1.0
176
     0
 90
        2
176
     1
  1
strokes_ogs.tif
176
     1
290
     0
176
     1
 40
1.0
176
     1
 40
1.0
176
     1
  0
VISUALSTYLE
  5
10023
102
{ACAD_REACTORS
330
1001B
102
}
330
1001B
100
AcDbVisualStyle
  2

 70
     6
177
     3
291
     0
 70
    58
 90
        1
176
     1
 90
        2
176
     1
 90
        2
176
     1
 90
        0
176
     1
 40
0.6
176
     1
 40
30.0
176
     1
 62
     7
176
     1
 90
        2
176
     1
 90
        2
176
     1
 62
     7
176
     1
 62
   257
176
     1
 90
        2
176
     1
 90
        1
176
     1
 40
40.0
176
     1
 90
        0
176
     1
 62
   257
176
     1
 40
1.0
176
     1
 90
        1
176
     1
 90
        6
176
     1
 90
        2
176
     1
 62
     7
176
     1
 90
        3
176
     1
 90
        0
176
     1
 90
        0
176
     1
290
     0
176
     1
 90
        1
176
     1
 40
0.0
176
     1
 90
        0
176
     1
290
     0
176
     1
290
     1
176
     1
290
     1
176
     1
290
     0
176
     1
290
     0
176
     1
290
     0
176
     1
290
     0
176
     1
290
     0
176
     1
290
     0
176
     1
 90
       50
176
     1
 40
0.0
176
     1
 40
1.0
176
     1
 90
        0
176
     1
 62
    18
420
        0
176
     1
 90
       50
176
     1
 90
        3
176
     1
 62
     5
420
      255
176
     1
290
     0
176
     1
 90
       50
176
     1
 90
       50
176
     1
 90
       50
176
     1
290
     0
176
     1
 90
       50
176
     1
 62
   256
176
     0
 40
1.0
176
     0
 90
        2
176
     1
  1
strokes_ogs.tif
176
     1
290
     0
176
     1
 40
1.0
176
     1
 40
1.0
176
     1
  0
VISUALSTYLE
  5
10031
102
{ACAD_REACTORS
330
1001B
102
}
330
1001B
100
AcDbVisualStyle
  2

 70
    20
177
     3
291
     1
 70
    58
 90
        2
176
     0
 90
        2
176
     0
 90
        0
176
     0
 90
        0
176
     0
 40
0.6
176
     0
 40
30.0
176
     0
 62
     7
176
     0
 90
        1
176
     0
 90
        4
176
     0
 62
     7
176
     0
 62
   257
176
     0
 90
        1
176
     0
 90
        1
176
     0
 40
1.0
176
     0
 90
       10
176
     2
 62
     7
176
     0
 40
1.0
176
     0
 90
        1
176
     0
 90
        6
176
     0
 90
        2
176
     0
 62
     7
176
     0
 90
        5
176
     0
 90
        0
176
     0
 90
        0
176
     0
290
     0
176
     0
 90
        1
176
     0
 40
0.0
176
     0
 90
        0
176
     0
290
     0
176
     1
290
     1
176
     1
290
     1
176
     1
290
     0
176
     1
290
     0
176
     1
290
     0
176
     1
290
     0
176
     1
290
     0
176
     1
290
     0
176
     1
 90
       50
176
     0
 40
0.0
176
     0
 40
1.0
176
     0
 90
        0
176
     0
 62
    18
420
        0
176
     0
 90
       50
176
     0
 90
        3
176
     0
 62
     5
420
      255
176
     0
290
     0
176
     1
 90
       50
176
     0
 90
       50
176
     0
 90
       50
176
     0
290
     0
176
     1
 90
       50
176
     0
 62
   256
176
     0
 40
1.0
176
     0
 90
        2
176
     0
  1
strokes_ogs.tif
176
     0
290
     0
176
     1
 40
1.0
176
     0
 40
1.0
176
     0
  0
VISUALSTYLE
  5
10029
102
{ACAD_REACTORS
330
1001B
102
}
330
1001B
100
AcDbVisualStyle
  2

 70
    14
177
     3
291
     1
 70
    58
 90
        2
176
     1
 90
        2
176
     1
 90
        0
176
     1
 90
        0
176
     1
 40
0.6
176
     1
 40
30.0
176
     1
 62
     7
176
     1
 90
        1
176
     1
 90
        4
176
     1
 62
     7
176
     1
 62
   257
176
     1
 90
        7
176
     1
 90
        7
176
     1
 40
1.0
176
     1
 90
        8
176
     1
 62
     7
176
     1
 40
1.0
176
     1
 90
        1
176
     1
 90
        6
176
     1
 90
        2
176
     1
 62
     7
176
     1
 90
        5
176
     1
 90
        0
176
     1
 90
        0
176
     1
290
     0
176
     1
 90
        1
176
     1
 40
0.0
176
     1
 90
        0
176
     1
290
     0
176
     1
290
     1
176
     1
290
     1
176
     1
290
     0
176
     1
290
     0
176
     1
290
     0
176
     1
290
     0
176
     1
290
     0
176
     1
290
     0
176
     1
 90
       50
176
     1
 40
0.0
176
     1
 40
1.0
176
     1
 90
        0
176
     1
 62
    18
420
        0
176
     1
 90
       50
176
     1
 90
        3
176
     1
 62
     5
420
      255
176
     1
290
     0
176
     1
 90
       50
176
     1
 90
       50
176
     1
 90
       50
176
     1
290
     0
176
     1
 90
       50
176
     1
 62
   256
176
     0
 40
1.0
176
     0
 90
        2
176
     1
  1
strokes_ogs.tif
176
     1
290
     0
176
     1
 40
1.0
176
     1
 40
1.0
176
     1
  0
VISUALSTYLE
  5
10032
102
{ACAD_REACTORS
330
1001B
102
}
330
1001B
100
AcDbVisualStyle
  2

 70
    21
177
     3
291
     1
 70
    58
 90
        2
176
     0
 90
        2
176
     0
 90
        0
176
     0
 90
        0
176
     0
 40
0.6
176
     0
 40
30.0
176
     0
 62
     7
176
     0
 90
        1
176
     0
 90
        4
176
     0
 62
     7
176
     0
 62
   257
176
     0
 90
        1
176
     0
 90
        1
176
     0
 40
1.0
176
     0
 90
        9
176
     2
 62
     7
176
     0
 40
1.0
176
     0
 90
        1
176
     0
 90
        6
176
     0
 90
        2
176
     0
 62
     7
176
     0
 90
        5
176
     0
 90
        0
176
     0
 90
        0
176
     0
290
     0
176
     0
 90
        1
176
     0
 40
0.0
176
     0
 90
        0
176
     0
290
     0
176
     1
290
     1
176
     1
290
     1
176
     1
290
     0
176
     1
290
     0
176
     1
290
     0
176
     1
290
     0
176
     1
290
     0
176
     1
290
     0
176
     1
 90
       50
176
     0
 40
0.0
176
     0
 40
1.0
176
     0
 90
        0
176
     0
 62
    18
420
        0
176
     0
 90
       50
176
     0
 90
        3
176
     0
 62
     5
420
      255
176
     0
290
     0
176
     1
 90
       50
176
     0
 90
       50
176
     0
 90
       50
176
     0
290
     0
176
     1
 90
       50
176
     0
 62
   256
176
     0
 40
1.0
176
     0
 90
        2
176
     0
  1
strokes_ogs.tif
176
     0
290
     0
176
     1
 40
1.0
176
     0
 40
1.0
176
     0
  0
VISUALSTYLE
  5
10025
102
{ACAD_REACTORS
330
1001B
102
}
330
1001B
100
AcDbVisualStyle
  2

 70
     8
177
     3
291
     0
 70
    58
 90
        2
176
     1
 90
        2
176
     1
 90
        0
176
     1
 90
        2
176
     1
 40
0.6
176
     1
 40
30.0
176
     1
 62
     7
176
     1
 90
        0
176
     1
 90
        0
176
     1
 62
     7
176
     1
 62
   257
176
     1
 90
        1
176
     1
 90
        1
176
     1
 40
1.0
176
     1
 90
        8
176
     1
 62
   257
176
     1
 40
1.0
176
     1
 90
        1
176
     1
 90
        6
176
     1
 90
        2
176
     1
 62
     7
176
     1
 90
        3
176
     1
 90
        0
176
     1
 90
        0
176
     1
290
     0
176
     1
 90
       13
176
     1
 40
0.0
176
     1
 90
        0
176
     1
290
     0
176
     1
290
     1
176
     1
290
     1
176
     1
290
     0
176
     1
290
     0
176
     1
290
     0
176
     1
290
     0
176
     1
290
     0
176
     1
290
     0
176
     1
 90
       50
176
     1
 40
0.0
176
     1
 40
1.0
176
     1
 90
        0
176
     1
 62
    18
420
        0
176
     1
 90
       50
176
     1
 90
        3
176
     1
 62
     5
420
      255
176
     1
290
     0
176
     1
 90
       50
176
     1
 90
       50
176
     1
 90
       50
176
     1
290
     0
176
     1
 90
       50
176
     1
 62
   256
176
     0
 40
1.0
176
     0
 90
        2
176
     1
  1
strokes_ogs.tif
176
     1
290
     0
176
     1
 40
1.0
176
     1
 40
1.0
176
     1
  0
VISUALSTYLE
  5
10030
102
{ACAD_REACTORS
330
1001B
102
}
330
1001B
100
AcDbVisualStyle
  2

 70
    27
177
     3
291
     0
 70
    58
 90
        2
176
     1
 90
        2
176
     1
 90
        1
176
     1
 90
        2
176
     1
 40
0.6
176
     1
 40
30.0
176
     1
 62
     7
176
     1
 90
        0
176
     1
 90
        4
176
     1
 62
     7
176
     1
 62
   257
176
     1
 90
        1
176
     1
 90
        1
176
     1
 40
1.0
176
     1
 90
        8
176
     1
 62
   257
176
     1
 40
1.0
176
     1
 90
        1
176
     1
 90
        6
176
     1
 90
        2
176
     1
 62
     8
176
     1
 90
        3
176
     1
 90
        0
176
     1
 90
        0
176
     1
290
     0
176
     1
 90
        5
176
     1
 40
0.0
176
     1
 90
        0
176
     1
290
     0
176
     1
290
     1
176
     1
290
     1
176
     1
290
     0
176
     1
290
     0
176
     1
290
     0
176
     1
290
     0
176
     1
290
     0
176
     1
290
     0
176
     1
 90
       50
176
     1
 40
0.0
176
     1
 40
1.0
176
     1
 90
        0
176
     1
 62
    18
420
        0
176
     1
 90
       50
176
     1
 90
        3
176
     1
 62
     5
420
      255
176
     1
290
     0
176
     1
 90
       50
176
     1
 90
       50
176
     1
 90
       50
176
     1
290
     0
176
     1
 90
       50
176
     1
 62
   256
176
     0
 40
1.0
176
     0
 90
        2
176
     1
  1
strokes_ogs.tif
176
     1
290
     0
176
     1
 40
1.0
176
     1
 40
1.0
176
     1
  0
VISUALSTYLE
  5
1002F
102
{ACAD_REACTORS
330
1001B
102
}
330
1001B
100
AcDbVisualStyle
  2

 70
    26
177
     3
291
     0
 70
    58
 90
        2
176
     1
 90
        2
176
     1
 90
        1
176
     1
 90
        2
176
     1
 40
0.6
176
     1
 40
30.0
176
     1
 62
     7
176
     1
 90
        1
176
     1
 90
        2
176
     1
 62
     7
176
     1
 62
   257
176
     1
 90
        2
176
     1
 90
        1
176
     1
 40
1.0
176
     1
 90
        8
176
     1
 62
   257
176
     1
 40
1.0
176
     1
 90
        1
176
     1
 90
        6
176
     1
 90
        2
176
     1
 62
     7
176
     1
 90
        3
176
     1
 90
        0
176
     1
 90
        0
176
     1
290
     0
176
     1
 90
        5
176
     1
 40
0.0
176
     1
 90
        0
176
     1
290
     0
176
     1
290
     1
176
     1
290
     1
176
     1
290
     0
176
     1
290
     0
176
     1
290
     0
176
     1
290
     0
176
     1
290
     0
176
     1
290
     0
176
     1
 90
       50
176
     1
 40
0.0
176
     1
 40
1.0
176
     1
 90
        0
176
     1
 62
    18
420
        0
176
     1
 90
       50
176
     1
 90
        3
176
     1
 62
     5
420
      255
176
     1
290
     0
176
     1
 90
       50
176
     1
 90
       50
176
     1
 90
       50
176
     1
290
     0
176
     1
 90
       50
176
     1
 62
   256
176
     0
 40
1.0
176
     0
 90
        2
176
     1
  1
strokes_ogs.tif
176
     1
290
     0
176
     1
 40
1.0
176
     1
 40
1.0
176
     1
  0
VISUALSTYLE
  5
1002C
102
{ACAD_REACTORS
330
1001B
102
}
330
1001B
100
AcDbVisualStyle
  2

 70
    23
177
     3
291
     0
 70
    58
 90
        2
176
     1
 90
        2
176
     1
 90
        3
176
     1
 90
        0
176
     1
 40
0.6
176
     1
 40
30.0
176
     1
 62
     7
176
     1
 90
        2
176
     1
 90
        2
176
     1
 62
     7
176
     1
 62
     7
176
     1
 90
        1
176
     1
 90
        1
176
     1
 40
40.0
176
     1
 90
        8
176
     1
 62
     7
176
     1
 40
1.0
176
     1
 90
        1
176
     1
 90
        6
176
     1
 90
        2
176
     1
 62
     7
176
     1
 90
        3
176
     1
 90
        0
176
     1
 90
        0
176
     1
290
     0
176
     1
 90
        1
176
     1
 40
0.0
176
     1
 90
        0
176
     1
290
     0
176
     1
290
     1
176
     1
290
     1
176
     1
290
     0
176
     1
290
     0
176
     1
290
     0
176
     1
290
     0
176
     1
290
     0
176
     1
290
     0
176
     1
 90
       50
176
     1
 40
0.0
176
     1
 40
1.0
176
     1
 90
        0
176
     1
 62
    18
420
        0
176
     1
 90
       50
176
     1
 90
        3
176
     1
 62
     5
420
      255
176
     1
290
     0
176
     1
 90
       50
176
     1
 90
       50
176
     1
 90
       50
176
     1
290
     0
176
     1
 90
       50
176
     1
 62
   256
176
     0
 40
1.0
176
     0
 90
        2
176
     1
  1
strokes_ogs.tif
176
     1
290
     0
176
     1
 40
1.0
176
     1
 40
1.0
176
     1
  0
VISUALSTYLE
  5
1002D
102
{ACAD_REACTORS
330
1001B
102
}
330
1001B
100
AcDbVisualStyle
  2

 70
    24
177
     3
291
     0
 70
    58
 90
        1
176
     1
 90
        2
176
     1
 90
        2
176
     1
 90
        0
176
     1
 40
0.6
176
     1
 40
30.0
176
     1
 62
     7
176
     1
 90
        2
176
     1
 90
        2
176
     1
 62
     7
176
     1
 62
     7
176
     1
 90
        1
176
     1
 90
        1
176
     1
 40
40.0
176
     1
 90
       11
176
     1
 62
     7
176
     1
 40
1.0
176
     1
 90
        1
176
     1
 90
        6
176
     1
 90
        2
176
     1
 62
     7
176
     1
 90
        6
176
     1
 90
        0
176
     1
 90
        0
176
     1
290
     0
176
     1
 90
        1
176
     1
 40
0.0
176
     1
 90
        0
176
     1
290
     0
176
     1
290
     1
176
     1
290
     1
176
     1
290
     0
176
     1
290
     0
176
     1
290
     0
176
     1
290
     0
176
     1
290
     0
176
     1
290
     0
176
     1
 90
       50
176
     1
 40
0.0
176
     1
 40
1.0
176
     1
 90
        0
176
     1
 62
    18
420
        0
176
     1
 90
       50
176
     1
 90
        3
176
     1
 62
     5
420
      255
176
     1
290
     0
176
     1
 90
       50
176
     1
 90
       50
176
     1
 90
       50
176
     1
290
     0
176
     1
 90
       50
176
     1
 62
   256
176
     0
 40
1.0
176
     0
 90
        2
176
     1
  1
strokes_ogs.tif
176
     1
290
     0
176
     1
 40
1.0
176
     1
 40
1.0
176
     1
  0
VISUALSTYLE
  5
10028
102
{ACAD_REACTORS
330
1001B
102
}
330
1001B
100
AcDbVisualStyle
  2

 70
    13
177
     3
291
     1
 70
    58
 90
        2
176
     1
 90
        2
176
     1
 90
        0
176
     1
 90
        0
176
     1
 40
0.6
176
     1
 40
30.0
176
     1
 62
     7
176
     1
 90
        1
176
     1
 90
        4
176
     1
 62
     7
176
     1
 62
   257
176
     1
 90
        1
176
     1
 90
        1
176
     1
 40
1.0
176
     1
 90
       12
176
     1
 62
     7
176
     1
 40
1.0
176
     1
 90
        1
176
     1
 90
        6
176
     1
 90
        2
176
     1
 62
     7
176
     1
 90
        5
176
     1
 90
        0
176
     1
 90
        0
176
     1
290
     0
176
     1
 90
        1
176
     1
 40
0.0
176
     1
 90
        0
176
     1
290
     0
176
     1
290
     1
176
     1
290
     1
176
     1
290
     0
176
     1
290
     0
176
     1
290
     0
176
     1
290
     0
176
     1
290
     0
176
     1
290
     0
176
     1
 90
       50
176
     1
 40
0.0
176
     1
 40
1.0
176
     1
 90
        0
176
     1
 62
    18
420
        0
176
     1
 90
       50
176
     1
 90
        3
176
     1
 62
     5
420
      255
176
     1
290
     0
176
     1
 90
       50
176
     1
 90
       50
176
     1
 90
       50
176
     1
290
     0
176
     1
 90
       50
176
     1
 62
   256
176
     0
 40
1.0
176
     0
 90
        2
176
     1
  1
strokes_ogs.tif
176
     1
290
     0
176
     1
 40
1.0
176
     1
 40
1.0
176
     1
  0
VISUALSTYLE
  5
10022
102
{ACAD_REACTORS
330
1001B
102
}
330
1001B
100
AcDbVisualStyle
  2

 70
     5
177
     3
291
     0
 70
    58
 90
        0
176
     1
 90
        2
176
     1
 90
        0
176
     1
 90
        0
176
     1
 40
0.6
176
     1
 40
30.0
176
     1
 62
     7
176
     1
 90
        1
176
     1
 90
        4
176
     1
 62
     7
176
     1
 62
   257
176
     1
 90
        1
176
     1
 90
        1
176
     1
 40
1.0
176
     1
 90
        0
176
     1
 62
   257
176
     1
 40
1.0
176
     1
 90
        1
176
     1
 90
        6
176
     1
 90
        2
176
     1
 62
     7
176
     1
 90
        3
176
     1
 90
        0
176
     1
 90
        0
176
     1
290
     0
176
     1
 90
        1
176
     1
 40
0.0
176
     1
 90
        0
176
     1
290
     0
176
     1
290
     1
176
     1
290
     1
176
     1
290
     0
176
     1
290
     0
176
     1
290
     0
176
     1
290
     0
176
     1
290
     0
176
     1
290
     0
176
     1
 90
       50
176
     1
 40
0.0
176
     1
 40
1.0
176
     1
 90
        0
176
     1
 62
    18
420
        0
176
     1
 90
       50
176
     1
 90
        3
176
     1
 62
     5
420
      255
176
     1
290
     0
176
     1
 90
       50
176
     1
 90
       50
176
     1
 90
       50
176
     1
290
     0
176
     1
 90
       50
176
     1
 62
   256
176
     0
 40
1.0
176
     0
 90
        2
176
     1
  1
strokes_ogs.tif
176
     1
290
     0
176
     1
 40
1.0
176
     1
 40
1.0
176
     1
  0
VISUALSTYLE
  5
1002E
102
{ACAD_REACTORS
330
1001B
102
}
330
1001B
100
AcDbVisualStyle
  2

 70
    25
177
     3
291
     0
 70
    58
 90
        2
176
     1
 90
        2
176
     1
 90
        1
176
     1
 90
        1
176
     1
 40
0.5
176
     1
 40
30.0
176
     1
 62
     7
176
     1
 90
        1
176
     1
 90
        0
176
     1
 62
     7
176
     1
 62
   257
176
     1
 90
        1
176
     1
 90
        1
176
     1
 40
1.0
176
     1
 90
        8
176
     1
 62
     7
176
     1
 40
1.0
176
     1
 90
        1
176
     1
 90
        6
176
     1
 90
        2
176
     1
 62
     7
176
     1
 90
        3
176
     1
 90
        0
176
     1
 90
        0
176
     1
290
     0
176
     1
 90
       13
176
     1
 40
0.0
176
     1
 90
        0
176
     1
290
     0
176
     1
290
     1
176
     1
290
     1
176
     1
290
     0
176
     1
290
     0
176
     1
290
     0
176
     1
290
     0
176
     1
290
     0
176
     1
290
     0
176
     1
 90
       50
176
     1
 40
0.0
176
     1
 40
1.0
176
     1
 90
        0
176
     1
 62
    18
420
        0
176
     1
 90
       50
176
     1
 90
        3
176
     1
 62
     5
420
      255
176
     1
290
     0
176
     1
 90
       50
176
     1
 90
       50
176
     1
 90
       50
176
     1
290
     0
176
     1
 90
       50
176
     1
 62
   256
176
     0
 40
1.0
176
     0
 90
        2
176
     1
  1
strokes_ogs.tif
176
     1
290
     0
176
     1
 40
1.0
176
     1
 40
1.0
176
     1
  0
DICTIONARYVAR
  5
10067
102
{ACAD_REACTORS
330
2D6
102
}
330
2D6
100
DictionaryVariables
280
     0
  1
1:1
  0
DICTIONARYVAR
  5
10064
102
{ACAD_REACTORS
330
2D6
102
}
330
2D6
100
DictionaryVariables
280
     0
  1
STANDARD
  0
DICTIONARYVAR
  5
10063
102
{ACAD_REACTORS
330
2D6
102
}
330
2D6
100
DictionaryVariables
280
     0
  1
STANDARD
  0
DICTIONARYVAR
  5
10065
102
{ACAD_REACTORS
330
2D6
102
}
330
2D6
100
DictionaryVariables
280
     0
  1
Imperial24
  0
DICTIONARYVAR
  5
10066
102
{ACAD_REACTORS
330
2D6
102
}
330
2D6
100
DictionaryVariables
280
     0
  1
Imperial24
  0
DICTIONARYVAR
  5
2D8
330
2D6
100
DictionaryVariables
280
     0
  1
1
  0
DICTIONARYVAR
  5
2D7
330
2D6
100
DictionaryVariables
280
     0
  1
0
  0
DICTIONARYVAR
  5
10069
102
{ACAD_REACTORS
330
2D6
102
}
330
2D6
100
DictionaryVariables
280
     0
  1
0
  0
DICTIONARYVAR
  5
1011082
102
{ACAD_REACTORS
330
2D6
102
}
330
2D6
100
DictionaryVariables
280
     0
  1
1
  0
DICTIONARYVAR
  5
1011083
102
{ACAD_REACTORS
330
2D6
102
}
330
2D6
100
DictionaryVariables
280
     0
  1
15
  0
DICTIONARYVAR
  5
1011081
102
{ACAD_REACTORS
330
2D6
102
}
330
2D6
100
DictionaryVariables
280
     0
  1
0
  0
DICTIONARYVAR
  5
1011080
102
{ACAD_REACTORS
330
2D6
102
}
330
2D6
100
DictionaryVariables
280
     0
  1
0
  0
DICTIONARYVAR
  5
10068
102
{ACAD_REACTORS
330
2D6
102
}
330
2D6
100
DictionaryVariables
280
     0
  1
127
  0
DICTIONARY
  5
101107D
330
1004E
100
AcDbDictionary
280
     1
281
     1
  3
ACAD_XREC_ROUNDTRIP
360
1011516
  0
DICTIONARY
  5
1000C
330
1000B
100
AcDbDictionary
280
     1
281
     1
  3
BUMPTILE
360
1000E
  3
DIFFUSETILE
360
1000D
  3
OPACITYTILE
360
10011
  3
REFLECTIONTILE
360
10010
  3
REFRACTIONTILE
360
10012
  3
SPECULARTILE
360
1000F
  0
DICTIONARY
  5
10004
330
10003
100
AcDbDictionary
280
     1
281
     1
  3
BUMPTILE
360
10006
  3
DIFFUSETILE
360
10005
  3
OPACITYTILE
360
10009
  3
REFLECTIONTILE
360
10008
  3
REFRACTIONTILE
360
1000A
  3
SPECULARTILE
360
10007
  0
DICTIONARY
  5
10014
330
10013
100
AcDbDictionary
280
     1
281
     1
  3
BUMPTILE
360
10016
  3
DIFFUSETILE
360
10015
  3
OPACITYTILE
360
10019
  3
REFLECTIONTILE
360
10018
  3
REFRACTIONTILE
360
1001A
  3
SPECULARTILE
360
10017
  0
DICTIONARY
  5
101107B
330
1004C
100
AcDbDictionary
280
     1
281
     1
  3
ACAD_XREC_ROUNDTRIP
360
1011515
  0
DICTIONARY
  5
1006C
330
10036
100
AcDbDictionary
280
     1
281
     1
  3
ACAD_ROUNDTRIP_2008_TABLESTYLE_CELLSTYLEMAP
360
1011514
  0
XRECORD
  5
1011516
102
{ACAD_REACTORS
330
101107D
102
}
330
101107D
100
AcDbXrecord
280
     1
102
DISPLAYNAME
  1
Imperial24
102
FLAGS
 90
        0
  0
XRECORD
  5
1000E
102
{ACAD_REACTORS
330
1000C
102
}
330
1000C
100
AcDbXrecord
280
     1
270
     1
271
     1
  0
XRECORD
  5
1000D
102
{ACAD_REACTORS
330
1000C
102
}
330
1000C
100
AcDbXrecord
280
     1
270
     1
271
     1
  0
XRECORD
  5
10011
102
{ACAD_REACTORS
330
1000C
102
}
330
1000C
100
AcDbXrecord
280
     1
270
     1
271
     1
  0
XRECORD
  5
10010
102
{ACAD_REACTORS
330
1000C
102
}
330
1000C
100
AcDbXrecord
280
     1
270
     1
271
     1
  0
XRECORD
  5
10012
102
{ACAD_REACTORS
330
1000C
102
}
330
1000C
100
AcDbXrecord
280
     1
270
     1
271
     1
  0
XRECORD
  5
1000F
102
{ACAD_REACTORS
330
1000C
102
}
330
1000C
100
AcDbXrecord
280
     1
270
     1
271
     1
  0
XRECORD
  5
10006
102
{ACAD_REACTORS
330
10004
102
}
330
10004
100
AcDbXrecord
280
     1
270
     1
271
     1
  0
XRECORD
  5
10005
102
{ACAD_REACTORS
330
10004
102
}
330
10004
100
AcDbXrecord
280
     1
270
     1
271
     1
  0
XRECORD
  5
10009
102
{ACAD_REACTORS
330
10004
102
}
330
10004
100
AcDbXrecord
280
     1
270
     1
271
     1
  0
XRECORD
  5
10008
102
{ACAD_REACTORS
330
10004
102
}
330
10004
100
AcDbXrecord
280
     1
270
     1
271
     1
  0
XRECORD
  5
1000A
102
{ACAD_REACTORS
330
10004
102
}
330
10004
100
AcDbXrecord
280
     1
270
     1
271
     1
  0
XRECORD
  5
10007
102
{ACAD_REACTORS
330
10004
102
}
330
10004
100
AcDbXrecord
280
     1
270
     1
271
     1
  0
XRECORD
  5
10016
102
{ACAD_REACTORS
330
10014
102
}
330
10014
100
AcDbXrecord
280
     1
270
     1
271
     1
  0
XRECORD
  5
10015
102
{ACAD_REACTORS
330
10014
102
}
330
10014
100
AcDbXrecord
280
     1
270
     1
271
     1
  0
XRECORD
  5
10019
102
{ACAD_REACTORS
330
10014
102
}
330
10014
100
AcDbXrecord
280
     1
270
     1
271
     1
  0
XRECORD
  5
10018
102
{ACAD_REACTORS
330
10014
102
}
330
10014
100
AcDbXrecord
280
     1
270
     1
271
     1
  0
XRECORD
  5
1001A
102
{ACAD_REACTORS
330
10014
102
}
330
10014
100
AcDbXrecord
280
     1
270
     1
271
     1
  0
XRECORD
  5
10017
102
{ACAD_REACTORS
330
10014
102
}
330
10014
100
AcDbXrecord
280
     1
270
     1
271
     1
  0
XRECORD
  5
1011515
102
{ACAD_REACTORS
330
101107B
102
}
330
101107B
100
AcDbXrecord
280
     1
102
DISPLAYNAME
  1
Imperial24
102
FLAGS
 90
        0
  0
CELLSTYLEMAP
  5
1011514
102
{ACAD_REACTORS
330
1006C
102
}
330
1006C
100
AcDbCellStyleMap
 90
        3
300
CELLSTYLE
  1
TABLEFORMAT_BEGIN
 90
        5
170
     1
 91
        0
 92
    32768
 62
   257
 93
        1
300
CONTENTFORMAT
  1
CONTENTFORMAT_BEGIN
 90
        0
 91
        0
 92
      512
 93
        0
300

 40
0.0
140
1.0
 94
        5
 62
     0
340
11
144
0.25
309
CONTENTFORMAT_END
171
     1
301
MARGIN
  1
CELLMARGIN_BEGIN
 40
0.06
 40
0.06
 40
0.06
 40
0.06
 40
0.18
 40
0.18
309
CELLMARGIN_END
 94
        6
 95
        1
302
GRIDFORMAT
  1
GRIDFORMAT_BEGIN
 90
        0
 91
        1
 62
     0
 92
       -2
340
0
 93
        0
 40
0.045
309
GRIDFORMAT_END
 95
        2
302
GRIDFORMAT
  1
GRIDFORMAT_BEGIN
 90
        0
 91
        1
 62
     0
 92
       -2
340
0
 93
        0
 40
0.045
309
GRIDFORMAT_END
 95
        4
302
GRIDFORMAT
  1
GRIDFORMAT_BEGIN
 90
        0
 91
        1
 62
     0
 92
       -2
340
0
 93
        0
 40
0.045
309
GRIDFORMAT_END
 95
        8
302
GRIDFORMAT
  1
GRIDFORMAT_BEGIN
 90
        0
 91
        1
 62
     0
 92
       -2
340
0
 93
        0
 40
0.045
309
GRIDFORMAT_END
 95
       16
302
GRIDFORMAT
  1
GRIDFORMAT_BEGIN
 90
        0
 91
        1
 62
     0
 92
       -2
340
0
 93
        0
 40
0.045
309
GRIDFORMAT_END
 95
       32
302
GRIDFORMAT
  1
GRIDFORMAT_BEGIN
 90
        0
 91
        1
 62
     0
 92
       -2
340
0
 93
        0
 40
0.045
309
GRIDFORMAT_END
309
TABLEFORMAT_END
  1
CELLSTYLE_BEGIN
 90
        1
 91
        1
300
_TITLE
309
CELLSTYLE_END
300
CELLSTYLE
  1
TABLEFORMAT_BEGIN
 90
        5
170
     1
 91
        0
 92
        0
 62
   257
 93
        1
300
CONTENTFORMAT
  1
CONTENTFORMAT_BEGIN
 90
        0
 91
        0
 92
      512
 93
        0
300

 40
0.0
140
1.0
 94
        5
 62
     0
340
11
144
0.18
309
CONTENTFORMAT_END
171
     1
301
MARGIN
  1
CELLMARGIN_BEGIN
 40
0.06
 40
0.06
 40
0.06
 40
0.06
 40
0.18
 40
0.18
309
CELLMARGIN_END
 94
        6
 95
        1
302
GRIDFORMAT
  1
GRIDFORMAT_BEGIN
 90
        0
 91
        1
 62
     0
 92
       -2
340
0
 93
        0
 40
0.045
309
GRIDFORMAT_END
 95
        2
302
GRIDFORMAT
  1
GRIDFORMAT_BEGIN
 90
        0
 91
        1
 62
     0
 92
       -2
340
0
 93
        0
 40
0.045
309
GRIDFORMAT_END
 95
        4
302
GRIDFORMAT
  1
GRIDFORMAT_BEGIN
 90
        0
 91
        1
 62
     0
 92
       -2
340
0
 93
        0
 40
0.045
309
GRIDFORMAT_END
 95
        8
302
GRIDFORMAT
  1
GRIDFORMAT_BEGIN
 90
        0
 91
        1
 62
     0
 92
       -2
340
0
 93
        0
 40
0.045
309
GRIDFORMAT_END
 95
       16
302
GRIDFORMAT
  1
GRIDFORMAT_BEGIN
 90
        0
 91
        1
 62
     0
 92
       -2
340
0
 93
        0
 40
0.045
309
GRIDFORMAT_END
 95
       32
302
GRIDFORMAT
  1
GRIDFORMAT_BEGIN
 90
        0
 91
        1
 62
     0
 92
       -2
340
0
 93
        0
 40
0.045
309
GRIDFORMAT_END
309
TABLEFORMAT_END
  1
CELLSTYLE_BEGIN
 90
        2
 91
        1
300
_HEADER
309
CELLSTYLE_END
300
CELLSTYLE
  1
TABLEFORMAT_BEGIN
 90
        5
170
     1
 91
        0
 92
        0
 62
   257
 93
        1
300
CONTENTFORMAT
  1
CONTENTFORMAT_BEGIN
 90
        0
 91
        0
 92
      512
 93
        0
300

 40
0.0
140
1.0
 94
        2
 62
     0
340
11
144
0.18
309
CONTENTFORMAT_END
171
     1
301
MARGIN
  1
CELLMARGIN_BEGIN
 40
0.06
 40
0.06
 40
0.06
 40
0.06
 40
0.18
 40
0.18
309
CELLMARGIN_END
 94
        6
 95
        1
302
GRIDFORMAT
  1
GRIDFORMAT_BEGIN
 90
        0
 91
        1
 62
     0
 92
       -2
340
0
 93
        0
 40
0.045
309
GRIDFORMAT_END
 95
        2
302
GRIDFORMAT
  1
GRIDFORMAT_BEGIN
 90
        0
 91
        1
 62
     0
 92
       -2
340
0
 93
        0
 40
0.045
309
GRIDFORMAT_END
 95
        4
302
GRIDFORMAT
  1
GRIDFORMAT_BEGIN
 90
        0
 91
        1
 62
     0
 92
       -2
340
0
 93
        0
 40
0.045
309
GRIDFORMAT_END
 95
        8
302
GRIDFORMAT
  1
GRIDFORMAT_BEGIN
 90
        0
 91
        1
 62
     0
 92
       -2
340
0
 93
        0
 40
0.045
309
GRIDFORMAT_END
 95
       16
302
GRIDFORMAT
  1
GRIDFORMAT_BEGIN
 90
        0
 91
        1
 62
     0
 92
       -2
340
0
 93
        0
 40
0.045
309
GRIDFORMAT_END
 95
       32
302
GRIDFORMAT
  1
GRIDFORMAT_BEGIN
 90
        0
 91
        1
 62
     0
 92
       -2
340
0
 93
        0
 40
0.045
309
GRIDFORMAT_END
309
TABLEFORMAT_END
  1
CELLSTYLE_BEGIN
 90
        3
 91
        2
300
_DATA
309
CELLSTYLE_END
  0
ENDSEC
  0
EOF
